  0
SECTION
  2
HEADER
  9
$ACADVER
  1
AC1009
  9
$INSBASE
 10
0
 20
0
 30
0
  9
$EXTMIN
 10
0
 20
0
  9
$EXTMAX
 10
297
 20
210
  9
$LIMMIN
 10
0
 20
0
  9
$LIMMAX
 10
297
 20
210
  9
$LTSCALE
 40
1
  0
ENDSEC
  0
SECTION
  2
TABLES
  0
TABLE
  2
LTYPE
 70
     9
  0
LTYPE
  2
CONTINUOUS
 70
    64
  3
実線
 72
    65
 73
     0
 40
0.0
  0
LTYPE
  2
DASHED1
 70
    64
  3
--  --  --  --  --  --  --  --  
 72
    65
 73
     2
 40
2.5
 49
1.25
 49
-1.25
  0
LTYPE
  2
DASHED2
 70
    64
  3
----    ----    ----    ----    
 72
    65
 73
     2
 40
5.0
 49
2.5
 49
-2.5
  0
LTYPE
  2
DASHED3
 70
    64
  3
------  ------  ------  ------  
 72
    65
 73
     2
 40
5.0
 49
3.75
 49
-1.25
  0
LTYPE
  2
CENTER1
 70
    64
  3
----- - ----- - ----- - ----- - 
 72
    65
 73
     4
 40
10.0
 49
6.25
 49
-1.25
 49
1.25
 49
-1.25
  0
LTYPE
  2
CENTER2
 70
    64
  3
----------  --  ----------  --  
 72
    65
 73
     4
 40
20.0
 49
12.5
 49
-2.5
 49
2.5
 49
-2.5
  0
LTYPE
  2
PHANTOM1
 70
    64
  3
--- - - --- - - --- - - --- - - 
 72
    65
 73
     6
 40
10.0
 49
3.25
 49
-1.25
 49
1.25
 49
-1.25
 49
1.25
 49
-1.25
  0
LTYPE
  2
PHANTOM2
 70
    64
  3
--------  -  -  --------  -  -  
 72
    65
 73
     6
 40
20.0
 49
10.0
 49
-2.5
 49
1.25
 49
-2.5
 49
1.25
 49
-2.5
  0
LTYPE
  2
DOT
 70
    64
  3
-   -   -   -   -   -   -   -   
 72
    65
 73
     2
 40
2.5
 49
0.625
 49
-1.875
  0
LTYPE
  2
DUMMY
 70
    64
  3
ダミー
 72
    65
 73
     0
 40
0.0
  0
LTYPE
  2
RAND1
 70
    64
  3
ランダム線1
 72
    65
 73
     4
 40
10.0
 49
1.0
 49
-2.0
 49
3.0
 49
-4.0
  0
LTYPE
  2
RAND2
 70
    64
  3
ランダム線2
 72
    65
 73
     4
 40
14.0
 49
2.0
 49
-3.0
 49
4.0
 49
-5.0
  0
LTYPE
  2
RAND3
 70
    64
  3
ランダム線3
 72
    65
 73
     4
 40
18.0
 49
3.0
 49
-4.0
 49
5.0
 49
-6.0
  0
LTYPE
  2
RAND4
 70
    64
  3
ランダム線4
 72
    65
 73
     4
 40
22.0
 49
4.0
 49
-5.0
 49
6.0
 49
-7.0
  0
LTYPE
  2
RAND5
 70
    64
  3
ランダム線5
 72
    65
 73
     4
 40
26.0
 49
5.0
 49
-6.0
 49
7.0
 49
-8.0
  0
LTYPE
  2
LONG1
 70
    64
  3
----------  --  ----------  --  
 72
    65
 73
     4
 40
40.0
 49
32.5
 49
-2.5
 49
2.5
 49
-2.5
  0
LTYPE
  2
LONG2
 70
    64
  3
--------  -  -  --------  -  -  
 72
    65
 73
     6
 40
40.0
 49
30.0
 49
-2.5
 49
1.25
 49
-2.5
 49
1.25
 49
-2.5
  0
LTYPE
  2
LONG3
 70
    64
  3
+++++++++++++++..+++++++++++++++
 72
    65
 73
     2
 40
40.0
 49
37.5
 49
-2.5
  0
LTYPE
  2
LONG4
 70
    64
  3
+++++++++++++++..+++++++++++++++
 72
    65
 73
     2
 40
80.0
 49
75.0
 49
-5.0
  0
LTYPE
  2
LONG5
 70
    64
  3
----------  --  ----------  --  
 72
    65
 73
     4
 40
60.0
 49
37.5
 49
-7.5
 49
7.5
 49
-7.5
  0
LTYPE
  2
dashed
 70
   64
  3
-------   -------------   ------
 72
   65
 73
    2
 40
7.5
 49
6
 49
-1.5
  0
LTYPE
  2
dashed_spaced
 70
   64
  3
----        --------        ----
 72
   65
 73
    2
 40
12
 49
6
 49
-6
  0
LTYPE
  2
long_dashed_dotted
 70
   64
  3
------------- --- --------------
 72
   65
 73
    4
 40
15.25
 49
12
 49
-1.5
 49
0.25
 49
-1.5
  0
LTYPE
  2
long_dashed_double-dotted
 70
   64
  3
----------- --- --- ------------
 72
   65
 73
    6
 40
17
 49
12
 49
-1.5
 49
0.25
 49
-1.5
 49
0.25
 49
-1.5
  0
LTYPE
  2
long_dashed_triplicate-dotted
 70
   64
  3
--------- --- --- --- ----------
 72
   65
 73
    8
 40
18.75
 49
12
 49
-1.5
 49
0.25
 49
-1.5
 49
0.25
 49
-1.5
 49
0.25
 49
-1.5
  0
LTYPE
  2
dotted
 70
   64
  3
   -       -       -       -    
 72
   65
 73
    2
 40
1.75
 49
0.25
 49
-1.5
  0
LTYPE
  2
chain
 70
   64
  3
-------------- -- --------------
 72
   65
 73
    4
 40
18.5
 49
12
 49
-1.5
 49
3.5
 49
-1.5
  0
LTYPE
  2
chain_double_dash
 70
   64
  3
------------ -- -- -------------
 72
   65
 73
    6
 40
23.5
 49
12
 49
-1.5
 49
3.5
 49
-1.5
 49
3.5
 49
-1.5
  0
LTYPE
  2
dashed_dotted
 70
   64
  3
-----------     -     ----------
 72
   65
 73
    4
 40
9.25
 49
6
 49
-1.5
 49
0.25
 49
-1.5
  0
LTYPE
  2
double-dashed_dotted
 70
   64
  3
------   -----------   -   -----
 72
   65
 73
    6
 40
16.75
 49
6
 49
-1.5
 49
6
 49
-1.5
 49
0.25
 49
-1.5
  0
LTYPE
  2
dashed_double-dotted
 70
   64
  3
---------    -    -    ---------
 72
   65
 73
    6
 40
11
 49
6
 49
-1.5
 49
0.25
 49
-1.5
 49
0.25
 49
-1.5
  0
LTYPE
  2
double-dashed_double-dotted
 70
   64
  3
-----   ---------   -   -   ----
 72
   65
 73
    8
 40
18.5
 49
6
 49
-1.5
 49
6
 49
-1.5
 49
0.25
 49
-1.5
 49
0.25
 49
-1.5
  0
LTYPE
  2
dashed_triplicate-dotted
 70
   64
  3
-------    -    -    -    ------
 72
   65
 73
    8
 40
12.75
 49
6
 49
-1.5
 49
0.25
 49
-1.5
 49
0.25
 49
-1.5
 49
0.25
 49
-1.5
  0
LTYPE
  2
double-dashed_triplicate-dotted
 70
   64
  3
-----  ---------  -  -  -  -----
 72
   65
 73
   10
 40
20.25
 49
6
 49
-1.5
 49
6
 49
-1.5
 49
0.25
 49
-1.5
 49
0.25
 49
-1.5
 49
0.25
 49
-1.5
  0
LTYPE
  2
undefined
 70
   64
  3
--------------------------------
 72
   65
 73
    0
 40
0
  0
LTYPE
  2
DASHED
 70
   64
  3
----        --------        ----
 72
   65
 73
    2
 40
4
 49
2
 49
-2
  0
LTYPE
  2
DOT_18
 70
   64
  3
---           -----           --
 72
   65
 73
    2
 40
3
 49
1
 49
-2
  0
LTYPE
  2
DASHDOT
 70
   64
  3
---------    ------    ---------
 72
   65
 73
    4
 40
17
 49
10
 49
-2
 49
3
 49
-2
  0
LTYPE
  2
DIVIDE
 70
   64
  3
-----------  --  --  -----------
 72
   65
 73
    6
 40
30
 49
20
 49
-2
 49
2
 49
-2
 49
2
 49
-2
  0
LTYPE
  2
CENTER
 70
   64
  3
-------------  --  -------------
 72
   65
 73
    4
 40
13
 49
10
 49
-1
 49
1
 49
-1
  0
ENDTAB
  0
TABLE
  2
STYLE
  5
3
100
AcDbSymbolTable
 70
     1
  0
STYLE
  5
10
100
AcDbSymbolTableRecord
100
AcDbTextStyleTableRecord
  2
STANDARD
 70
     0
 40
0.0
 41
1.0
 50
0.0
 71
     0
 42
0.2
  3
txt
  4
bigfont.shx
  0
STYLE
  5
26
100
AcDbSymbolTableRecord
100
AcDbTextStyleTableRecord
  2
TATEGAKI
 70
    68
 40
0.0
 41
1.0
 50
0.0
 71
     0
 42
1.0
  3
txt
  4
bigfont.shx
  0
ENDTAB
  0
TABLE
  2
LAYER
 70
    6
  0
LAYER
  2
_0-0_
 70
   64
 62
    7
  6
CONTINUOUS
  0
LAYER
  2
_0-1_作画層１
 70
   64
 62
    7
  6
CONTINUOUS
  0
LAYER
  2
_0-7_注記層１
 70
   64
 62
    7
  6
CONTINUOUS
  0
LAYER
  2
_0-9_寸法線層１
 70
   64
 62
    7
  6
CONTINUOUS
  0
LAYER
  2
_0-d_0_1
 70
   64
 62
    7
  6
CONTINUOUS
  0
LAYER
  2
ADD_LINE
 70
   64
 62
    7
  6
CONTINUOUS
  0
ENDTAB
  0
ENDSEC
  0
SECTION
  2
BLOCKS
  0
BLOCK
  2
-000-_D0
 70
   64
 10
0
 20
0
 30
0
  0
LINE
  8
_0-9_寸法線層１
  6
CONTINUOUS
 62
    7
 10
35.791146666685208
 20
262.11797638436485
 11
107.79110089031802
 21
262.11797638436485
  0
TEXT
  8
_0-9_寸法線層１
 62
    7
 10
69.902895210847831
 20
263.11797638436485
 40
3
 41
1
 50
0
  1
72
  0
LINE
  8
_0-9_寸法線層１
  6
CONTINUOUS
 62
    7
 10
35.791146666685208
 20
251.61796875497032
 11
35.791146666685208
 21
264.11797638436485
  0
LINE
  8
_0-9_寸法線層１
  6
CONTINUOUS
 62
    7
 10
107.79110089031802
 20
251.61800308724571
 11
107.79110089031802
 21
264.11797638436485
  0
ENDBLK
  0
BLOCK
  2
-001-_D1
 70
   64
 10
0
 20
0
 30
0
  0
LINE
  8
_0-9_寸法線層１
  6
CONTINUOUS
 62
    7
 10
26.791123778501614
 20
253.11797256966759
 11
26.791123778501614
 21
181.11801453133751
  0
TEXT
  8
_0-9_寸法線層１
 62
    7
 10
25.791123778501628
 20
215.22976498284876
 40
3
 41
1
 50
90
  1
72
  0
LINE
  8
_0-9_寸法線層１
  6
CONTINUOUS
 62
    7
 10
37.291142851987942
 20
253.11797256966759
 11
24.791123778501614
 21
253.11797256966759
  0
LINE
  8
_0-9_寸法線層１
  6
CONTINUOUS
 62
    7
 10
37.291119963804348
 20
181.11801453133751
 11
24.791123778501614
 21
181.11801453133751
  0
ENDBLK
  0
BLOCK
  2
-002-_D2
 70
   64
 10
0
 20
0
 30
0
  0
LINE
  8
_0-9_寸法線層１
  6
CONTINUOUS
 62
    7
 10
134.29112377850163
 20
262.11797638436485
 11
154.29112377850163
 21
262.11797638436485
  0
TEXT
  8
_0-9_寸法線層１
 62
    7
 10
142.40289521084784
 20
263.11797638436485
 40
3
 41
1
 50
0
  1
20
  0
LINE
  8
_0-9_寸法線層１
  6
CONTINUOUS
 62
    7
 10
134.29112377850163
 20
255.11797638436485
 11
134.29112377850163
 21
264.11797638436485
  0
LINE
  8
_0-9_寸法線層１
  6
CONTINUOUS
 62
    7
 10
154.29112377850163
 20
255.11797638436485
 11
154.29112377850163
 21
264.11797638436485
  0
ENDBLK
  0
BLOCK
  2
-003-_D3
 70
   64
 10
0
 20
0
 30
0
  0
LINE
  8
_0-9_寸法線層１
  6
CONTINUOUS
 62
    7
 10
154.29112377850163
 20
262.11797638436485
 11
182.29114803758679
 21
262.11797638436485
  0
TEXT
  8
_0-9_寸法線層１
 62
    7
 10
166.40290734039044
 20
263.11797638436485
 40
3
 41
1
 50
0
  1
28
  0
LINE
  8
_0-9_寸法線層１
  6
CONTINUOUS
 62
    7
 10
154.29112377850163
 20
255.11797638436485
 11
154.29112377850163
 21
264.11797638436485
  0
LINE
  8
_0-9_寸法線層１
  6
CONTINUOUS
 62
    7
 10
182.29114803758679
 20
251.36798405647278
 11
182.29114803758679
 21
264.11797638436485
  0
ENDBLK
  0
BLOCK
  2
-004-_D4
 70
   64
 10
0
 20
0
 30
0
  0
LINE
  8
_0-9_寸法線層１
  6
CONTINUOUS
 62
    7
 10
200.79114803758679
 20
262.11797638436485
 11
215.42935234615541
 21
262.11797638436485
  0
TEXT
  8
_0-9_寸法線層１
 62
    7
 10
213.15289521084784
 20
263.11797638436485
 40
3
 41
1
 50
0
  1
2
  0
LINE
  8
_0-9_寸法線層１
  6
CONTINUOUS
 62
    7
 10
205.29114803758679
 20
251.36798405647278
 11
205.29114803758679
 21
264.11797638436485
  0
LINE
  8
_0-9_寸法線層１
  6
CONTINUOUS
 62
    7
 10
207.29113563982438
 20
199.36798024177551
 11
207.29113563982438
 21
264.11797638436485
  0
ENDBLK
  0
BLOCK
  2
-005-_D5
 70
   64
 10
0
 20
0
 30
0
  0
LINE
  8
_0-9_寸法線層１
  6
CONTINUOUS
 62
    7
 10
134.29112377850163
 20
269.61797638436485
 11
205.29114803758679
 21
269.61797638436485
  0
TEXT
  8
_0-9_寸法線層１
 62
    7
 10
167.90290734039044
 20
270.61797638436485
 40
3
 41
1
 50
0
  1
71
  0
LINE
  8
_0-9_寸法線層１
  6
CONTINUOUS
 62
    7
 10
134.29112377850163
 20
255.11797638436485
 11
134.29112377850163
 21
271.61797638436485
  0
LINE
  8
_0-9_寸法線層１
  6
CONTINUOUS
 62
    7
 10
205.29114803758679
 20
251.36798405647278
 11
205.29114803758679
 21
271.61797638436485
  0
ENDBLK
  0
BLOCK
  2
-006-_D6
 70
   64
 10
0
 20
0
 30
0
  0
LINE
  8
_0-9_寸法線層１
  6
CONTINUOUS
 62
    7
 10
182.29114803758679
 20
262.11797638436485
 11
205.29114803758679
 21
262.11797638436485
  0
TEXT
  8
_0-9_寸法線層１
 62
    7
 10
190.40291946993301
 20
263.11797638436485
 40
3
 41
1
 50
0
  1
(23)
  0
LINE
  8
_0-9_寸法線層１
  6
CONTINUOUS
 62
    7
 10
182.29114803758679
 20
251.36798405647278
 11
182.29114803758679
 21
264.11797638436485
  0
LINE
  8
_0-9_寸法線層１
  6
CONTINUOUS
 62
    7
 10
205.29114803758679
 20
251.36798405647278
 11
205.29114803758679
 21
264.11797638436485
  0
ENDBLK
  0
BLOCK
  2
-007-_D7
 70
   64
 10
0
 20
0
 30
0
  0
LINE
  8
_0-9_寸法線層１
  6
CONTINUOUS
 62
    7
 10
329.29112377850163
 20
130.11797638436485
 11
329.29112377850163
 21
62.117976384364852
  0
TEXT
  8
_0-9_寸法線層１
 62
    7
 10
327.69112377850161
 20
90.882987819353417
 40
3
 41
1
 50
90
  1
68±
  0
TEXT
  8
_0-9_寸法線層１
 62
    7
 10
326.19112377850161
 20
97.659444954660984
 40
2.0999999999999996
 41
1
 50
90
  1
0.5
  0
TEXT
  8
_0-9_寸法線層１
 62
    7
 10
328.29112377850163
 20
97.659444954660984
 40
2.0999999999999996
 41
1
 50
90
  1
0
  0
LINE
  8
_0-9_寸法線層１
  6
CONTINUOUS
 62
    7
 10
336.29112377850163
 20
130.11797638436485
 11
327.29112377850163
 21
130.11797638436485
  0
LINE
  8
_0-9_寸法線層１
  6
CONTINUOUS
 62
    7
 10
336.29112377850163
 20
62.117976384364852
 11
327.29112377850163
 21
62.117976384364852
  0
ENDBLK
  0
BLOCK
  2
-008-_D8
 70
   64
 10
0
 20
0
 30
0
  0
LINE
  8
_0-9_寸法線層１
  6
CONTINUOUS
 62
    7
 10
404.79112377850163
 20
137.11797638436485
 11
336.79112377850163
 21
137.11797638436485
  0
TEXT
  8
_0-9_寸法線層１
 62
    7
 10
365.55613521349022
 20
138.71797638436485
 40
3
 41
1
 50
0
  1
68±
  0
TEXT
  8
_0-9_寸法線層１
 62
    7
 10
372.33259234879773
 20
140.21797638436485
 40
2.0999999999999996
 41
1
 50
0
  1
0.5
  0
TEXT
  8
_0-9_寸法線層１
 62
    7
 10
372.33259234879773
 20
138.11797638436485
 40
2.0999999999999996
 41
1
 50
0
  1
0
  0
LINE
  8
_0-9_寸法線層１
  6
CONTINUOUS
 62
    7
 10
404.79112377850163
 20
130.61797638436485
 11
404.79112377850163
 21
139.11797638436485
  0
LINE
  8
_0-9_寸法線層１
  6
CONTINUOUS
 62
    7
 10
336.79112377850163
 20
130.61797638436485
 11
336.79112377850163
 21
139.11797638436485
  0
ENDBLK
  0
BLOCK
  2
-009-_D9
 70
   64
 10
0
 20
0
 30
0
  0
LINE
  8
_0-9_寸法線層１
  6
CONTINUOUS
 62
    7
 10
221.79112377850163
 20
250.86798401375938
 11
221.79112377850163
 21
183.36798019906212
  0
TEXT
  8
_0-9_寸法線層１
 62
    7
 10
220.79112377850163
 20
215.22975353875697
 40
3
 41
1
 50
90
  1
68
  0
LINE
  8
_0-9_寸法線層１
  6
CONTINUOUS
 62
    7
 10
172.79114803758679
 20
250.86798401375938
 11
223.79112377850163
 21
250.86798401375938
  0
LINE
  8
_0-9_寸法線層１
  6
CONTINUOUS
 62
    7
 10
172.79113194433776
 20
183.36798019906212
 11
223.79112377850163
 21
183.36798019906212
  0
ENDBLK
  0
ENDSEC
  0
SECTION
  2
ENTITIES
  0
TEXT
  8
_0-7_注記層１
 62
    7
 10
209.75
 20
219.5
 40
3.5
 41
1
 50
0
  1
型　　 　番
  0
TEXT
  8
_0-7_注記層１
 62
    7
 10
209.75
 20
209.5
 40
3.5
 41
1
 50
0
  1
許容電圧変動範囲
  0
TEXT
  8
_0-7_注記層１
 62
    7
 10
209.75
 20
204.5
 40
3.5
 41
1
 50
0
  1
周　　波　　数
  0
TEXT
  8
_0-7_注記層１
 62
    7
 10
209.75
 20
199.5
 40
3.5
 41
1
 50
0
  1
停　電　補　償
  0
TEXT
  8
_0-7_注記層１
 62
    7
 10
209.75
 20
214.5
 40
3.5
 41
1
 50
0
  1
電  源  電  圧
  0
TEXT
  8
_0-7_注記層１
 62
    7
 10
207.25
 20
228.75
 40
5
 41
1
 50
0
  1
規　格
  0
LINE
  8
_0-1_作画層１
  6
CONTINUOUS
 62
    7
 10
204.75
 20
228.75
 11
224.75
 21
228.75
  0
TEXT
  8
_0-7_注記層１
 62
    7
 10
239.625
 20
-15.5
 40
3.5
 41
1
 50
0
  1
1/1
  0
TEXT
  8
_0-7_注記層１
 62
    7
 10
273.75
 20
-13
 40
3.5
 41
1
 50
0
  1
承認
  0
TEXT
  8
_0-7_注記層１
 62
    7
 10
212.25
 20
-26.25
 40
5
 41
1
 50
0
  1
スナオ電気株式会社
  0
LINE
  8
_0-1_作画層１
  6
CONTINUOUS
 62
    7
 10
207.25
 20
-8.75
 11
207.25
 21
-28.75
  0
LINE
  8
_0-1_作画層１
  6
CONTINUOUS
 62
    7
 10
232.25
 20
-8.75
 11
232.25
 21
-18.75
  0
LINE
  8
_0-1_作画層１
  6
CONTINUOUS
 62
    7
 10
252.25
 20
-8.75
 11
252.25
 21
-18.75
  0
LINE
  8
_0-1_作画層１
  6
CONTINUOUS
 62
    7
 10
272.25
 20
-8.75
 11
272.25
 21
-18.75
  0
LINE
  8
_0-1_作画層１
  6
CONTINUOUS
 62
    7
 10
297.25
 20
-28.75
 11
297.25
 21
-8.75
  0
LINE
  8
_0-1_作画層１
  6
CONTINUOUS
 62
    7
 10
352.25
 20
248.75
 11
-45.25
 21
248.75
  0
LINE
  8
_0-1_作画層１
  6
CONTINUOUS
 62
    7
 10
-45.25
 20
-28.75
 11
-45.25
 21
248.75
  0
LINE
  8
_0-1_作画層１
  6
CONTINUOUS
 62
    7
 10
352.25
 20
-28.75
 11
-45.25
 21
-28.75
  0
LINE
  8
_0-1_作画層１
  6
CONTINUOUS
 62
    7
 10
352.25
 20
-8.75
 11
207.25
 21
-8.75
  0
LINE
  8
_0-1_作画層１
  6
CONTINUOUS
 62
    7
 10
352.25
 20
-18.75
 11
207.25
 21
-18.75
  0
LINE
  8
_0-1_作画層１
  6
CONTINUOUS
 62
    7
 10
352.25
 20
-28.75
 11
352.25
 21
248.75
  0
TEXT
  8
_0-7_注記層１
 62
    7
 10
302.25
 20
-15.5
 40
3.5
 41
1
 50
0
  1
カレンダータイマー
  0
TEXT
  8
_0-7_注記層１
 62
    7
 10
257
 20
-15.5
 40
3.5
 41
1
 50
0
  1
ゴトウ
  0
TEXT
  8
_0-7_注記層１
 62
    7
 10
209.75
 20
194.5
 40
3.5
 41
1
 50
0
  1
使 用 周 囲 温 度
  0
TEXT
  8
_0-7_注記層１
 62
    7
 10
209.75
 20
189.5
 40
3.5
 41
1
 50
0
  1
使 用 周 囲 湿 度
  0
TEXT
  8
_0-7_注記層１
 62
    7
 10
209.75
 20
184.5
 40
3.5
 41
1
 50
0
  1
接　点　定　格
  0
TEXT
  8
_0-7_注記層１
 62
    7
 10
209.75
 20
179.5
 40
3.5
 41
1
 50
0
  1
出　　　　　力
  0
TEXT
  8
_0-7_注記層１
 62
    7
 10
209.75
 20
174.5
 40
3.5
 41
1
 50
0
  1
設　定　回　数
  0
TEXT
  8
_0-7_注記層１
 62
    7
 10
209.75
 20
169.5
 40
3.5
 41
1
 50
0
  1
最 小 設 定 時 間
  0
TEXT
  8
_0-7_注記層１
 62
    7
 10
209.75
 20
164.5
 40
3.5
 41
1
 50
0
  1
時　間　精　度
  0
TEXT
  8
_0-7_注記層１
 62
    7
 10
209.75
 20
159.5
 40
3.5
 41
1
 50
0
  1
消　費　電　力　
  0
TEXT
  8
_0-7_注記層１
 62
    7
 10
209.75
 20
154.5
 40
3.5
 41
1
 50
0
  1
重　　　  　量
  0
TEXT
  8
_0-7_注記層１
 62
    7
 10
209.75
 20
149.5
 40
3.5
 41
1
 50
0
  1
外　形　寸　法
  0
TEXT
  8
_0-7_注記層１
 62
    7
 10
244.75
 20
194.5
 40
3.5
 41
1
 50
0
  1
-10℃～50℃
  0
TEXT
  8
_0-7_注記層１
 62
    7
 10
244.75
 20
179.5
 40
3.5
 41
1
 50
0
  1
接点出力（1a）
  0
TEXT
  8
_0-7_注記層１
 62
    7
 10
244.75
 20
184.5
 40
3.5
 41
1
 50
0
  1
抵抗負荷　AC250V  7A
  0
TEXT
  8
_0-7_注記層１
 62
    7
 10
209.75
 20
144.5
 40
3.5
 41
1
 50
0
  1
付　　属　　品
  0
LINE
  8
_0-1_作画層１
  6
CONTINUOUS
 62
    7
 10
207.25
 20
140
 11
207.25
 21
223.75
  0
LINE
  8
_0-1_作画層１
  6
CONTINUOUS
 62
    7
 10
242.25
 20
140
 11
242.25
 21
223.75
  0
LINE
  8
_0-1_作画層１
  6
CONTINUOUS
 62
    7
 10
319.75
 20
140
 11
319.75
 21
223.75
  0
LINE
  8
_0-1_作画層１
  6
CONTINUOUS
 62
    7
 10
319.75
 20
223.75
 11
207.25
 21
223.75
  0
LINE
  8
_0-1_作画層１
  6
CONTINUOUS
 62
    7
 10
319.75
 20
218.75
 11
207.25
 21
218.75
  0
LINE
  8
_0-1_作画層１
  6
CONTINUOUS
 62
    7
 10
319.75
 20
213.75
 11
207.25
 21
213.75
  0
LINE
  8
_0-1_作画層１
  6
CONTINUOUS
 62
    7
 10
319.75
 20
208.75
 11
207.25
 21
208.75
  0
LINE
  8
_0-1_作画層１
  6
CONTINUOUS
 62
    7
 10
319.75
 20
203.75
 11
207.25
 21
203.75
  0
LINE
  8
_0-1_作画層１
  6
CONTINUOUS
 62
    7
 10
319.75
 20
198.75
 11
207.25
 21
198.75
  0
LINE
  8
_0-1_作画層１
  6
CONTINUOUS
 62
    7
 10
319.75
 20
193.75
 11
207.25
 21
193.75
  0
LINE
  8
_0-1_作画層１
  6
CONTINUOUS
 62
    7
 10
319.75
 20
193.75
 11
207.25
 21
193.75
  0
LINE
  8
_0-1_作画層１
  6
CONTINUOUS
 62
    7
 10
319.75
 20
188.75
 11
207.25
 21
188.75
  0
LINE
  8
_0-1_作画層１
  6
CONTINUOUS
 62
    7
 10
319.75
 20
183.75
 11
207.25
 21
183.75
  0
LINE
  8
_0-1_作画層１
  6
CONTINUOUS
 62
    7
 10
319.75
 20
178.75
 11
207.25
 21
178.75
  0
LINE
  8
_0-1_作画層１
  6
CONTINUOUS
 62
    7
 10
319.75
 20
173.75
 11
207.25
 21
173.75
  0
LINE
  8
_0-1_作画層１
  6
CONTINUOUS
 62
    7
 10
319.75
 20
168.75
 11
207.25
 21
168.75
  0
LINE
  8
_0-1_作画層１
  6
CONTINUOUS
 62
    7
 10
319.75
 20
163.75
 11
207.25
 21
163.75
  0
LINE
  8
_0-1_作画層１
  6
CONTINUOUS
 62
    7
 10
319.75
 20
158.75
 11
207.25
 21
158.75
  0
LINE
  8
_0-1_作画層１
  6
CONTINUOUS
 62
    7
 10
319.75
 20
153.75
 11
207.25
 21
153.75
  0
LINE
  8
_0-1_作画層１
  6
CONTINUOUS
 62
    7
 10
319.75
 20
148.75
 11
207.25
 21
148.75
  0
LINE
  8
_0-1_作画層１
  6
CONTINUOUS
 62
    7
 10
319.75
 20
140
 11
207.25
 21
140
  0
CIRCLE
  8
_0-1_作画層１
  6
CONTINUOUS
 62
    7
 10
94.75
 20
33.75
 40
5
  0
LINE
  8
_0-1_作画層１
  6
CONTINUOUS
 62
    7
 10
93.5
 20
38.125
 11
96
 21
38.125
  0
LINE
  8
_0-1_作画層１
  6
CONTINUOUS
 62
    7
 10
96
 20
29.375
 11
93.5
 21
29.375
  0
LINE
  8
_0-1_作画層１
  6
CONTINUOUS
 62
    7
 10
99.125
 20
35
 11
99.125
 21
32.5
  0
LINE
  8
_0-1_作画層１
  6
CONTINUOUS
 62
    7
 10
90.375
 20
32.5
 11
90.375
 21
35
  0
ARC
  8
_0-1_作画層１
  6
CONTINUOUS
 62
    7
 10
92.500000000000028
 20
35.999999999999986
 40
0.9999999999999712
 50
269.99999999999835
 51
0.0000000000008142
  0
LINE
  8
_0-1_作画層１
  6
CONTINUOUS
 62
    7
 10
90.375
 20
32.5
 11
92.5
 21
32.5
  0
ARC
  8
_0-1_作画層１
  6
CONTINUOUS
 62
    7
 10
92.500000000000028
 20
31.500000000000014
 40
0.9999999999999854
 50
359.9999999999992
 51
90.000000000001634
  0
LINE
  8
_0-1_作画層１
  6
CONTINUOUS
 62
    7
 10
99.125
 20
35
 11
97
 21
35
  0
ARC
  8
_0-1_作画層１
  6
CONTINUOUS
 62
    7
 10
96.999999999999972
 20
35.999999999999986
 40
0.9999999999999854
 50
179.99999999999918
 51
270.00000000000171
  0
LINE
  8
_0-1_作画層１
  6
CONTINUOUS
 62
    7
 10
92.500000127156596
 20
35
 11
90.375
 21
35
  0
LINE
  8
_0-1_作画層１
  6
CONTINUOUS
 62
    7
 10
99.125
 20
32.5
 11
97
 21
32.5
  0
LINE
  8
_0-1_作画層１
  6
CONTINUOUS
 62
    7
 10
96
 20
29.375
 11
96
 21
31.5
  0
ARC
  8
_0-1_作画層１
  6
CONTINUOUS
 62
    7
 10
96.999999999999972
 20
31.500000000000014
 40
0.9999999999999854
 50
89.99999999999838
 51
180.00000000000082
  0
LINE
  8
_0-1_作画層１
  6
CONTINUOUS
 62
    7
 10
93.5
 20
35.999999999999986
 11
93.5
 21
38.125
  0
LINE
  8
_0-1_作画層１
  6
CONTINUOUS
 62
    7
 10
93.5
 20
31.500000000000014
 11
93.5
 21
29.375
  0
LINE
  8
_0-1_作画層１
  6
CONTINUOUS
 62
    7
 10
96
 20
35.999999999999986
 11
96
 21
38.125
  0
CIRCLE
  8
_0-1_作画層１
  6
CONTINUOUS
 62
    7
 10
112.25
 20
33.75
 40
5
  0
LINE
  8
_0-1_作画層１
  6
CONTINUOUS
 62
    7
 10
111
 20
38.125
 11
113.5
 21
38.125
  0
LINE
  8
_0-1_作画層１
  6
CONTINUOUS
 62
    7
 10
113.5
 20
29.375
 11
111
 21
29.375
  0
LINE
  8
_0-1_作画層１
  6
CONTINUOUS
 62
    7
 10
116.625
 20
35
 11
116.625
 21
32.5
  0
LINE
  8
_0-1_作画層１
  6
CONTINUOUS
 62
    7
 10
107.875
 20
32.5
 11
107.875
 21
35
  0
ARC
  8
_0-1_作画層１
  6
CONTINUOUS
 62
    7
 10
110.00000000000003
 20
35.999999999999986
 40
0.9999999999999712
 50
269.99999999999835
 51
0.0000000000008142
  0
LINE
  8
_0-1_作画層１
  6
CONTINUOUS
 62
    7
 10
107.875
 20
32.5
 11
110
 21
32.5
  0
ARC
  8
_0-1_作画層１
  6
CONTINUOUS
 62
    7
 10
110.00000000000003
 20
31.500000000000014
 40
0.9999999999999854
 50
359.9999999999992
 51
90.000000000001634
  0
LINE
  8
_0-1_作画層１
  6
CONTINUOUS
 62
    7
 10
116.625
 20
35
 11
114.5
 21
35
  0
ARC
  8
_0-1_作画層１
  6
CONTINUOUS
 62
    7
 10
114.49999999999997
 20
35.999999999999986
 40
0.9999999999999854
 50
179.99999999999918
 51
270.00000000000171
  0
LINE
  8
_0-1_作画層１
  6
CONTINUOUS
 62
    7
 10
110.0000001271566
 20
35
 11
107.875
 21
35
  0
LINE
  8
_0-1_作画層１
  6
CONTINUOUS
 62
    7
 10
116.625
 20
32.5
 11
114.5
 21
32.5
  0
LINE
  8
_0-1_作画層１
  6
CONTINUOUS
 62
    7
 10
113.5
 20
29.375
 11
113.5
 21
31.5
  0
ARC
  8
_0-1_作画層１
  6
CONTINUOUS
 62
    7
 10
114.49999999999997
 20
31.500000000000014
 40
0.9999999999999854
 50
89.99999999999838
 51
180.00000000000082
  0
LINE
  8
_0-1_作画層１
  6
CONTINUOUS
 62
    7
 10
111
 20
35.999999999999986
 11
111
 21
38.125
  0
LINE
  8
_0-1_作画層１
  6
CONTINUOUS
 62
    7
 10
111
 20
31.500000000000014
 11
111
 21
29.375
  0
LINE
  8
_0-1_作画層１
  6
CONTINUOUS
 62
    7
 10
113.5
 20
35.999999999999986
 11
113.5
 21
38.125
  0
CIRCLE
  8
_0-1_作画層１
  6
CONTINUOUS
 62
    7
 10
129.75
 20
33.75
 40
5
  0
LINE
  8
_0-1_作画層１
  6
CONTINUOUS
 62
    7
 10
128.5
 20
38.125
 11
131
 21
38.125
  0
LINE
  8
_0-1_作画層１
  6
CONTINUOUS
 62
    7
 10
131
 20
29.375
 11
128.5
 21
29.375
  0
LINE
  8
_0-1_作画層１
  6
CONTINUOUS
 62
    7
 10
134.125
 20
35
 11
134.125
 21
32.5
  0
LINE
  8
_0-1_作画層１
  6
CONTINUOUS
 62
    7
 10
125.375
 20
32.5
 11
125.375
 21
35
  0
ARC
  8
_0-1_作画層１
  6
CONTINUOUS
 62
    7
 10
127.50000000000003
 20
35.999999999999986
 40
0.9999999999999712
 50
269.99999999999835
 51
0.0000000000008142
  0
LINE
  8
_0-1_作画層１
  6
CONTINUOUS
 62
    7
 10
125.375
 20
32.5
 11
127.5
 21
32.5
  0
ARC
  8
_0-1_作画層１
  6
CONTINUOUS
 62
    7
 10
127.50000000000003
 20
31.500000000000014
 40
0.9999999999999854
 50
359.9999999999992
 51
90.000000000001634
  0
LINE
  8
_0-1_作画層１
  6
CONTINUOUS
 62
    7
 10
134.125
 20
35
 11
132
 21
35
  0
ARC
  8
_0-1_作画層１
  6
CONTINUOUS
 62
    7
 10
131.99999999999997
 20
35.999999999999986
 40
0.9999999999999854
 50
179.99999999999918
 51
270.00000000000171
  0
LINE
  8
_0-1_作画層１
  6
CONTINUOUS
 62
    7
 10
127.5000001271566
 20
35
 11
125.375
 21
35
  0
LINE
  8
_0-1_作画層１
  6
CONTINUOUS
 62
    7
 10
134.125
 20
32.5
 11
132
 21
32.5
  0
LINE
  8
_0-1_作画層１
  6
CONTINUOUS
 62
    7
 10
131
 20
29.375
 11
131
 21
31.5
  0
ARC
  8
_0-1_作画層１
  6
CONTINUOUS
 62
    7
 10
131.99999999999997
 20
31.500000000000014
 40
0.9999999999999854
 50
89.99999999999838
 51
180.00000000000082
  0
LINE
  8
_0-1_作画層１
  6
CONTINUOUS
 62
    7
 10
128.5
 20
35.999999999999986
 11
128.5
 21
38.125
  0
LINE
  8
_0-1_作画層１
  6
CONTINUOUS
 62
    7
 10
128.5
 20
31.500000000000014
 11
128.5
 21
29.375
  0
LINE
  8
_0-1_作画層１
  6
CONTINUOUS
 62
    7
 10
131
 20
35.999999999999986
 11
131
 21
38.125
  0
CIRCLE
  8
_0-1_作画層１
  6
CONTINUOUS
 62
    7
 10
147.25
 20
33.75
 40
5
  0
LINE
  8
_0-1_作画層１
  6
CONTINUOUS
 62
    7
 10
146
 20
38.125
 11
148.5
 21
38.125
  0
LINE
  8
_0-1_作画層１
  6
CONTINUOUS
 62
    7
 10
148.5
 20
29.375
 11
146
 21
29.375
  0
LINE
  8
_0-1_作画層１
  6
CONTINUOUS
 62
    7
 10
151.625
 20
35
 11
151.625
 21
32.5
  0
LINE
  8
_0-1_作画層１
  6
CONTINUOUS
 62
    7
 10
142.875
 20
32.5
 11
142.875
 21
35
  0
ARC
  8
_0-1_作画層１
  6
CONTINUOUS
 62
    7
 10
145.00000000000003
 20
35.999999999999986
 40
0.9999999999999712
 50
269.99999999999835
 51
0.0000000000008142
  0
LINE
  8
_0-1_作画層１
  6
CONTINUOUS
 62
    7
 10
142.875
 20
32.5
 11
145
 21
32.5
  0
ARC
  8
_0-1_作画層１
  6
CONTINUOUS
 62
    7
 10
145.00000000000003
 20
31.500000000000014
 40
0.9999999999999854
 50
359.9999999999992
 51
90.000000000001634
  0
LINE
  8
_0-1_作画層１
  6
CONTINUOUS
 62
    7
 10
151.625
 20
35
 11
149.5
 21
35
  0
ARC
  8
_0-1_作画層１
  6
CONTINUOUS
 62
    7
 10
149.49999999999997
 20
35.999999999999986
 40
0.9999999999999854
 50
179.99999999999918
 51
270.00000000000171
  0
LINE
  8
_0-1_作画層１
  6
CONTINUOUS
 62
    7
 10
145.0000001271566
 20
35
 11
142.875
 21
35
  0
LINE
  8
_0-1_作画層１
  6
CONTINUOUS
 62
    7
 10
151.625
 20
32.5
 11
149.5
 21
32.5
  0
LINE
  8
_0-1_作画層１
  6
CONTINUOUS
 62
    7
 10
148.5
 20
29.375
 11
148.5
 21
31.5
  0
ARC
  8
_0-1_作画層１
  6
CONTINUOUS
 62
    7
 10
149.49999999999997
 20
31.500000000000014
 40
0.9999999999999854
 50
89.99999999999838
 51
180.00000000000082
  0
LINE
  8
_0-1_作画層１
  6
CONTINUOUS
 62
    7
 10
146
 20
35.999999999999986
 11
146
 21
38.125
  0
LINE
  8
_0-1_作画層１
  6
CONTINUOUS
 62
    7
 10
146
 20
31.500000000000014
 11
146
 21
29.375
  0
LINE
  8
_0-1_作画層１
  6
CONTINUOUS
 62
    7
 10
148.5
 20
35.999999999999986
 11
148.5
 21
38.125
  0
LINE
  8
_0-1_作画層１
  6
CONTINUOUS
 62
    7
 10
87.25
 20
41.25
 11
154.75
 21
41.25
  0
LINE
  8
_0-1_作画層１
  6
CONTINUOUS
 62
    7
 10
154.75
 20
41.25
 11
154.75
 21
26.25
  0
LINE
  8
_0-1_作画層１
  6
CONTINUOUS
 62
    7
 10
154.75
 20
26.25
 11
87.25
 21
26.25
  0
LINE
  8
_0-1_作画層１
  6
CONTINUOUS
 62
    7
 10
87.25
 20
26.25
 11
87.25
 21
41.25
  0
LINE
  8
_0-1_作画層１
  6
CONTINUOUS
 62
    7
 10
147.25
 20
18.75
 11
159.75
 21
18.75
  0
CIRCLE
  8
_0-1_作画層１
  6
CONTINUOUS
 62
    7
 10
103.5
 20
11.25
 40
5
  0
ARC
  8
_0-1_作画層１
  6
CONTINUOUS
 62
    7
 10
101.9375
 20
11.409974466828913
 40
1.5706680362308238
 50
185.84578235473452
 51
354.15421764526542
  0
ARC
  8
_0-1_作画層１
  6
CONTINUOUS
 62
    7
 10
105.0625
 20
11.090025533171058
 40
1.5706680362308283
 50
5.8457823547360706
 51
174.15421764526394
  0
LINE
  8
_0-1_作画層１
  6
CONTINUOUS
 62
    7
 10
98.5
 20
11.25
 11
94.75
 21
11.25
  0
LINE
  8
_0-1_作画層１
  6
CONTINUOUS
 62
    7
 10
112.25
 20
11.25
 11
108.5
 21
11.25
  0
LINE
  8
_0-1_作画層１
  6
CONTINUOUS
 62
    7
 10
132.25
 20
11.25
 11
129.75
 21
11.25
  0
TEXT
  8
_0-7_注記層１
 62
    7
 10
98.75
 20
2
 40
3.5
 41
1
 50
0
  1
電源
  0
TEXT
  8
_0-7_注記層１
 62
    7
 10
92.625
 20
-1.5
 40
3.5
 41
1
 50
0
  1
AC100V-200V
  0
TEXT
  8
_0-7_注記層１
 62
    7
 10
133.75
 20
9.5
 40
3.5
 41
1
 50
0
  1
負荷
  0
LINE
  8
_0-1_作画層１
  6
CONTINUOUS
 62
    7
 10
132.25
 20
8.75
 11
142.25
 21
8.75
  0
LINE
  8
_0-1_作画層１
  6
CONTINUOUS
 62
    7
 10
142.25
 20
8.75
 11
142.25
 21
13.75
  0
LINE
  8
_0-1_作画層１
  6
CONTINUOUS
 62
    7
 10
142.25
 20
13.75
 11
132.25
 21
13.75
  0
LINE
  8
_0-1_作画層１
  6
CONTINUOUS
 62
    7
 10
132.25
 20
13.75
 11
132.25
 21
8.75
  0
LINE
  8
_0-1_作画層１
  6
CONTINUOUS
 62
    7
 10
142.25
 20
11.25
 11
159.75
 21
11.25
  0
CIRCLE
  8
_0-1_作画層１
  6
CONTINUOUS
 62
    7
 10
133.5
 20
56.25
 40
1.25
  0
CIRCLE
  8
_0-1_作画層１
  6
CONTINUOUS
 62
    7
 10
143.5
 20
56.25
 40
1.25
  0
LINE
  8
_0-1_作画層１
  6
CONTINUOUS
 62
    7
 10
132.25
 20
56.25
 11
129.75
 21
56.25
  0
LINE
  8
_0-1_作画層１
  6
CONTINUOUS
 62
    7
 10
144.75
 20
56.25
 11
147.25
 21
56.25
  0
TEXT
  8
_0-7_注記層１
 62
    7
 10
96.5
 20
54.5
 40
3.5
 41
1
 50
0
  1
内部回路
  0
LINE
  8
_0-1_作画層１
  6
CONTINUOUS
 62
    7
 10
92.25
 20
53.75
 11
114.75
 21
53.75
  0
LINE
  8
_0-1_作画層１
  6
CONTINUOUS
 62
    7
 10
114.75
 20
53.75
 11
114.75
 21
58.75
  0
LINE
  8
_0-1_作画層１
  6
CONTINUOUS
 62
    7
 10
114.75
 20
58.75
 11
92.25
 21
58.75
  0
LINE
  8
_0-1_作画層１
  6
CONTINUOUS
 62
    7
 10
92.25
 20
58.75
 11
92.25
 21
53.75
  0
LINE
  8
_0-1_作画層１
  6
CONTINUOUS
 62
    7
 10
129.75
 20
41.25
 11
129.75
 21
56.25
  0
LINE
  8
_0-1_作画層１
  6
CONTINUOUS
 62
    7
 10
147.25
 20
41.25
 11
147.25
 21
56.25
  0
LINE
  8
_0-1_作画層１
  6
CONTINUOUS
 62
    7
 10
94.75
 20
41.25
 11
94.75
 21
53.75
  0
LINE
  8
_0-1_作画層１
  6
CONTINUOUS
 62
    7
 10
112.25
 20
41.25
 11
112.25
 21
53.75
  0
LINE
  8
_0-1_作画層１
  6
CONTINUOUS
 62
    7
 10
94.75
 20
26.25
 11
94.75
 21
11.25
  0
LINE
  8
_0-1_作画層１
  6
CONTINUOUS
 62
    7
 10
112.25
 20
26.25
 11
112.25
 21
11.25
  0
LINE
  8
_0-1_作画層１
  6
CONTINUOUS
 62
    7
 10
147.25
 20
26.25
 11
147.25
 21
18.75
  0
LINE
  8
_0-1_作画層１
  6
CONTINUOUS
 62
    7
 10
129.75
 20
26.25
 11
129.75
 21
11.25
  0
TEXT
  8
_0-7_注記層１
 62
    7
 10
161
 20
13.75
 40
3.5
 41
1
 50
0
  1
負荷用電源
  0
LINE
  8
_0-1_作画層１
  6
CONTINUOUS
 62
    7
 10
134.25
 20
57.25
 11
142.25
 21
61.25
  0
TEXT
  8
_0-7_注記層１
 62
    7
 10
132.75
 20
64.5
 40
3.5
 41
1
 50
0
  1
接点出力
  0
LINE
  8
_0-1_作画層１
  6
CONTINUOUS
 62
    7
 10
94.75
 20
73.75
 11
119.75
 21
73.75
  0
TEXT
  8
_0-7_注記層１
 62
    7
 10
97.25
 20
73.75
 40
5
 41
1
 50
0
  1
端子接続
  0
LINE
  8
_0-1_作画層１
  6
DASHED
 62
    7
 10
167.25
 20
66.25
 11
167.25
 21
33.75
  0
LINE
  8
_0-1_作画層１
  6
DASHED
 62
    7
 10
167.25
 20
33.75
 11
154.75
 21
33.75
  0
LINE
  8
_0-1_作画層１
  6
DASHED
 62
    7
 10
74.75
 20
66.25
 11
74.75
 21
33.75
  0
LINE
  8
_0-1_作画層１
  6
DASHED
 62
    7
 10
74.75
 20
33.75
 11
87.25
 21
33.75
  0
TEXT
  8
_0-7_注記層１
 62
    7
 10
-17.75
 20
233.75
 40
5
 41
1
 50
0
  1
外形寸法
  0
LINE
  8
_0-1_作画層１
  6
CONTINUOUS
 62
    7
 10
-20.25
 20
233.75
 11
4.75
 21
233.75
  0
TEXT
  8
_0-7_注記層１
 62
    7
 10
244.75
 20
219.5
 40
3.5
 41
1
 50
0
  1
ETS-703P
  0
TEXT
  8
_0-7_注記層１
 62
    7
 10
244.75
 20
209.5
 40
3.5
 41
1
 50
0
  1
AC85V～AC230V
  0
TEXT
  8
_0-7_注記層１
 62
    7
 10
244.75
 20
169.5
 40
3.5
 41
1
 50
0
  1
30分
  0
TEXT
  8
_0-7_注記層１
 62
    7
 10
244.75
 20
164.5
 40
3.5
 41
1
 50
0
  1
±15秒／月（25℃）
  0
TEXT
  8
_0-7_注記層１
 62
    7
 10
244.75
 20
159.5
 40
3.5
 41
1
 50
0
  1
約10VA
  0
TEXT
  8
_0-7_注記層１
 62
    7
 10
244.75
 20
154.5
 40
3.5
 41
1
 50
0
  1
200g
  0
LINE
  8
_0-1_作画層１
  6
CONTINUOUS
 62
    7
 10
14.644435197988628
 20
207.30591698189903
 11
15.004175693670391
 21
201.81765099068809
  0
LINE
  8
_0-1_作画層１
  6
CONTINUOUS
 62
    7
 10
12.755848080793498
 20
207.11986656685997
 11
13.473780543485759
 21
201.66691704293419
  0
LINE
  8
_0-1_作画層１
  6
CONTINUOUS
 62
    7
 10
10.883516223112224
 20
206.81073685189415
 11
11.956490904966472
 21
201.41645737191368
  0
LINE
  8
_0-1_作画層１
  6
CONTINUOUS
 62
    7
 10
9.035348326841472
 20
206.37984200020958
 11
10.458877474943279
 21
201.06724281808067
  0
LINE
  8
_0-1_作画層１
  6
CONTINUOUS
 62
    7
 10
7.2193845817242845
 20
205.82893295785118
 11
8.987273604551433
 21
200.62082787057091
  0
LINE
  8
_0-1_作画層１
  6
CONTINUOUS
 62
    7
 10
5.443297774473308
 20
205.16047401925255
 11
7.5480493613873705
 21
200.07914848824669
  0
LINE
  8
_0-1_作画層１
  6
CONTINUOUS
 62
    7
 10
3.7147687980328783
 20
204.37728615304161
 11
6.1473287650738939
 21
199.44451256295372
  0
LINE
  8
_0-1_作画層１
  6
CONTINUOUS
 62
    7
 10
2.0411390372906908
 20
203.48274155160118
 11
4.7911209174786791
 21
198.71958084603477
  0
LINE
  8
_0-1_作画層１
  6
CONTINUOUS
 62
    7
 10
0.4296087333356126
 20
202.48060532113243
 11
3.4852193900738939
 21
197.90749474068809
  0
LINE
  8
_0-1_作画層１
  6
CONTINUOUS
 62
    7
 10
2.2352212974225267
 20
197.01177902718712
 11
-1.1129575661028639
 21
201.37521667977501
  0
LINE
  8
_0-1_作画層１
  6
CONTINUOUS
 62
    7
 10
-2.5798879555071608
 20
200.17133446236778
 11
1.0464834281598314
 21
196.0362388660543
  0
LINE
  8
_0-1_作画層１
  6
CONTINUOUS
 62
    7
 10
-3.964966385682942
 20
198.87410278817345
 11
-0.0758863380755201
 21
194.98499603768516
  0
LINE
  8
_0-1_作画層１
  6
CONTINUOUS
 62
    7
 10
-5.262207596620442
 20
197.4890148212545
 11
-1.1270852974261061
 21
193.86259098550011
  0
LINE
  8
_0-1_作画層１
  6
CONTINUOUS
 62
    7
 10
-6.4661336830462233
 20
196.02203865548302
 11
-2.1026864937151686
 21
192.67386932870079
  0
LINE
  8
_0-1_作画層１
  6
CONTINUOUS
 62
    7
 10
-7.5714784553850905
 20
194.47953529854942
 11
-2.998404114564778
 21
191.42388077279259
  0
LINE
  8
_0-1_作画層１
  6
CONTINUOUS
 62
    7
 10
-8.5736146858538405
 20
192.86800499459434
 11
-3.8104730537737623
 21
190.11798782845665
  0
LINE
  8
_0-1_作画層１
  6
CONTINUOUS
 62
    7
 10
-9.4681669166888014
 20
191.19436569710899
 11
-4.5353780678118483
 21
188.7617370655172
  0
LINE
  8
_0-1_作画層１
  6
CONTINUOUS
 62
    7
 10
-10.9198327949847
 20
187.68973274727989
 11
-5.711762039979817
 21
185.92180033227135
  0
LINE
  8
_0-1_作画層１
  6
CONTINUOUS
 62
    7
 10
-10.251373856386067
 20
189.46578522225548
 11
-5.1700387886370436
 21
187.36104221841026
  0
LINE
  8
_0-1_作画層１
  6
CONTINUOUS
 62
    7
 10
-11.470734207948567
 20
185.87375183602501
 11
-6.158133118471028
 21
184.45023174782921
  0
LINE
  8
_0-1_作画層１
  6
CONTINUOUS
 62
    7
 10
-11.901671021303059
 20
184.02561016579796
 11
-6.5073133400286451
 21
182.95257444878746
  0
LINE
  8
_0-1_作画層１
  6
CONTINUOUS
 62
    7
 10
-12.210766403993489
 20
182.15321703454185
 11
-6.7577997139300123
 21
181.43536348839928
  0
LINE
  8
_0-1_作画層１
  6
CONTINUOUS
 62
    7
 10
-12.396799652894856
 20
180.26464744111229
 11
-6.9085679939593092
 21
179.90495069523979
  0
LINE
  8
_0-1_作画層１
  6
CONTINUOUS
 62
    7
 10
45.479003340879544
 20
180.26466496487785
 11
39.990788848081692
 21
179.90498574277092
  0
LINE
  8
_0-1_作画層１
  6
CONTINUOUS
 62
    7
 10
45.292994887510403
 20
182.15327830811668
 11
39.840047270933255
 21
181.43532844086815
  0
LINE
  8
_0-1_作画層１
  6
CONTINUOUS
 62
    7
 10
44.983884246030911
 20
184.02558393975426
 11
39.589570433775052
 21
182.95260925790001
  0
LINE
  8
_0-1_作画層１
  6
CONTINUOUS
 62
    7
 10
44.552964598814114
 20
185.87371702691246
 11
39.240373046079739
 21
184.45023174782921
  0
LINE
  8
_0-1_作画層１
  6
CONTINUOUS
 62
    7
 10
44.002097518125638
 20
187.68973274727989
 11
38.793958098569973
 21
185.92183514138389
  0
LINE
  8
_0-1_作画層１
  6
CONTINUOUS
 62
    7
 10
43.333596617857083
 20
189.46581097146202
 11
38.252278716245755
 21
187.36105080147911
  0
LINE
  8
_0-1_作画層１
  6
CONTINUOUS
 62
    7
 10
42.550406844297513
 20
191.1943485309713
 11
37.617625624815091
 21
188.76177139779259
  0
LINE
  8
_0-1_作画層１
  6
CONTINUOUS
 62
    7
 10
41.655854613462552
 20
192.86798687478233
 11
36.892711074033841
 21
190.1179792453878
  0
LINE
  8
_0-1_作画層１
  6
CONTINUOUS
 62
    7
 10
40.653735549131497
 20
194.47950096627403
 11
36.080632598081692
 21
191.4238988926046
  0
LINE
  8
_0-1_作画層１
  6
CONTINUOUS
 62
    7
 10
35.184909255186184
 20
192.67387886544395
 11
39.548354537168606
 21
196.02206535836388
  0
LINE
  8
_0-1_作画層１
  6
CONTINUOUS
 62
    7
 10
38.344464690366848
 20
197.48898811837364
 11
34.209351927915677
 21
193.8626081516378
  0
LINE
  8
_0-1_作画層１
  6
CONTINUOUS
 62
    7
 10
37.047213942686184
 20
198.87408371468712
 11
33.158126265684231
 21
194.984986500942
  0
LINE
  8
_0-1_作画層１
  6
CONTINUOUS
 62
    7
 10
35.662145049253567
 20
200.17132492562462
 11
32.035720259824856
 21
196.03622932931114
  0
LINE
  8
_0-1_作画層１
  6
CONTINUOUS
 62
    7
 10
34.195168883482083
 20
201.37522430916954
 11
30.846999556699856
 21
197.01178665658165
  0
LINE
  8
_0-1_作画層１
  6
CONTINUOUS
 62
    7
 10
32.652648360410794
 20
202.48058815499473
 11
29.596984297910794
 21
197.90748520394493
  0
LINE
  8
_0-1_作画層１
  6
CONTINUOUS
 62
    7
 10
31.041099936643704
 20
203.48270721932579
 11
28.291118056455716
 21
198.71957321664024
  0
LINE
  8
_0-1_作画層１
  6
CONTINUOUS
 62
    7
 10
29.367487342039212
 20
204.37726707955528
 11
26.934893042722805
 21
199.44446869393516
  0
LINE
  8
_0-1_作画層１
  6
CONTINUOUS
 62
    7
 10
25.862871558347805
 20
205.82893295785118
 11
24.094938666502102
 21
200.6208622028463
  0
LINE
  8
_0-1_作画層１
  6
CONTINUOUS
 62
    7
 10
27.638924033323391
 20
205.16047401925255
 11
25.534171492735013
 21
200.07914848824669
  0
LINE
  8
_0-1_作画層１
  6
CONTINUOUS
 62
    7
 10
24.046820552030667
 20
206.3798782398336
 11
22.623370082059964
 21
201.06723328133751
  0
LINE
  8
_0-1_作画層１
  6
CONTINUOUS
 62
    7
 10
22.198748976865872
 20
206.81075401803184
 11
21.125739009061917
 21
201.41640587350059
  0
LINE
  8
_0-1_作画層１
  6
CONTINUOUS
 62
    7
 10
20.32636442867863
 20
207.11986656685997
 11
19.608502061048625
 21
201.66690941353966
  0
LINE
  8
_0-1_作画層１
  6
CONTINUOUS
 62
    7
 10
18.437829763570903
 20
207.30586357613731
 11
18.078080565611003
 21
201.81768532296348
  0
LINE
  8
_0-1_作画層１
  6
CONTINUOUS
 62
    7
 10
18.437812359014629
 20
149.43006248971153
 11
18.078071863332866
 21
154.91832085152794
  0
LINE
  8
_0-1_作画層１
  6
CONTINUOUS
 62
    7
 10
20.326373250166057
 20
149.61608620186973
 11
19.608467013517497
 21
155.06905289193321
  0
LINE
  8
_0-1_作画層１
  6
CONTINUOUS
 62
    7
 10
22.198731333891018
 20
149.92522545357872
 11
21.12575665203677
 21
155.31951256295372
  0
LINE
  8
_0-1_作画層１
  6
CONTINUOUS
 62
    7
 10
24.046882064024075
 20
150.35614510079552
 11
22.623370082059964
 21
155.66872711678673
  0
LINE
  8
_0-1_作画層１
  6
CONTINUOUS
 62
    7
 10
25.862845809141263
 20
150.90701981087852
 11
24.094973952451809
 21
156.11514206429649
  0
LINE
  8
_0-1_作画層１
  6
CONTINUOUS
 62
    7
 10
27.638932616392239
 20
151.57547874947716
 11
25.534198195615872
 21
156.65682144662071
  0
LINE
  8
_0-1_作画層１
  6
CONTINUOUS
 62
    7
 10
29.367478758970364
 20
152.35868568917442
 11
26.934918791929348
 21
157.29145737191368
  0
LINE
  8
_0-1_作画層１
  6
CONTINUOUS
 62
    7
 10
31.041125685850247
 20
153.25326462289024
 11
28.291126639524563
 21
158.01638908883263
  0
LINE
  8
_0-1_作画層１
  6
CONTINUOUS
 62
    7
 10
32.65263882366763
 20
154.25536461373497
 11
29.597028166929348
 21
158.8284751941793
  0
LINE
  8
_0-1_作画層１
  6
CONTINUOUS
 62
    7
 10
30.847026259580716
 20
159.72419090768028
 11
34.195195586362942
 21
155.3607360889547
  0
LINE
  8
_0-1_作画層１
  6
CONTINUOUS
 62
    7
 10
35.662135512510403
 20
156.56463547249962
 11
32.035764128843411
 21
160.69973106881309
  0
LINE
  8
_0-1_作画層１
  6
CONTINUOUS
 62
    7
 10
37.047213942686184
 20
157.86190338631798
 11
33.158133895078763
 21
161.75097389718223
  0
LINE
  8
_0-1_作画層１
  6
CONTINUOUS
 62
    7
 10
38.344455153623684
 20
159.2469551136129
 11
34.209332854429348
 21
162.87337990304161
  0
LINE
  8
_0-1_作画層１
  6
CONTINUOUS
 62
    7
 10
39.548371703306302
 20
160.71393890877891
 11
35.184934050718411
 21
164.06210060616661
  0
LINE
  8
_0-1_作画層１
  6
CONTINUOUS
 62
    7
 10
40.653769881406888
 20
162.25645180245567
 11
36.08065167156802
 21
165.31208916207481
  0
LINE
  8
_0-1_作画層１
  6
CONTINUOUS
 62
    7
 10
41.655818373838528
 20
163.86800022622276
 11
36.892720610777005
 21
166.61798210641075
  0
LINE
  8
_0-1_作画層１
  6
CONTINUOUS
 62
    7
 10
42.550406844297513
 20
165.54161282082725
 11
37.617625624815091
 21
167.97423382302452
  0
LINE
  8
_0-1_作画層１
  6
CONTINUOUS
 62
    7
 10
44.002089888731106
 20
169.04623718758751
 11
38.794009596983059
 21
170.81417007943321
  0
LINE
  8
_0-1_作画層１
  6
CONTINUOUS
 62
    7
 10
43.333621413389309
 20
167.27015896340538
 11
38.252286345640286
 21
169.37492867013145
  0
LINE
  8
_0-1_作画層１
  6
CONTINUOUS
 62
    7
 10
44.552928359190091
 20
170.86223574181724
 11
39.24038067547427
 21
172.28573866387535
  0
LINE
  8
_0-1_作画層１
  6
CONTINUOUS
 62
    7
 10
44.983901412168606
 20
172.71035976906944
 11
39.589560897031888
 21
173.7833959629171
  0
LINE
  8
_0-1_作画層１
  6
CONTINUOUS
 62
    7
 10
45.292994887510403
 20
174.582718091213
 11
39.840047270933255
 21
175.30060692330528
  0
LINE
  8
_0-1_作画層１
  6
CONTINUOUS
 62
    7
 10
45.479047209898098
 20
176.47132285138298
 11
39.990815550962552
 21
176.83101959725548
  0
LINE
  8
_0-1_作画層１
  6
CONTINUOUS
 62
    7
 10
-12.396772950013997
 20
176.47131414910484
 11
-6.9085412910784498
 21
176.83098454972435
  0
LINE
  8
_0-1_作画層１
  6
CONTINUOUS
 62
    7
 10
-12.210766403993489
 20
174.58270950814415
 11
-6.7577997139300123
 21
175.30064173241783
  0
LINE
  8
_0-1_作画層１
  6
CONTINUOUS
 62
    7
 10
-11.901627152284505
 20
172.71037741204429
 11
-6.5073228767718092
 21
173.78336115380455
  0
LINE
  8
_0-1_作画層１
  6
CONTINUOUS
 62
    7
 10
-11.470741837343098
 20
170.86223574181724
 11
-6.1581254890764967
 21
172.28573866387535
  0
LINE
  8
_0-1_作画層１
  6
CONTINUOUS
 62
    7
 10
-10.9198327949847
 20
169.04624577065636
 11
-5.7117105415667311
 21
170.81413527032066
  0
LINE
  8
_0-1_作画層１
  6
CONTINUOUS
 62
    7
 10
-10.251366226991536
 20
167.27015038033653
 11
-5.1700311592425123
 21
169.37491913338829
  0
LINE
  8
_0-1_作画層１
  6
CONTINUOUS
 62
    7
 10
-9.4681859901751295
 20
165.54158707162071
 11
-4.5353780678118483
 21
167.97419853707481
  0
LINE
  8
_0-1_作画層１
  6
CONTINUOUS
 62
    7
 10
-8.5736318519915358
 20
163.86798306008507
 11
-3.8104635170305983
 21
166.6179906894796
  0
LINE
  8
_0-1_作画層１
  6
CONTINUOUS
 62
    7
 10
-7.5714879921282545
 20
162.25646896859337
 11
-2.9983850410784498
 21
165.31207199593712
  0
LINE
  8
_0-1_作画層１
  6
CONTINUOUS
 62
    7
 10
-2.102661698182942
 20
164.06209202309776
 11
-6.4661336830462233
 21
160.71390457650352
  0
LINE
  8
_0-1_作画層１
  6
CONTINUOUS
 62
    7
 10
-5.2622247627581373
 20
159.24697227975059
 11
-1.1271043709124342
 21
162.8733617832296
  0
LINE
  8
_0-1_作画層１
  6
CONTINUOUS
 62
    7
 10
-3.9649930885638014
 20
157.86188622018028
 11
-0.0758787086809888
 21
161.7509834339254
  0
LINE
  8
_0-1_作画層１
  6
CONTINUOUS
 62
    7
 10
-2.5798879555071608
 20
156.56461830636192
 11
1.0465272971783861
 21
160.69974060555626
  0
LINE
  8
_0-1_作画層１
  6
CONTINUOUS
 62
    7
 10
-1.1129308632220045
 20
155.3607360889547
 11
2.2352480003033861
 21
159.72418327828575
  0
LINE
  8
_0-1_作画層１
  6
CONTINUOUS
 62
    7
 10
0.4295991965924486
 20
154.25533791085411
 11
3.4852632590924486
 21
158.82848473092247
  0
LINE
  8
_0-1_作画層１
  6
CONTINUOUS
 62
    7
 10
2.0411037513409838
 20
153.25324554940391
 11
4.7911295005475267
 21
158.01639862557579
  0
LINE
  8
_0-1_作画層１
  6
CONTINUOUS
 62
    7
 10
3.7147430488263353
 20
152.35870285531212
 11
6.1473545142804369
 21
157.29150124093223
  0
LINE
  8
_0-1_作画層１
  6
CONTINUOUS
 62
    7
 10
7.2193759986554369
 20
150.90702934762169
 11
8.98730889050114
 21
156.1151077320211
  0
LINE
  8
_0-1_作画層１
  6
CONTINUOUS
 62
    7
 10
5.443297774473308
 20
151.57547874947716
 11
7.5480760642682299
 21
156.65682144662071
  0
LINE
  8
_0-1_作画層１
  6
CONTINUOUS
 62
    7
 10
9.0353917190228685
 20
150.35617943307091
 11
10.458877474943279
 21
155.66873665352989
  0
LINE
  8
_0-1_作画層１
  6
CONTINUOUS
 62
    7
 10
10.883524806181072
 20
149.92520638009239
 11
11.956508547941326
 21
155.3195640613668
  0
LINE
  8
_0-1_作画層１
  6
CONTINUOUS
 62
    7
 10
12.755856902280925
 20
149.61608620186973
 11
13.473745495954631
 21
155.06906052132774
  0
LINE
  8
_0-1_作画層１
  6
CONTINUOUS
 62
    7
 10
14.644461543241619
 20
149.43005295296837
 11
15.004166991392253
 21
154.91828461190391
  0
LINE
  8
_0-1_作画層１
  6
CONTINUOUS
 62
    7
 10
32.139971167722805
 20
174.80764885445763
 11
28.727724463621243
 21
175.58647270699669
  0
LINE
  8
_0-1_作画層１
  6
CONTINUOUS
 62
    7
 10
23.483260066190823
 20
163.95248718758751
 11
21.964675814787014
 21
167.10586567422081
  0
LINE
  8
_0-1_作画層１
  6
CONTINUOUS
 62
    7
 10
9.5989874908124193
 20
163.95247860451866
 11
11.117580325285076
 21
167.10586567422081
  0
LINE
  8
_0-1_作画層１
  6
CONTINUOUS
 62
    7
 10
0.9422763892804368
 20
174.80764885445763
 11
4.3545230933819994
 21
175.58647270699669
  0
LINE
  8
_0-1_作画層１
  6
CONTINUOUS
 62
    7
 10
-6.9588724068011061
 20
178.36797638436485
 11
-12.458872406801106
 21
178.36797638436485
  0
LINE
  8
_0-1_作画層１
  6
CONTINUOUS
 62
    7
 10
16.541123778501628
 20
201.86798210641075
 11
16.541123778501628
 21
207.36798019906212
  0
LINE
  8
_0-1_作画層１
  6
CONTINUOUS
 62
    7
 10
40.041119963804348
 20
178.36797638436485
 11
45.541119963804348
 21
178.36797638436485
  0
LINE
  8
_0-1_作画層１
  6
CONTINUOUS
 62
    7
 10
16.541123778501628
 20
154.86798782845665
 11
16.541123778501628
 21
149.36798019906212
  0
LINE
  8
_0-1_作画層１
  6
CONTINUOUS
 62
    7
 10
16.541123778501628
 20
190.86797543069054
 11
16.541123778501628
 21
194.36798973580528
  0
LINE
  8
_0-1_作画層１
  6
CONTINUOUS
 62
    7
 10
6.768227965513347
 20
186.16159506341148
 11
11.068298728147624
 21
182.73240299721886
  0
LINE
  8
_0-1_作画層１
  6
CONTINUOUS
 62
    7
 10
16.541123778501628
 20
190.86797543069054
 11
16.541123778501628
 21
185.36797733803917
  0
LINE
  8
_0-1_作画層１
  6
CONTINUOUS
 62
    7
 10
28.727724463621243
 20
175.58647270699669
 11
23.365624339262112
 21
176.81033750077415
  0
LINE
  8
_0-1_作画層１
  6
CONTINUOUS
 62
    7
 10
21.964675814787014
 20
167.10586567422081
 11
19.578310162702678
 21
172.06119270821739
  0
LINE
  8
_0-1_作画層１
  6
CONTINUOUS
 62
    7
 10
11.117580325285076
 20
167.10586567422081
 11
13.503937394300578
 21
172.06119270821739
  0
LINE
  8
_0-1_作画層１
  6
CONTINUOUS
 62
    7
 10
4.3545230933819994
 20
175.58647270699669
 11
9.7166232177411302
 21
176.81033750077415
  0
LINE
  8
_0-1_作画層１
  6
CONTINUOUS
 62
    7
 10
-17.958853333314778
 20
212.86798019906212
 11
51.04110089031802
 21
212.86801453133751
  0
LINE
  8
_0-1_作画層１
  6
CONTINUOUS
 62
    7
 10
-17.958876221498372
 20
143.86801834603477
 11
51.041081816831692
 21
143.86798401375938
  0
LINE
  8
_0-1_作画層１
  6
CONTINUOUS
 62
    7
 10
51.04110089031802
 20
212.86801453133751
 11
51.041081816831692
 21
143.86798401375938
  0
LINE
  8
_0-1_作画層１
  6
CONTINUOUS
 62
    7
 10
11.614379317442058
 20
183.27788849373985
 11
11.631211669126628
 21
183.29472084542442
  0
LINE
  8
_0-1_作画層１
  6
CONTINUOUS
 62
    7
 10
29.050423056760891
 20
188.34382553597618
 11
29.008105666318997
 21
188.31007309456993
  0
LINE
  8
_0-1_作画層１
  6
CONTINUOUS
 62
    7
 10
16.541123778501628
 20
194.14437122842003
 11
16.763202429691432
 21
194.36644096871544
  0
LINE
  8
_0-1_作画層１
  6
CONTINUOUS
 62
    7
 10
31.851401717344388
 20
195.87822647591759
 11
32.223303229490384
 21
196.2501289417379
  0
LINE
  8
_0-1_作画層１
  6
CONTINUOUS
 62
    7
 10
16.541106280971348
 20
144.23919983407188
 11
16.541106280971348
 21
140.79572220345665
  0
LINE
  8
_0-1_作画層１
  6
CONTINUOUS
 62
    7
 10
50.54110089031802
 20
214.36800690194298
 11
-17.458857148012044
 21
214.36797256966759
  0
LINE
  8
_0-1_作画層１
  6
CONTINUOUS
 62
    7
 10
52.541085631528958
 20
144.36798401375938
 11
52.54110089031802
 21
212.36800308724571
  0
LINE
  8
_0-1_作画層１
  6
CONTINUOUS
 62
    7
 10
-17.458880036195637
 20
142.36801453133751
 11
50.541081816831692
 21
142.36798019906212
  0
CIRCLE
  8
_0-1_作画層１
  6
CONTINUOUS
 62
    7
 10
16.541123778501628
 20
178.36797638436485
 40
7
  0
CIRCLE
  8
_0-1_作画層１
  6
CONTINUOUS
 62
    7
 10
16.541123778501628
 20
178.36797638436485
 40
31.500001907348633
  0
ARC
  8
_0-1_作画層１
  6
CONTINUOUS
 62
    7
 10
16.541123776828158
 20
178.36798513312226
 40
15.999999999999998
 50
90.264892572132311
 51
90.264587396351089
  0
ARC
  8
_0-1_作画層１
  6
CONTINUOUS
 62
    7
 10
16.5411237785016
 20
178.36797638436482
 40
12.500000953674347
 50
38.264358520507848
 51
90.161148071288977
  0
ARC
  8
_0-1_作画層１
  6
CONTINUOUS
 62
    7
 10
16.541123778501628
 20
178.36797638436485
 40
12.500000953674308
 50
90.161453247070369
 51
38.264358520507813
  0
ARC
  8
_0-1_作画層１
  6
CONTINUOUS
 62
    7
 10
16.541123778501458
 20
178.36798513312979
 40
23.499998092651627
 50
37.50003051757826
 51
63.749999999999837
  0
ARC
  8
_0-1_作画層１
  6
CONTINUOUS
 62
    7
 10
-17.458857148012072
 20
212.36796875497035
 40
1.9999999999999716
 50
89.999999999999588
 51
180.0000000000008
  0
ARC
  8
_0-1_作画層１
  6
CONTINUOUS
 62
    7
 10
50.541100890318035
 20
212.36800308724574
 40
1.9999999999999858
 50
359.9999999999992
 51
90.000000000000384
  0
ARC
  8
_0-1_作画層１
  6
CONTINUOUS
 62
    7
 10
50.541081816831706
 20
144.36798401375935
 40
1.9999999999999716
 50
269.9999999999996
 51
0.0000000000007887
  0
ARC
  8
_0-1_作画層１
  6
CONTINUOUS
 62
    7
 10
-17.458880036195666
 20
144.36801834603475
 40
1.9999999999999858
 50
179.99999999999918
 51
270.0000000000004
  0
LINE
  8
_0-1_作画層１
  6
CONTINUOUS
 62
    7
 10
190.54112759319889
 20
21.117984013759383
 11
190.54112759319889
 21
93.117976384364852
  0
LINE
  8
_0-1_作画層１
  6
CONTINUOUS
 62
    7
 10
190.54112759319889
 20
93.117976384364852
 11
262.54111996380436
 21
93.117976384364852
  0
LINE
  8
_0-1_作画層１
  6
CONTINUOUS
 62
    7
 10
262.54111996380436
 20
93.117976384364852
 11
262.54111996380436
 21
21.117984013759383
  0
LINE
  8
_0-1_作画層１
  6
CONTINUOUS
 62
    7
 10
262.54111996380436
 20
21.117984013759383
 11
260.04110851971257
 21
21.117984013759383
  0
LINE
  8
_0-1_作画層１
  6
CONTINUOUS
 62
    7
 10
193.04113903729069
 20
21.117984013759383
 11
190.54112759319889
 21
21.117984013759383
  0
LINE
  8
_0-1_作画層１
  6
CONTINUOUS
 62
    7
 10
256.04109707562077
 20
87.617957310878523
 11
256.04109707562077
 21
87.867945866786727
  0
LINE
  8
_0-1_作画層１
  6
CONTINUOUS
 62
    7
 10
256.04109707562077
 20
87.617957310878523
 11
256.04109707562077
 21
87.36796875497032
  0
LINE
  8
_0-1_作画層１
  6
CONTINUOUS
 62
    7
 10
258.04110279766667
 20
87.617957310878523
 11
258.04110279766667
 21
87.36796875497032
  0
LINE
  8
_0-1_作画層１
  6
CONTINUOUS
 62
    7
 10
258.04110279766667
 20
87.617957310878523
 11
258.04110279766667
 21
87.867945866786727
  0
LINE
  8
_0-1_作画層１
  6
CONTINUOUS
 62
    7
 10
257.04110089031803
 20
88.617961125575789
 11
257.29108944622624
 21
88.617961125575789
  0
LINE
  8
_0-1_作画層１
  6
CONTINUOUS
 62
    7
 10
257.04110089031803
 20
88.617961125575789
 11
256.79111233440983
 21
88.617961125575789
  0
LINE
  8
_0-1_作画層１
  6
CONTINUOUS
 62
    7
 10
257.04110089031803
 20
86.617953496181258
 11
256.79111233440983
 21
86.617953496181258
  0
LINE
  8
_0-1_作画層１
  6
CONTINUOUS
 62
    7
 10
257.04110089031803
 20
86.617953496181258
 11
257.29108944622624
 21
86.617953496181258
  0
LINE
  8
_0-1_作画層１
  6
CONTINUOUS
 62
    7
 10
256.5410989829694
 20
87.867945866786727
 11
256.04109707562077
 21
87.867945866786727
  0
LINE
  8
_0-1_作画層１
  6
CONTINUOUS
 62
    7
 10
256.79111233440983
 20
88.117957310878523
 11
256.79111233440983
 21
88.617961125575789
  0
LINE
  8
_0-1_作画層１
  6
CONTINUOUS
 62
    7
 10
257.29108944622624
 20
88.117957310878523
 11
257.29108944622624
 21
88.617961125575789
  0
LINE
  8
_0-1_作画層１
  6
CONTINUOUS
 62
    7
 10
257.54110279766667
 20
87.867945866786727
 11
258.04110279766667
 21
87.867945866786727
  0
LINE
  8
_0-1_作画層１
  6
CONTINUOUS
 62
    7
 10
257.54110279766667
 20
87.36796875497032
 11
258.04110279766667
 21
87.36796875497032
  0
LINE
  8
_0-1_作画層１
  6
CONTINUOUS
 62
    7
 10
257.29108944622624
 20
87.117955403529891
 11
257.29108944622624
 21
86.617953496181258
  0
LINE
  8
_0-1_作画層１
  6
CONTINUOUS
 62
    7
 10
256.79111233440983
 20
87.117955403529891
 11
256.79111233440983
 21
86.617953496181258
  0
LINE
  8
_0-1_作画層１
  6
CONTINUOUS
 62
    7
 10
256.5410989829694
 20
87.36796875497032
 11
256.04109707562077
 21
87.36796875497032
  0
LINE
  8
_0-1_作画層１
  6
CONTINUOUS
 62
    7
 10
195.04111996380436
 20
26.617978291713484
 11
195.04111996380436
 21
26.867980199062117
  0
LINE
  8
_0-1_作画層１
  6
CONTINUOUS
 62
    7
 10
195.04111996380436
 20
26.617978291713484
 11
195.04111996380436
 21
26.367978291713484
  0
LINE
  8
_0-1_作画層１
  6
CONTINUOUS
 62
    7
 10
197.04112568585026
 20
26.617978291713484
 11
197.04112568585026
 21
26.367978291713484
  0
LINE
  8
_0-1_作画層１
  6
CONTINUOUS
 62
    7
 10
197.04112568585026
 20
26.617978291713484
 11
197.04112568585026
 21
26.867980199062117
  0
LINE
  8
_0-1_作画層１
  6
CONTINUOUS
 62
    7
 10
196.041121871153
 20
27.61798210641075
 11
196.2911104270612
 21
27.61798210641075
  0
LINE
  8
_0-1_作画層１
  6
CONTINUOUS
 62
    7
 10
196.041121871153
 20
27.61798210641075
 11
195.79113331524479
 21
27.61798210641075
  0
LINE
  8
_0-1_作画層１
  6
CONTINUOUS
 62
    7
 10
196.041121871153
 20
25.617976384364852
 11
195.79113331524479
 21
25.617976384364852
  0
LINE
  8
_0-1_作画層１
  6
CONTINUOUS
 62
    7
 10
196.041121871153
 20
25.617976384364852
 11
196.2911104270612
 21
25.617976384364852
  0
LINE
  8
_0-1_作画層１
  6
CONTINUOUS
 62
    7
 10
195.54111996380436
 20
26.867980199062117
 11
195.04111996380436
 21
26.867980199062117
  0
LINE
  8
_0-1_作画層１
  6
CONTINUOUS
 62
    7
 10
195.79113331524479
 20
27.117980199062117
 11
195.79113331524479
 21
27.61798210641075
  0
LINE
  8
_0-1_作画層１
  6
CONTINUOUS
 62
    7
 10
196.2911104270612
 20
27.117980199062117
 11
196.2911104270612
 21
27.61798210641075
  0
LINE
  8
_0-1_作画層１
  6
CONTINUOUS
 62
    7
 10
196.54112377850163
 20
26.867980199062117
 11
197.04112568585026
 21
26.867980199062117
  0
LINE
  8
_0-1_作画層１
  6
CONTINUOUS
 62
    7
 10
196.54112377850163
 20
26.367978291713484
 11
197.04112568585026
 21
26.367978291713484
  0
LINE
  8
_0-1_作画層１
  6
CONTINUOUS
 62
    7
 10
196.2911104270612
 20
26.117978291713484
 11
196.2911104270612
 21
25.617976384364852
  0
LINE
  8
_0-1_作画層１
  6
CONTINUOUS
 62
    7
 10
195.79113331524479
 20
26.117978291713484
 11
195.79113331524479
 21
25.617976384364852
  0
LINE
  8
_0-1_作画層１
  6
CONTINUOUS
 62
    7
 10
195.54111996380436
 20
26.367978291713484
 11
195.04111996380436
 21
26.367978291713484
  0
LINE
  8
_0-1_作画層１
  6
CONTINUOUS
 62
    7
 10
193.04113903729069
 20
21.117984013759383
 11
260.04110851971257
 21
21.117984013759383
  0
LINE
  8
_0-1_作画層１
  6
CONTINUOUS
 62
    7
 10
193.04113903729069
 20
39.117984013759383
 11
260.04110851971257
 21
39.117984013759383
  0
LINE
  8
_0-1_作画層１
  6
CONTINUOUS
 62
    7
 10
232.58694449154484
 20
24.117984013759383
 11
241.08694782940495
 21
24.117984013759383
  0
LINE
  8
_0-1_作画層１
  6
CONTINUOUS
 62
    7
 10
209.08694210735905
 20
24.117984013759383
 11
217.586944968382
 21
24.117984013759383
  0
LINE
  8
_0-1_作画層１
  6
CONTINUOUS
 62
    7
 10
243.58695545879948
 20
24.117984013759383
 11
252.08695927349675
 21
24.117984013759383
  0
LINE
  8
_0-1_作画層１
  6
CONTINUOUS
 62
    7
 10
198.08693066326725
 20
24.117984013759383
 11
206.58693257061589
 21
24.117984013759383
  0
CIRCLE
  8
_0-1_作画層１
  6
CONTINUOUS
 62
    7
 10
257.04110089031803
 20
87.617957310878523
 40
1.5
  0
ARC
  8
_0-1_作画層１
  6
CONTINUOUS
 62
    7
 10
256.5410989829694
 20
88.11795731087858
 40
0.2500000000000425
 50
270
 51
359.99999999999022
  0
ARC
  8
_0-1_作画層１
  6
CONTINUOUS
 62
    7
 10
257.54110279766661
 20
88.117957310878467
 40
0.2499999999999432
 50
179.99999999998701
 51
270.00000000001302
  0
ARC
  8
_0-1_作画層１
  6
CONTINUOUS
 62
    7
 10
257.54110279766661
 20
87.117955403529947
 40
0.2499999999999432
 50
89.999999999986969
 51
180.00000000001305
  0
ARC
  8
_0-1_作画層１
  6
CONTINUOUS
 62
    7
 10
256.5410989829694
 20
87.117955403529834
 40
0.25
 50
0.0000000000097707
 51
90
  0
CIRCLE
  8
_0-1_作画層１
  6
CONTINUOUS
 62
    7
 10
196.041121871153
 20
26.617978291713484
 40
1.5
  0
ARC
  8
_0-1_作画層１
  6
CONTINUOUS
 62
    7
 10
195.54111996380431
 20
27.11798019906216
 40
0.2500000000000425
 50
270.00000000001302
 51
359.99999999999022
  0
ARC
  8
_0-1_作画層１
  6
CONTINUOUS
 62
    7
 10
196.54112377850157
 20
27.11798019906206
 40
0.2499999999999432
 50
179.99999999998701
 51
270.00000000001302
  0
ARC
  8
_0-1_作画層１
  6
CONTINUOUS
 62
    7
 10
196.54112377850157
 20
26.117978291713541
 40
0.2499999999999432
 50
89.999999999986969
 51
180.00000000001305
  0
ARC
  8
_0-1_作画層１
  6
CONTINUOUS
 62
    7
 10
195.54111996380431
 20
26.117978291713442
 40
0.2500000000000566
 50
0.0000000000097707
 51
89.99999999998694
  0
LINE
  8
_0-1_作画層１
  6
CONTINUOUS
 62
    7
 10
79.041123778501628
 20
142.36798019906212
 11
79.041141276031908
 21
214.36800690194298
  0
LINE
  8
_0-1_作画層１
  6
CONTINUOUS
 62
    7
 10
-19.458872406801106
 20
123.36797638436485
 11
52.541154296079739
 21
123.36795888683457
  0
LINE
  8
_0-1_作画層１
  6
CONTINUOUS
 62
    7
 10
-17.208872406801106
 20
48.367961125575761
 11
50.291131407896145
 21
48.367945866786698
  0
INSERT
  2
-000-_D0
  8
_0-9_寸法線層１
 10
-55.25
 20
-38.75
 41
1
 42
1
 50
0
  0
LINE
  8
_0-1_作画層１
  6
CONTINUOUS
 62
    7
 10
99.041148574033855
 20
214.36800690194298
 11
79.041141276031908
 21
214.36800690194298
  0
LINE
  8
_0-1_作画層１
  6
CENTER
 62
    7
 10
-24.958906739080362
 20
178.36797638436485
 11
57.541093260919638
 21
178.36797638436485
  0
LINE
  8
_0-1_作画層１
  6
CENTER
 62
    7
 10
75.041093260919638
 20
178.36797638436485
 11
157.54109326091964
 21
178.36797638436485
  0
LINE
  8
_0-1_作画層１
  6
CONTINUOUS
 62
    7
 10
99.04113140789616
 20
142.36798019906212
 11
79.041123778501628
 21
142.36798019906212
  0
LINE
  8
_0-1_作画層１
  6
CONTINUOUS
 62
    7
 10
124.0411378451945
 20
169.36797642707825
 11
124.04114213672733
 21
187.36797642707825
  0
LINE
  8
_0-1_作画層１
  6
CONTINUOUS
 62
    7
 10
117.0411378451945
 20
169.36797638436485
 11
124.0411378451945
 21
169.36797638436485
  0
LINE
  8
_0-1_作画層１
  6
CONTINUOUS
 62
    7
 10
117.04114213672733
 20
187.36797638436485
 11
124.04114213672733
 21
187.36797638436485
  0
LINE
  8
_0-1_作画層１
  6
CONTINUOUS
 62
    7
 10
138.04112377850163
 20
168.36797638436485
 11
138.04112377850163
 21
188.36797638436485
  0
LINE
  8
_0-1_作画層１
  6
CONTINUOUS
 62
    7
 10
137.54112377850163
 20
168.3363308147446
 11
137.54112377850163
 21
188.36797638436485
  0
LINE
  8
_0-1_作画層１
  6
CONTINUOUS
 62
    7
 10
137.04112377850163
 20
168.30468524512432
 11
137.04112377850163
 21
188.43126752360538
  0
LINE
  8
_0-1_作画層１
  6
CONTINUOUS
 62
    7
 10
136.54112377850163
 20
168.27303967550407
 11
136.54112377850163
 21
188.46291309322564
  0
LINE
  8
_0-1_作画層１
  6
CONTINUOUS
 62
    7
 10
136.04112377850163
 20
168.24139410588381
 11
136.04112377850163
 21
188.49455866284589
  0
LINE
  8
_0-1_作画層１
  6
CONTINUOUS
 62
    7
 10
135.54112377850163
 20
168.20974853626356
 11
135.54112377850163
 21
188.52620423246614
  0
LINE
  8
_0-1_作画層１
  6
CONTINUOUS
 62
    7
 10
135.04112377850163
 20
168.17810296664331
 11
135.04112377850163
 21
188.55784980208639
  0
LINE
  8
_0-1_作画層１
  6
CONTINUOUS
 62
    7
 10
134.54112377850163
 20
168.14645739702306
 11
134.54112377850163
 21
188.58949537170665
  0
LINE
  8
_0-1_作画層１
  6
CONTINUOUS
 62
    7
 10
134.04112377850163
 20
168.1148118274028
 11
134.04112377850163
 21
188.6211409413269
  0
LINE
  8
_0-1_作画層１
  6
CONTINUOUS
 62
    7
 10
133.54112377850163
 20
168.08316625778255
 11
133.54112377850163
 21
188.65278651094715
  0
LINE
  8
_0-1_作画層１
  6
CONTINUOUS
 62
    7
 10
133.04112377850163
 20
168.0515206881623
 11
133.04112377850163
 21
188.6844320805674
  0
LINE
  8
_0-1_作画層１
  6
CONTINUOUS
 62
    7
 10
132.54112377850163
 20
168.01987511854205
 11
132.54112377850163
 21
188.71607765018766
  0
LINE
  8
_0-1_作画層１
  6
CONTINUOUS
 62
    7
 10
132.04112377850163
 20
167.98822954892179
 11
132.04112377850163
 21
188.74772321980791
  0
LINE
  8
_0-1_作画層１
  6
CONTINUOUS
 62
    7
 10
131.54112377850163
 20
167.95658397930154
 11
131.54112377850163
 21
188.77936878942816
  0
LINE
  8
_0-1_作画層１
  6
CONTINUOUS
 62
    7
 10
131.04112377850163
 20
167.92493840968129
 11
131.04112377850163
 21
188.81101435904841
  0
LINE
  8
_0-1_作画層１
  6
CONTINUOUS
 62
    7
 10
130.54112377850163
 20
167.89329284006104
 11
130.54112377850163
 21
188.84265992866867
  0
LINE
  8
_0-1_作画層１
  6
CONTINUOUS
 62
    7
 10
130.04112377850163
 20
167.86164727044078
 11
130.04112377850163
 21
188.87430549828892
  0
LINE
  8
_0-1_作画層１
  6
CONTINUOUS
 62
    7
 10
129.54112377850163
 20
167.83000170082053
 11
129.54112377850163
 21
188.90595106790917
  0
LINE
  8
_0-1_作画層１
  6
CONTINUOUS
 62
    7
 10
129.04112377850163
 20
167.79835613120028
 11
129.04112377850163
 21
188.93759663752942
  0
LINE
  8
_0-1_作画層１
  6
CONTINUOUS
 62
    7
 10
128.54112377850163
 20
167.76671056158003
 11
128.54112377850163
 21
188.96924220714968
  0
LINE
  8
_0-1_作画層１
  6
CONTINUOUS
 62
    7
 10
128.04112377850163
 20
167.73506499195977
 11
128.04112377850163
 21
189.00088777676993
  0
LINE
  8
_0-1_作画層１
  6
CONTINUOUS
 62
    7
 10
127.54112377850163
 20
167.70341942233952
 11
127.54112377850163
 21
189.03253334639018
  0
LINE
  8
_0-1_作画層１
  6
CONTINUOUS
 62
    7
 10
127.04112377850163
 20
167.67177385271927
 11
127.04112377850163
 21
189.06417891601043
  0
LINE
  8
_0-1_作画層１
  6
CONTINUOUS
 62
    7
 10
126.54112377850163
 20
167.64012828309902
 11
126.54112377850163
 21
189.09582448563069
  0
LINE
  8
_0-1_作画層１
  6
CONTINUOUS
 62
    7
 10
126.04112377850163
 20
167.60848271347876
 11
126.04112377850163
 21
189.12747005525094
  0
LINE
  8
_0-1_作画層１
  6
CONTINUOUS
 62
    7
 10
125.54112377850163
 20
167.57683714385851
 11
125.54112377850163
 21
189.15911562487119
  0
LINE
  8
_0-1_作画層１
  6
CONTINUOUS
 62
    7
 10
125.04112377850163
 20
167.54519157423826
 11
125.04112377850163
 21
189.19076119449144
  0
LINE
  8
_0-1_作画層１
  6
CONTINUOUS
 62
    7
 10
124.54112377850163
 20
167.51354600461801
 11
124.54112377850163
 21
189.2224067641117
  0
LINE
  8
_0-1_作画層１
  6
CONTINUOUS
 62
    7
 10
124.04112377850163
 20
167.48190043499775
 11
124.04112377850163
 21
189.25405233373195
  0
LINE
  8
_0-1_作画層１
  6
CONTINUOUS
 62
    7
 10
150.041137606776
 20
168.36797638436485
 11
138.04112377850163
 21
168.36797638436485
  0
LINE
  8
_0-1_作画層１
  6
CONTINUOUS
 62
    7
 10
150.04114237514582
 20
188.36797638436485
 11
138.04112377850163
 21
188.36797638436485
  0
LINE
  8
_0-1_作画層１
  6
CONTINUOUS
 62
    7
 10
122.54112377850163
 20
187.36797638436485
 11
122.54112377850163
 21
189.34898904259271
  0
LINE
  8
_0-1_作画層１
  6
CONTINUOUS
 62
    7
 10
123.04112377850163
 20
187.36797638436485
 11
123.04112377850163
 21
189.31734347297245
  0
LINE
  8
_0-1_作画層１
  6
CONTINUOUS
 62
    7
 10
123.54112377850163
 20
187.36797638436485
 11
123.54112377850163
 21
189.2856979033522
  0
LINE
  8
_0-1_作画層１
  6
CONTINUOUS
 62
    7
 10
122.54112377850163
 20
169.36797638436485
 11
122.54112377850163
 21
167.386963726137
  0
LINE
  8
_0-1_作画層１
  6
CONTINUOUS
 62
    7
 10
123.04112377850163
 20
169.36797638436485
 11
123.04112377850163
 21
167.41860929575725
  0
LINE
  8
_0-1_作画層１
  6
CONTINUOUS
 62
    7
 10
123.54112377850163
 20
169.36797638436485
 11
123.54112377850163
 21
167.4502548653775
  0
LINE
  8
_0-1_作画層１
  6
CONTINUOUS
 62
    7
 10
117.04113194433776
 20
160.11798019906212
 11
152.04113194433779
 21
160.11798019906212
  0
LINE
  8
_0-1_作画層１
  6
CONTINUOUS
 62
    7
 10
150.04113563982438
 20
160.11798024177551
 11
150.04114803758679
 21
212.11798405647278
  0
LINE
  8
_0-1_作画層１
  6
CONTINUOUS
 62
    7
 10
-17.958876221498372
 20
143.86801834603477
 11
-17.958853333314778
 21
212.86798019906212
  0
LINE
  8
_0-1_作画層１
  6
CONTINUOUS
 62
    7
 10
-19.458876221498372
 20
144.36801834603477
 11
-19.458853333314778
 21
212.36796875497032
  0
INSERT
  2
-001-_D1
  8
_0-9_寸法線層１
 10
-55.25
 20
-38.75
 41
1
 42
1
 50
0
  0
LINE
  8
_0-1_作画層１
  6
CONTINUOUS
 62
    7
 10
10.88349858013737
 20
206.81075401803184
 11
11.956508547941326
 21
201.41640587350059
  0
LINE
  8
_0-1_作画層１
  6
CONTINUOUS
 62
    7
 10
12.755883128324626
 20
207.11986656685997
 11
13.473745495954631
 21
201.66690941353966
  0
LINE
  8
_0-1_作画層１
  6
CONTINUOUS
 62
    7
 10
12.36022034374821
 20
200.87084122201134
 11
12.029814154783367
 21
201.20124741097618
  0
LINE
  8
_0-1_作画層１
  6
CONTINUOUS
 62
    7
 10
12.728630692640422
 20
200.78526039620567
 11
11.921504408994792
 21
201.59238739510704
  0
LINE
  8
_0-1_作画層１
  6
CONTINUOUS
 62
    7
 10
12.968110711256145
 20
200.82862778206993
 11
11.851269633451579
 21
201.94547005196739
  0
LINE
  8
_0-1_作画層１
  6
CONTINUOUS
 62
    7
 10
13.154888064542888
 20
200.92469902535606
 11
11.781042964140056
 21
202.29854317208458
  0
LINE
  8
_0-1_作画層１
  6
CONTINUOUS
 62
    7
 10
13.302365929762004
 20
201.06005020638634
 11
11.710808188596843
 21
202.65160866280723
  0
LINE
  8
_0-1_作画層１
  6
CONTINUOUS
 62
    7
 10
13.411961705366252
 20
201.23330231209923
 11
11.640572936216472
 21
203.00469131966759
  0
LINE
  8
_0-1_作画層１
  6
CONTINUOUS
 62
    7
 10
13.475364119688152
 20
201.4527484943502
 11
11.570346743742107
 21
203.35775681039024
  0
LINE
  8
_0-1_作画層１
  6
CONTINUOUS
 62
    7
 10
13.463089377561687
 20
201.74785347481895
 11
11.500120074430583
 21
203.7108223011129
  0
LINE
  8
_0-1_作画層１
  6
CONTINUOUS
 62
    7
 10
13.420203120390056
 20
202.07358665963341
 11
11.42988529888737
 21
204.06390495797325
  0
LINE
  8
_0-1_作画層１
  6
CONTINUOUS
 62
    7
 10
13.377325446287273
 20
202.39931221505333
 11
11.359650046506999
 21
204.4169876148336
  0
LINE
  8
_0-1_作画層１
  6
CONTINUOUS
 62
    7
 10
13.334447533765911
 20
202.72502060433555
 11
11.289423854032634
 21
204.77003403206993
  0
LINE
  8
_0-1_作画層１
  6
CONTINUOUS
 62
    7
 10
13.291569859663127
 20
203.05074425240684
 11
11.219188601652263
 21
205.12311668893028
  0
LINE
  8
_0-1_作画層１
  6
CONTINUOUS
 62
    7
 10
13.248683602491496
 20
203.37646217843223
 11
11.148962409177898
 21
205.47618217965294
  0
LINE
  8
_0-1_作画層１
  6
CONTINUOUS
 62
    7
 10
13.205805689970134
 20
203.70217819710899
 11
11.078736216703533
 21
205.82926483651329
  0
LINE
  8
_0-1_作画層１
  6
CONTINUOUS
 62
    7
 10
13.162928015867351
 20
204.02791138192345
 11
11.008500964323161
 21
206.18234749337364
  0
LINE
  8
_0-1_作画層１
  6
CONTINUOUS
 62
    7
 10
13.120050341764568
 20
204.35362930794884
 11
10.938274771848796
 21
206.5353958179586
  0
LINE
  8
_0-1_作画層１
  6
CONTINUOUS
 62
    7
 10
13.077163846174358
 20
204.67934532662559
 11
10.87318363873112
 21
206.88333435555626
  0
LINE
  8
_0-1_作画層１
  6
CONTINUOUS
 62
    7
 10
13.034286172071575
 20
205.00507851144005
 11
10.884338290372966
 21
207.1550190021627
  0
LINE
  8
_0-1_作画層１
  6
CONTINUOUS
 62
    7
 10
12.991408497968791
 20
205.33079643746544
 11
10.951878935972331
 21
207.37032623788048
  0
LINE
  8
_0-1_作画層１
  6
CONTINUOUS
 62
    7
 10
12.948530823866008
 20
205.6565124561422
 11
11.056706816831706
 21
207.54832764168907
  0
LINE
  8
_0-1_作画層１
  6
CONTINUOUS
 62
    7
 10
12.905644328275798
 20
205.98224564095665
 11
11.192688853422283
 21
207.69520111581016
  0
LINE
  8
_0-1_作画層１
  6
CONTINUOUS
 62
    7
 10
12.862766654173015
 20
206.30796356698204
 11
11.359020144621013
 21
207.81170006295372
  0
LINE
  8
_0-1_作画層１
  6
CONTINUOUS
 62
    7
 10
12.819888980070232
 20
206.6336795856588
 11
11.559568316618083
 21
207.89399071236778
  0
LINE
  8
_0-1_作画層１
  6
CONTINUOUS
 62
    7
 10
12.777011305967449
 20
206.95939560433555
 11
11.806834609190105
 21
207.92956467171837
  0
LINE
  8
_0-1_作画層１
  6
CONTINUOUS
 62
    7
 10
12.705927521864055
 20
207.31331749459434
 11
12.14985600201237
 21
207.86938972970177
  0
ARC
  8
_0-1_作画層１
  6
CONTINUOUS
 62
    7
 10
11.81716671673405
 20
206.98063774605922
 40
0.9489850401878342
 50
8.4374999999978932
 51
192.13920593261827
  0
ARC
  8
_0-1_作画層１
  6
CONTINUOUS
 62
    7
 10
12.71307531086552
 20
201.55410309334923
 40
0.7689954042434671
 50
190.31504821777369
 51
8.4637298583979135
  0
LINE
  8
_0-1_作画層１
  6
CONTINUOUS
 62
    7
 10
3.7147602149640306
 20
204.37726707955528
 11
6.1473545142804369
 21
199.44446869393516
  0
LINE
  8
_0-1_作画層１
  6
CONTINUOUS
 62
    7
 10
5.443323523679851
 20
205.16047401925255
 11
7.5480760642682299
 21
200.07914848824669
  0
ARC
  8
_0-1_作画層１
  6
CONTINUOUS
 62
    7
 10
4.5726207801495775
 20
204.78303642769981
 40
0.9489914178848332
 50
23.437316894531826
 51
207.21160888671875
  0
ARC
  8
_0-1_作画層１
  6
CONTINUOUS
 62
    7
 10
6.8425144263898119
 20
199.7732917835348
 40
0.7690062522888108
 50
205.31291198730753
 51
23.451339721677265
  0
LINE
  8
_0-1_作画層１
  6
CONTINUOUS
 62
    7
 10
-2.5798974922503248
 20
200.17132492562462
 11
1.0465272971783861
 21
196.03622932931114
  0
LINE
  8
_0-1_作画層１
  6
CONTINUOUS
 62
    7
 10
-1.1129213264788405
 20
201.37522430916954
 11
2.2352480003033861
 21
197.01178665658165
  0
LINE
  8
_0-1_作画層１
  6
CONTINUOUS
 62
    7
 10
1.2308458396588549
 20
195.87822647591759
 11
0.8589443275128587
 21
196.2501289417379
  0
LINE
  8
_0-1_作画層１
  6
CONTINUOUS
 62
    7
 10
1.6271385261212572
 20
195.76477356454063
 11
-1.157532303651692
 21
198.54944344063927
  0
LINE
  8
_0-1_作画層１
  6
CONTINUOUS
 62
    7
 10
1.8719209739361986
 20
195.80283852120567
 11
-2.7221704414690748
 21
200.39692993661095
  0
LINE
  8
_0-1_作画層１
  6
CONTINUOUS
 62
    7
 10
2.0619958945904955
 20
195.89560242196251
 11
-2.8050027778948561
 21
200.76260109444786
  0
LINE
  8
_0-1_作画層１
  6
CONTINUOUS
 62
    7
 10
2.2122997352277025
 20
196.02813835641075
 11
-2.7765527656878248
 21
201.01698990365196
  0
LINE
  8
_0-1_作画層１
  6
CONTINUOUS
 62
    7
 10
2.3249057838116869
 20
196.19837875863243
 11
-2.6987844398821608
 21
201.22207756539513
  0
LINE
  8
_0-1_作画層１
  6
CONTINUOUS
 62
    7
 10
2.3924545356427416
 20
196.41367836495567
 11
-2.5859418800677076
 21
201.39207573434044
  0
LINE
  8
_0-1_作画層１
  6
CONTINUOUS
 62
    7
 10
2.3821577140485033
 20
196.7068054248922
 11
-2.4425683906878248
 21
201.53153152962852
  0
LINE
  8
_0-1_作画層１
  6
CONTINUOUS
 62
    7
 10
1.8237585136090502
 20
197.54806061288048
 11
-2.2683454445208326
 21
201.64016457101036
  0
LINE
  8
_0-1_作画層１
  6
CONTINUOUS
 62
    7
 10
0.8910087653790697
 20
198.76364822884727
 11
-2.0579629829729811
 21
201.71261330147911
  0
LINE
  8
_0-1_作画層１
  6
CONTINUOUS
 62
    7
 10
-0.0417924812639967
 20
199.97929878731895
 11
-1.7947927406634108
 21
201.73229713936973
  0
LINE
  8
_0-1_作画層１
  6
CONTINUOUS
 62
    7
 10
-0.9745431831682935
 20
201.19487877389122
 11
-1.3934255531634108
 21
201.61376114388634
  0
ARC
  8
_0-1_作画層１
  6
CONTINUOUS
 62
    7
 10
-1.8562780311907545
 20
200.78529663582967
 40
0.9489969611167724
 50
38.435592651368687
 51
220.29386901855273
  0
ARC
  8
_0-1_作画層１
  6
CONTINUOUS
 62
    7
 10
1.6328958579693733
 20
196.53373642464805
 40
0.7689873576164184
 50
220.31311035156224
 51
38.436859130858323
  0
LINE
  8
_0-1_作画層１
  6
CONTINUOUS
 62
    7
 10
-7.5714879921282545
 20
194.47950096627403
 11
-2.9983850410784498
 21
191.4238988926046
  0
LINE
  8
_0-1_作画層１
  6
CONTINUOUS
 62
    7
 10
-2.102661698182942
 20
192.67387886544395
 11
-6.4661069801653639
 21
196.02206535836388
  0
ARC
  8
_0-1_作画層１
  6
CONTINUOUS
 62
    7
 10
-7.0314260414446608
 20
195.25983925362752
 40
0.9489868879318093
 50
51.563339233399383
 51
237.15467834472528
  0
ARC
  8
_0-1_作画層１
  6
CONTINUOUS
 62
    7
 10
-2.560755341371447
 20
192.05623264809773
 40
0.7690042853355596
 50
235.31338500976491
 51
53.5261688232425
  0
ARC
  8
_0-1_作画層１
  6
CONTINUOUS
 62
    7
 10
16.541123778501827
 20
178.36798513313113
 40
23.49999809265023
 50
63.75000481196053
 51
85.249588012695625
  0
ARC
  8
_0-1_作画層１
  6
CONTINUOUS
 62
    7
 10
16.541123778501799
 20
178.36798513312991
 40
28.999999999999993
 50
67.50001525878946
 51
63.74999061005559
  0
ARC
  8
_0-1_作画層１
  6
CONTINUOUS
 62
    7
 10
16.541123778501628
 20
178.36798513312999
 40
23.499998092651378
 50
85.249893188476591
 51
37.50002703741535
  0
LINE
  8
_0-1_作画層１
  6
CONTINUOUS
 62
    7
 10
29.36750005739998
 20
204.3772925355218
 11
27.638936181812767
 21
205.16049453148446
  0
LINE
  8
_0-1_作画層１
  6
CONTINUOUS
 62
    7
 10
-5.1700525155868604
 20
187.36103185565284
 11
-10.251379294107892
 21
189.46579027886079
  0
LINE
  8
_0-1_作画層１
  6
CONTINUOUS
 62
    7
 10
-10.919837168211814
 20
187.68973250071963
 11
-5.7117596282425325
 21
185.92182035906851
  0
LINE
  8
_0-1_作画層１
  6
CONTINUOUS
 62
    7
 10
-10.919840658902075
 20
187.6897194732862
 11
-5.7117168681864428
 21
185.92183403451594
  0
LINE
  8
_0-1_作画層１
  6
CONTINUOUS
 62
    7
 10
-10.251351724370124
 20
189.46581500592228
 11
-5.1700332049109363
 21
187.36105181434274
  0
LINE
  8
_0-1_作画層１
  6
CONTINUOUS
 62
    7
 10
-5.4730909013130429
 20
185.87715882084692
 11
-5.9811182914474728
 21
186.01328504790439
  0
LINE
  8
_0-1_作画層１
  6
CONTINUOUS
 62
    7
 10
-5.0731649118141604
 20
185.97705206069239
 11
-8.8770955296243415
 21
186.99631149966058
  0
LINE
  8
_0-1_作画層１
  6
CONTINUOUS
 62
    7
 10
-4.8802095719383942
 20
186.13240850406572
 11
-11.155855152690009
 21
187.81396266941206
  0
LINE
  8
_0-1_作画層１
  6
CONTINUOUS
 62
    7
 10
-4.7619818124078677
 20
186.30778185900243
 11
-11.410425639208
 21
188.08922701331721
  0
LINE
  8
_0-1_作画層１
  6
CONTINUOUS
 62
    7
 10
-4.6980828353538016
 20
186.49771326546752
 11
-11.512981610500788
 21
188.32375919062994
  0
LINE
  8
_0-1_作画層１
  6
CONTINUOUS
 62
    7
 10
-4.6856833377711382
 20
186.70144880283397
 11
-11.548176095614878
 21
188.54025447860511
  0
LINE
  8
_0-1_作画層１
  6
CONTINUOUS
 62
    7
 10
-4.734834205853133
 20
186.92167810725022
 11
-11.535450656660146
 21
188.74389849141582
  0
LINE
  8
_0-1_作画層１
  6
CONTINUOUS
 62
    7
 10
-4.8903150449002339
 20
187.17038517689477
 11
-11.481013470271989
 21
188.9363574975302
  0
LINE
  8
_0-1_作画層１
  6
CONTINUOUS
 62
    7
 10
-5.7945305319278759
 20
187.61973394053834
 11
-11.38444849366013
 21
189.11754794414074
  0
LINE
  8
_0-1_作画層１
  6
CONTINUOUS
 62
    7
 10
-7.2101093172519768
 20
188.20608882237636
 11
-11.238476302683353
 21
189.28548161597254
  0
LINE
  8
_0-1_作画層１
  6
CONTINUOUS
 62
    7
 10
-8.6257641727625014
 20
188.79247246481606
 11
-11.020406106268496
 21
189.43411344078459
  0
LINE
  8
_0-1_作画層１
  6
CONTINUOUS
 62
    7
 10
-10.041339969295507
 20
189.37882026256742
 11
-10.613543927906278
 21
189.53214185118307
  0
ARC
  8
_0-1_作画層１
  6
CONTINUOUS
 62
    7
 10
-10.600153678054198
 20
188.58324430205857
 40
0.9489969611167863
 50
68.435592651367685
 51
250.29386901855375
  0
ARC
  8
_0-1_作画層１
  6
CONTINUOUS
 62
    7
 10
-5.4526603462293508
 20
186.64587209803622
 40
0.7689873576163953
 50
250.31311035156241
 51
68.436859130857627
  0
LINE
  8
_0-1_作画層１
  6
CONTINUOUS
 62
    7
 10
-2.102688093440662
 20
192.67386683782061
 11
-6.4661212953621998
 21
196.02205150156732
  0
LINE
  8
_0-1_作画層１
  6
CONTINUOUS
 62
    7
 10
-7.5714795979308462
 20
194.47952105334605
 11
-2.9984323290858015
 21
191.42389940140043
  0
LINE
  8
_0-1_作画層１
  6
CONTINUOUS
 62
    7
 10
-7.5714863414266063
 20
194.47950937326874
 11
-2.9983874865770304
 21
191.42390154375141
  0
LINE
  8
_0-1_作画層１
  6
CONTINUOUS
 62
    7
 10
-6.4660882652060252
 20
196.02206825050141
 11
-2.1026642750710209
 21
192.67388111846392
  0
LINE
  8
_0-1_作画層１
  6
CONTINUOUS
 62
    7
 10
-2.7794552984923939
 20
191.3189876561907
 11
-3.2349400149850567
 21
191.58196265854133
  0
LINE
  8
_0-1_作画層１
  6
CONTINUOUS
 62
    7
 10
-2.3673021836821988
 20
191.31196865371533
 11
-5.7778132541313028
 21
193.28102735964148
  0
LINE
  8
_0-1_作画層１
  6
CONTINUOUS
 62
    7
 10
-2.1407124312514156
 20
191.41209093783598
 11
-7.7673023309731377
 21
194.66060413105996
  0
LINE
  8
_0-1_作画層１
  6
CONTINUOUS
 62
    7
 10
-1.9811232206754426
 20
191.55088899478602
 11
-7.9419548838715457
 21
194.99237676012632
  0
LINE
  8
_0-1_作画層１
  6
CONTINUOUS
 62
    7
 10
-1.8702436832091962
 20
191.71781037328986
 11
-7.9803149510055107
 21
195.24546088584808
  0
LINE
  8
_0-1_作画層１
  6
CONTINUOUS
 62
    7
 10
-1.8055360510264507
 20
191.91139456444091
 11
-7.9582771094172244
 21
195.46368827880326
  0
LINE
  8
_0-1_作画層１
  6
CONTINUOUS
 62
    7
 10
-1.7960126056187846
 20
192.13684091802517
 11
-7.8932783303434917
 21
195.65709970418749
  0
LINE
  8
_0-1_作画層１
  6
CONTINUOUS
 62
    7
 10
-1.8818254372718002
 20
192.41731490206945
 11
-7.7908839899167504
 21
195.82891144809628
  0
LINE
  8
_0-1_作画層１
  6
CONTINUOUS
 62
    7
 10
-2.6389305107981045
 20
193.08538066680325
 11
-7.6507138467189293
 21
195.9789351249172
  0
LINE
  8
_0-1_作画層１
  6
CONTINUOUS
 62
    7
 10
-3.8545148080810634
 20
194.01813474002623
 11
-7.4662511049504019
 21
196.10336621256295
  0
LINE
  8
_0-1_作画層１
  6
CONTINUOUS
 62
    7
 10
-5.0701651397302214
 20
194.95093628227016
 11
-7.2171427233196255
 21
196.19049281075596
  0
LINE
  8
_0-1_作画層１
  6
CONTINUOUS
 62
    7
 10
-6.2857483835592234
 20
195.88368273923484
 11
-6.7987724179270685
 21
196.17987730357788
  0
ARC
  8
_0-1_作画層１
  6
CONTINUOUS
 62
    7
 10
-7.0314311873390238
 20
195.25984700269572
 40
0.9489969611167956
 50
53.435592651369369
 51
235.29386901855298
  0
ARC
  8
_0-1_作画層１
  6
CONTINUOUS
 62
    7
 10
-2.5607632613318856
 20
192.05621984688148
 40
0.7689873576164079
 50
235.31311035156273
 51
53.436859130857414
  0
LINE
  8
_0-1_作画層１
  6
CONTINUOUS
 62
    7
 10
7.5480543007495555
 20
200.07914687678593
 11
5.4433026320423892
 21
205.16047645311278
  0
LINE
  8
_0-1_作画層１
  6
CONTINUOUS
 62
    7
 10
3.7147690376232276
 20
204.37728505012649
 11
6.1473333191773349
 21
199.44451544076531
  0
LINE
  8
_0-1_作画層１
  6
CONTINUOUS
 62
    7
 10
3.7147573575459774
 20
204.37727830663073
 11
6.147373225104559
 21
199.44449487484133
  0
LINE
  8
_0-1_作画層１
  6
CONTINUOUS
 62
    7
 10
5.4433396114637844
 20
205.16047444303715
 11
7.5480820683844172
 21
200.07914733500101
  0
LINE
  8
_0-1_作画層１
  6
CONTINUOUS
 62
    7
 10
6.2845171179116051
 20
199.24417068896162
 11
6.0215432835687182
 21
199.69965607980384
  0
LINE
  8
_0-1_作画層１
  6
CONTINUOUS
 62
    7
 10
6.6379426843484453
 20
199.0320154971036
 11
4.6688828104145443
 21
202.44252589320314
  0
LINE
  8
_0-1_作画層１
  6
CONTINUOUS
 62
    7
 10
6.8842363082510474
 20
199.00542906242165
 11
3.6357231150270763
 21
204.63201896214335
  0
LINE
  8
_0-1_作画層１
  6
CONTINUOUS
 62
    7
 10
7.0918436472547626
 20
199.0458371004483
 11
3.6503558819144359
 21
205.00666876364443
  0
LINE
  8
_0-1_作画層１
  6
CONTINUOUS
 62
    7
 10
7.2713288327123564
 20
199.13495548593426
 11
3.7436771521464323
 21
205.24502607938101
  0
LINE
  8
_0-1_作画層１
  6
CONTINUOUS
 62
    7
 10
7.4241593815768567
 20
199.27025049715076
 11
3.8718761792840724
 21
205.4229976246877
  0
LINE
  8
_0-1_作画層１
  6
CONTINUOUS
 62
    7
 10
7.545130104023599
 20
199.46073104384143
 11
4.0248724858690252
 21
205.55799744291573
  0
LINE
  8
_0-1_作画層１
  6
CONTINUOUS
 62
    7
 10
7.6110510038635084
 20
199.74653505495093
 11
4.1994544578366799
 21
205.65559360759585
  0
LINE
  8
_0-1_作画層１
  6
CONTINUOUS
 62
    7
 10
7.2894116592225373
 20
200.70364951537221
 11
4.3958572011085835
 21
205.71543285129303
  0
LINE
  8
_0-1_作画層１
  6
CONTINUOUS
 62
    7
 10
6.7030618139455669
 20
202.11923038690819
 11
4.6178221653547382
 21
205.73096196333051
  0
LINE
  8
_0-1_作画層１
  6
CONTINUOUS
 62
    7
 10
6.1166785157403751
 20
203.53488538500534
 11
4.8771196512391271
 21
205.68186161989561
  0
LINE
  8
_0-1_作画層１
  6
CONTINUOUS
 62
    7
 10
5.5303257746521126
 20
204.95045913394117
 11
5.2341312103090729
 21
205.46348316830904
  0
ARC
  8
_0-1_作画層１
  6
CONTINUOUS
 62
    7
 10
4.5726276551440321
 20
204.78304294019964
 40
0.9489969611167882
 50
23.435592651368026
 51
205.29386901855381
  0
ARC
  8
_0-1_作画層１
  6
CONTINUOUS
 62
    7
 10
6.8425260730433877
 20
199.7732864760072
 40
0.7689873576164254
 50
205.31311035156011
 51
23.436859130860707
  0
LINE
  8
_0-1_作画層１
  6
CONTINUOUS
 62
    7
 10
-12.396771470959408
 20
180.26468304372742
 11
-6.9085868441010803
 21
179.90493936457381
  0
LINE
  8
_0-1_作画層１
  6
CONTINUOUS
 62
    7
 10
-12.210765923978357
 20
182.15322790232929
 11
-6.7578255755698251
 21
181.43534856729477
  0
LINE
  8
_0-1_作画層１
  6
CONTINUOUS
 62
    7
 10
-6.7578361527061759
 20
181.43533500484369
 11
-12.210772485160049
 21
182.15323137924901
  0
LINE
  8
_0-1_作画層１
  6
CONTINUOUS
 62
    7
 10
-12.396775631357912
 20
180.26468167369404
 11
-6.9085896978582468
 21
179.90495933317797
  0
LINE
  8
_0-1_作画層１
  6
CONTINUOUS
 62
    7
 10
-12.396775631357912
 20
180.26466818670255
 11
-6.9085519342819737
 21
179.9049836097627
  0
LINE
  8
_0-1_作画層１
  6
CONTINUOUS
 62
    7
 10
-12.210752254672769
 20
182.15326239932952
 11
-6.7578226657146558
 21
181.43535928142842
  0
LINE
  8
_0-1_作画層１
  6
CONTINUOUS
 62
    7
 10
-6.6664941539142148
 20
179.92359161196765
 11
-7.1924429906077023
 21
179.92359228631722
  0
LINE
  8
_0-1_作画層１
  6
CONTINUOUS
 62
    7
 10
-6.3060495850020288
 20
180.12358953491983
 11
-10.244168164862089
 21
180.12358886057027
  0
LINE
  8
_0-1_作画層１
  6
CONTINUOUS
 62
    7
 10
-6.1598782452200567
 20
180.32359285266864
 11
-12.656904631667999
 21
180.32359285266864
  0
LINE
  8
_0-1_作画層１
  6
CONTINUOUS
 62
    7
 10
-6.0910689631663786
 20
180.52359010127128
 11
-12.974044493847003
 21
180.52359010127125
  0
LINE
  8
_0-1_作画層１
  6
CONTINUOUS
 62
    7
 10
-6.0785051562126569
 20
180.72358802422349
 11
-13.133807349336763
 21
180.7235873498739
  0
LINE
  8
_0-1_作画層１
  6
CONTINUOUS
 62
    7
 10
-6.1192587984992031
 20
180.9235906676227
 11
-13.223835715154337
 21
180.92359673676887
  0
LINE
  8
_0-1_作画層１
  6
CONTINUOUS
 62
    7
 10
-6.2237344296367212
 20
181.12359465972111
 11
-13.264250833953611
 21
181.12359533407067
  0
LINE
  8
_0-1_作画層１
  6
CONTINUOUS
 62
    7
 10
-6.4382875138410611
 20
181.32358583917753
 11
-13.26148060589469
 21
181.3235858391775
  0
LINE
  8
_0-1_作画層１
  6
CONTINUOUS
 62
    7
 10
-7.4279926232158289
 20
181.52359522607253
 11
-13.215101539443737
 21
181.52359522607253
  0
LINE
  8
_0-1_作画層１
  6
CONTINUOUS
 62
    7
 10
-8.9470965417158084
 20
181.72359180032555
 11
-13.117567662843328
 21
181.72358707987854
  0
LINE
  8
_0-1_作画層１
  6
CONTINUOUS
 62
    7
 10
-10.466281382164937
 20
181.92359646677355
 11
-12.945396775151977
 21
181.92359511807439
  0
LINE
  8
_0-1_作画層１
  6
CONTINUOUS
 62
    7
 10
-11.98538058021785
 20
182.12358697188037
 11
-12.577769708903929
 21
182.12358697188037
  0
ARC
  8
_0-1_作画層１
  6
CONTINUOUS
 62
    7
 10
-12.319242963186838
 20
181.21048797435904
 40
0.948996961116789
 50
83.435592651367557
 51
265.29386901855418
  0
ARC
  8
_0-1_作画層１
  6
CONTINUOUS
 62
    7
 10
-6.845717389473208
 20
180.67139943617374
 40
0.7689873576164174
 50
265.31311035156148
 51
83.43685913085865
  0
LINE
  8
_0-1_作画層１
  6
CONTINUOUS
 62
    7
 10
2.1656356507558598
 20
185.39261298048169
 11
5.3102760772269164
 21
183.85596732793252
  0
LINE
  8
_0-1_作画層１
  6
CONTINUOUS
 62
    7
 10
4.3387864571667478
 20
175.65634586851266
 11
0.922117782055011
 21
174.89708616293225
  0
LINE
  8
_0-1_作画層１
  6
CONTINUOUS
 62
    7
 10
4.0891809029282058
 20
188.4153269481811
 11
4.131309530360852
 21
188.38133919177773
  0
LINE
  8
_0-1_作画層１
  6
CONTINUOUS
 62
    7
 10
4.131309530360852
 20
188.38133919177773
 11
6.8130487923311023
 21
186.21746730881051
  0
LINE
  8
_0-1_作画層１
  6
CONTINUOUS
 62
    7
 10
5.1112208624160473
 20
187.59065488201864
 11
3.9968481514315499
 21
188.29980035333216
  0
LINE
  8
_0-1_作画層１
  6
CONTINUOUS
 62
    7
 10
6.5014167437760477
 20
186.46891813818266
 11
3.8731039327001042
 21
188.14148083614009
  0
LINE
  8
_0-1_作画層１
  6
CONTINUOUS
 62
    7
 10
6.7158196846233409
 20
186.09542085905534
 11
3.7514981394878646
 21
187.98180769652532
  0
LINE
  8
_0-1_作画層１
  6
CONTINUOUS
 62
    7
 10
6.592929729286169
 20
185.93656531317654
 11
3.6320314958783513
 21
187.8207732798906
  0
LINE
  8
_0-1_作画層１
  6
CONTINUOUS
 62
    7
 10
6.4727653794836897
 20
185.77596689826214
 11
3.5146751419712245
 21
187.65838875781029
  0
LINE
  8
_0-1_作画層１
  6
CONTINUOUS
 62
    7
 10
6.3553259628526462
 20
185.61363523427889
 11
3.3994385942928034
 21
187.49465526812995
  0
LINE
  8
_0-1_作画層１
  6
CONTINUOUS
 62
    7
 10
6.2405984458896455
 20
185.44958500977822
 11
3.2863188530684511
 21
187.32958191361377
  0
LINE
  8
_0-1_作画層１
  6
CONTINUOUS
 62
    7
 10
6.1285744499139412
 20
185.28381436283109
 11
3.1753177802272603
 21
187.16316031558105
  0
LINE
  8
_0-1_作画層１
  6
CONTINUOUS
 62
    7
 10
6.0192455962447866
 20
185.11632143150848
 11
3.0664167564786453
 21
186.99539512885445
  0
LINE
  8
_0-1_作画層１
  6
CONTINUOUS
 62
    7
 10
5.9126286422436465
 20
184.94710993966842
 11
2.9596222985743168
 21
186.8262965940437
  0
LINE
  8
_0-1_作画層１
  6
CONTINUOUS
 62
    7
 10
5.8087049686200487
 20
184.77618454213362
 11
2.8549467159341475
 21
186.65584888475192
  0
LINE
  8
_0-1_作画層１
  6
CONTINUOUS
 62
    7
 10
5.7074764373029723
 20
184.60353686022327
 11
2.752382147079885
 21
186.48405220786006
  0
LINE
  8
_0-1_作画層１
  6
CONTINUOUS
 62
    7
 10
5.608961667583003
 20
184.42916223911479
 11
2.6519252819154531
 21
186.31091266635778
  0
LINE
  8
_0-1_作画層１
  6
CONTINUOUS
 62
    7
 10
5.5131690381408589
 20
184.25306254073723
 11
2.5535861541696363
 21
186.13643346690077
  0
LINE
  8
_0-1_作画層１
  6
CONTINUOUS
 62
    7
 10
5.4201015487511484
 20
184.07522866232631
 11
2.4573656948069242
 21
185.96060602392717
  0
LINE
  8
_0-1_作画層１
  6
CONTINUOUS
 62
    7
 10
5.3297599234973916
 20
183.89565294928477
 11
2.3632771442117928
 21
185.78341471792106
  0
LINE
  8
_0-1_作画層１
  6
CONTINUOUS
 62
    7
 10
5.2421639195156615
 20
183.71433002270649
 11
2.2713072619997661
 21
185.60487516839842
  0
LINE
  8
_0-1_作画層１
  6
CONTINUOUS
 62
    7
 10
5.1573395003722453
 20
183.53125734829916
 11
2.1814944245975312
 21
185.42497734163047
  0
LINE
  8
_0-1_作画層１
  6
CONTINUOUS
 62
    7
 10
5.0752972169984218
 20
183.34640063553599
 11
2.0938244606561227
 21
185.24370148048109
  0
LINE
  8
_0-1_作画層１
  6
CONTINUOUS
 62
    7
 10
4.9960508269810759
 20
183.15976391859661
 11
2.0083052316538215
 21
185.06105617051202
  0
LINE
  8
_0-1_作画層１
  6
CONTINUOUS
 62
    7
 10
4.9196322934356829
 20
182.97133525010292
 11
1.9249558740836505
 21
184.87703882571071
  0
LINE
  8
_0-1_作画層１
  6
CONTINUOUS
 62
    7
 10
4.8460629251058549
 20
182.78109347647205
 11
1.8437870423174445
 21
184.69163227495366
  0
LINE
  8
_0-1_作画層１
  6
CONTINUOUS
 62
    7
 10
4.7753765470361031
 20
182.58900947920242
 11
1.7648134249066061
 21
184.50482317441598
  0
LINE
  8
_0-1_作画層１
  6
CONTINUOUS
 62
    7
 10
4.7075926060409756
 20
182.3950792758346
 11
1.6880408145193257
 21
184.31661183441915
  0
LINE
  8
_0-1_作画層１
  6
CONTINUOUS
 62
    7
 10
4.6427597191569134
 20
182.1992775234454
 11
1.6135008639495254
 21
184.1269877040319
  0
LINE
  8
_0-1_作画層１
  6
CONTINUOUS
 62
    7
 10
4.5809021949020803
 20
182.00158275813044
 11
1.5411954351262978
 21
183.9359424045735
  0
LINE
  8
_0-1_作画層１
  6
CONTINUOUS
 62
    7
 10
4.5220640989308549
 20
181.80195934463643
 11
1.4711349755403944
 21
183.74345969588489
  0
LINE
  8
_0-1_作画層１
  6
CONTINUOUS
 62
    7
 10
4.4662917725885336
 20
181.60039218064986
 11
1.4033613785955765
 21
183.54952251028311
  0
LINE
  8
_0-1_作画層１
  6
CONTINUOUS
 62
    7
 10
4.4136304193749538
 20
181.39684490683399
 11
1.3378904706887909
 21
183.35413436474533
  0
LINE
  8
_0-1_作画層１
  6
CONTINUOUS
 62
    7
 10
4.3641340352326949
 20
181.1912767676306
 11
1.2747194589264552
 21
183.15726826130015
  0
LINE
  8
_0-1_作画層１
  6
CONTINUOUS
 62
    7
 10
4.3178633397370731
 20
180.98365631712676
 11
1.2139074078358192
 21
182.95890020175094
  0
LINE
  8
_0-1_作画層１
  6
CONTINUOUS
 62
    7
 10
4.2748576402792082
 20
180.77396493603192
 11
1.1554530761308115
 21
182.75904016810622
  0
LINE
  8
_0-1_作画層１
  6
CONTINUOUS
 62
    7
 10
4.2352018615120812
 20
180.56214138756832
 11
1.0993997019417634
 21
182.55765185274944
  0
LINE
  8
_0-1_作画層１
  6
CONTINUOUS
 62
    7
 10
4.1989625156791703
 20
180.34813695125899
 11
1.0457695249767767
 21
182.35471430897869
  0
LINE
  8
_0-1_作画層１
  6
CONTINUOUS
 62
    7
 10
4.1662084941554554
 20
180.13191418164183
 11
0.9945823023719242
 21
182.15022215788787
  0
LINE
  8
_0-1_作画層１
  6
CONTINUOUS
 62
    7
 10
4.1370230665459644
 20
179.91342808209805
 11
0.9458873752471674
 21
181.94415119439921
  0
LINE
  8
_0-1_作画層１
  6
CONTINUOUS
 62
    7
 10
4.1115117421636853
 20
179.69260391686419
 11
0.8997185686470174
 21
181.73647230001117
  0
LINE
  8
_0-1_作画層１
  6
CONTINUOUS
 62
    7
 10
4.08973906788259
 20
179.46939301718356
 11
0.8561093972944604
 21
181.52715775266887
  0
LINE
  8
_0-1_作画層１
  6
CONTINUOUS
 62
    7
 10
4.0718376027072907
 20
179.24372641410079
 11
0.8150869626012422
 21
181.31620429399655
  0
LINE
  8
_0-1_作画層１
  6
CONTINUOUS
 62
    7
 10
4.0579026670613132
 20
179.015535655863
 11
0.7767053639504979
 21
181.10357070295365
  0
LINE
  8
_0-1_作画層１
  6
CONTINUOUS
 62
    7
 10
4.0480716299327071
 20
178.78472573236814
 11
0.7410078394724735
 21
180.88922067192368
  0
LINE
  8
_0-1_作画層１
  6
CONTINUOUS
 62
    7
 10
4.04246872336563
 20
178.55122557999061
 11
0.7080454887756673
 21
180.67313087507318
  0
LINE
  8
_0-1_作画層１
  6
CONTINUOUS
 62
    7
 10
4.0412367986947402
 20
178.31495068783946
 11
0.6778473786414451
 21
180.45528920986331
  0
LINE
  8
_0-1_作画層１
  6
CONTINUOUS
 62
    7
 10
4.0445346888124618
 20
178.0757929864491
 11
0.6504892275180509
 21
180.23564069766667
  0
LINE
  8
_0-1_作画層１
  6
CONTINUOUS
 62
    7
 10
4.0525539655304215
 20
177.83362457163759
 11
0.6260232728594417
 21
180.01414370368084
  0
LINE
  8
_0-1_作画層１
  6
CONTINUOUS
 62
    7
 10
4.0654533841606622
 20
177.58836410037932
 11
0.6044981317020869
 21
179.79079046986803
  0
LINE
  8
_0-1_作画層１
  6
CONTINUOUS
 62
    7
 10
4.0834824431964591
 20
177.33982522460806
 11
0.5859923153878128
 21
179.56550026091568
  0
LINE
  8
_0-1_作画層１
  6
CONTINUOUS
 62
    7
 10
4.106842851618751
 20
177.0879003662007
 11
0.5705644746818165
 21
179.33825973299889
  0
LINE
  8
_0-1_作画層１
  6
CONTINUOUS
 62
    7
 10
4.1357989774931525
 20
176.83241539600041
 11
0.558289603948765
 21
179.10901276964472
  0
LINE
  8
_0-1_作画層１
  6
CONTINUOUS
 62
    7
 10
4.1706442298065554
 20
176.57317540623936
 11
0.5492414562673957
 21
178.87770444394613
  0
LINE
  8
_0-1_作画層１
  6
CONTINUOUS
 62
    7
 10
4.2116980328323166
 20
176.30999151455902
 11
0.543500198027516
 21
178.64429932753075
  0
LINE
  8
_0-1_作画層１
  6
CONTINUOUS
 62
    7
 10
4.2593172498408478
 20
176.04262945731264
 11
0.5411622357779322
 21
178.40872847730336
  0
LINE
  8
_0-1_作画層１
  6
CONTINUOUS
 62
    7
 10
4.3139120272754781
 20
175.77082181898041
 11
0.5423330271115105
 21
178.17091739024164
  0
LINE
  8
_0-1_作画層１
  6
CONTINUOUS
 62
    7
 10
4.1775769157603975
 20
175.62052152597792
 11
0.5470910316498134
 21
177.93083831843066
  0
LINE
  8
_0-1_作画層１
  6
CONTINUOUS
 62
    7
 10
3.9014733181811891
 20
175.55916517096031
 11
0.5555578437041504
 21
177.68838370960736
  0
LINE
  8
_0-1_作画層１
  6
CONTINUOUS
 62
    7
 10
3.6253613419212058
 20
175.49780695401364
 11
0.5678463168633243
 21
177.44349853342416
  0
LINE
  8
_0-1_作画層１
  6
CONTINUOUS
 62
    7
 10
3.3492661230227156
 20
175.4364524609251
 11
0.584086372399156
 21
177.19611250205924
  0
LINE
  8
_0-1_作画層１
  6
CONTINUOUS
 62
    7
 10
3.0731541467627608
 20
175.37509424397842
 11
0.6044218960513489
 21
176.94610567624929
  0
LINE
  8
_0-1_作画層１
  6
CONTINUOUS
 62
    7
 10
2.797050549183524
 20
175.31373788896082
 11
0.6289827315113711
 21
176.69341690972703
  0
LINE
  8
_0-1_作画層１
  6
CONTINUOUS
 62
    7
 10
2.5209469516042873
 20
175.25238153394321
 11
0.6579491497158187
 21
176.43792519003389
  0
LINE
  8
_0-1_作画層１
  6
CONTINUOUS
 62
    7
 10
2.244834975344304
 20
175.19102331699656
 11
0.6914893449227008
 21
176.17951549133059
  0
LINE
  8
_0-1_作画層１
  6
CONTINUOUS
 62
    7
 10
1.9687313777650957
 20
175.12966696197896
 11
0.7297873119267421
 21
175.91808521356811
  0
LINE
  8
_0-1_作画層１
  6
CONTINUOUS
 62
    7
 10
1.6926277801858589
 20
175.06831060696135
 11
0.7730541727946729
 21
175.65349321218011
  0
LINE
  8
_0-1_作画層１
  6
CONTINUOUS
 62
    7
 10
1.4165148729613577
 20
175.00695218313368
 11
0.8215319330483055
 21
175.38557806502902
  0
LINE
  8
_0-1_作画層１
  6
CONTINUOUS
 62
    7
 10
1.1404112753821209
 20
174.94559582811607
 11
0.8754540449729972
 21
175.1142124433207
  0
ARC
  8
_0-1_作画層１
  6
CONTINUOUS
 62
    7
 10
16.541123778501799
 20
178.36797638436479
 40
12.500000953674466
 50
140.79316622965962
 51
192.68995578044033
  0
LINE
  8
_0-1_作画層１
  6
CONTINUOUS
 62
    7
 10
29.050426982772436
 20
188.343822606826
 11
22.01394024578677
 21
182.7324115802877
  0
LINE
  8
_0-d_0_1
  6
CONTINUOUS
 62
    7
 10
27.768282274171384
 20
192.06167696848451
 11
27.84301410095361
 21
192.13639925852357
  0
TEXT
  8
_0-d_0_1
 62
    7
 10
5.0503750603109552
 20
192.27212911781808
 40
5
 41
1
 50
29.999957756663811
  1
10
  0
TEXT
  8
_0-d_0_1
 62
    7
 10
10.014839765013221
 20
195.3708259589306
 40
5
 41
1
 50
14.999989403430712
  1
9
  0
TEXT
  8
_0-d_0_1
 62
    7
 10
13.634885648652585
 20
196.50327013865052
 40
5
 41
1
 50
0
  1
8
  0
TEXT
  8
_0-d_0_1
 62
    7
 10
18.528129085682281
 20
196.79218196941287
 40
5
 41
1
 50
-14.99997970226144
  1
7
  0
TEXT
  8
_0-d_0_1
 62
    7
 10
23.21876165011787
 20
195.77956802889909
 40
5
 41
1
 50
-29.99997589625999
  1
6
  0
TEXT
  8
_0-d_0_1
 62
    7
 10
27.457013326789962
 20
193.59388773903436
 40
5
 41
1
 50
-45.000009091158226
  1
5
  0
TEXT
  8
_0-d_0_1
 62
    7
 10
31.075057970814768
 20
190.44671187552308
 40
5
 41
1
 50
-59.999912760333949
  1
4
  0
TEXT
  8
_0-d_0_1
 62
    7
 10
33.734617184761632
 20
186.29823910555442
 40
5
 41
1
 50
-75.000243003075809
  1
3
  0
TEXT
  8
_0-d_0_1
 62
    7
 10
35.241332391664059
 20
181.73218726053773
 40
5
 41
1
 50
-90
  1
2
  0
TEXT
  8
_0-d_0_1
 62
    7
 10
35.427079943905625
 20
176.84250479053216
 40
5
 41
1
 50
-104.99975616503994
  1
1
  0
TEXT
  8
_0-d_0_1
 62
    7
 10
35.124251726439695
 20
173.33634624843006
 40
5
 41
1
 50
-120.00005854257884
  1
24
  0
TEXT
  8
_0-d_0_1
 62
    7
 10
33.184502939149425
 20
168.80971621499341
 40
5
 41
1
 50
-135.00000000000023
  1
23
  0
TEXT
  8
_0-d_0_1
 62
    7
 10
30.127401253376348
 20
164.85935031136492
 40
5
 41
1
 50
-150.00003053215451
  1
22
  0
TEXT
  8
_0-d_0_1
 62
    7
 10
26.252968192315905
 20
161.95977146839095
 40
5
 41
1
 50
-164.99996468005978
  1
21
  0
TEXT
  8
_0-d_0_1
 62
    7
 10
21.724990466996701
 20
160.02322291269837
 40
5
 41
1
 50
180
  1
20
  0
TEXT
  8
_0-d_0_1
 62
    7
 10
16.761290444098961
 20
159.51154556464209
 40
5
 41
1
 50
164.9999895175464
  1
19
  0
TEXT
  8
_0-d_0_1
 62
    7
 10
11.923244931321847
 20
160.28018239178127
 40
5
 41
1
 50
150.00003053215451
  1
18
  0
TEXT
  8
_0-d_0_1
 62
    7
 10
6.5835679577528481
 20
162.92127345934605
 40
5
 41
1
 50
135.0000193187177
  1
17
  0
TEXT
  8
_0-d_0_1
 62
    7
 10
2.936688275036488
 20
166.23349744604886
 40
5
 41
1
 50
119.99999141718867
  1
16
  0
TEXT
  8
_0-d_0_1
 62
    7
 10
0.3365001951947306
 20
170.23616080312792
 40
5
 41
1
 50
105.00004571869745
  1
15
  0
TEXT
  8
_0-d_0_1
 62
    7
 10
-1.1184030972275423
 20
174.92357515230714
 40
5
 41
1
 50
90
  1
14
  0
TEXT
  8
_0-d_0_1
 62
    7
 10
-1.3359403699451775
 20
179.74816887715704
 40
5
 41
1
 50
74.999957816881491
  1
13
  0
TEXT
  8
_0-d_0_1
 62
    7
 10
-0.3878616060233639
 20
184.38788133797189
 40
5
 41
1
 50
60.000042243336416
  1
12
  0
TEXT
  8
_0-d_0_1
 62
    7
 10
1.7470456344192655
 20
188.56430188263664
 40
5
 41
1
 50
45.000042243336281
  1
11
  0
TEXT
  8
_0-d_0_1
 62
    7
 10
10.349896090918804
 20
183.03729056968905
 40
5
 41
1
 50
26.55953400139105
  1
SAT
  0
TEXT
  8
_0-d_0_1
 62
    7
 10
9.0161192871750018
 20
176.49498341954205
 40
5
 41
1
 50
77.559534001391071
  1
SAT
  0
TEXT
  8
_0-d_0_1
 62
    7
 10
16.679565978158877
 20
186.12133881611769
 40
5
 41
1
 50
-27.440465998608989
  1
FRI
  0
TEXT
  8
_0-d_0_1
 62
    7
 10
22.653742579276638
 20
183.13973566550777
 40
5
 41
1
 50
-78.440465998608971
  1
THU
  0
TEXT
  8
_0-d_0_1
 62
    7
 10
24.096272886928972
 20
176.62054478622116
 40
5
 41
1
 50
-129.44046599860906
  1
TUE
  0
TEXT
  8
_0-d_0_1
 62
    7
 10
19.937723760437279
 20
171.39682842986872
 40
5
 41
1
 50
179.559534001391
  1
MON
  0
TEXT
  8
_0-d_0_1
 62
    7
 10
13.261073927817449
 20
171.34123686892892
 40
5
 41
1
 50
128.55953400139103
  1
SUN
  0
LINE
  8
_0-1_作画層１
  6
CONTINUOUS
 62
    7
 10
127.04113194433779
 20
144.61798024177551
 11
127.04114803758679
 21
212.11798405647278
  0
LINE
  8
_0-1_作画層１
  6
CONTINUOUS
 62
    7
 10
130.04113194433776
 20
144.61798024177551
 11
130.04113325563947
 21
150.11798024177551
  0
LINE
  8
_0-1_作画層１
  6
CONTINUOUS
 62
    7
 10
130.04113325563947
 20
150.11798019906212
 11
152.04113194433779
 21
150.11798019906212
  0
INSERT
  2
-002-_D2
  8
_0-9_寸法線層１
 10
-55.25
 20
-38.75
 41
1
 42
1
 50
0
  0
INSERT
  2
-003-_D3
  8
_0-9_寸法線層１
 10
-55.25
 20
-38.75
 41
1
 42
1
 50
0
  0
INSERT
  2
-004-_D4
  8
_0-9_寸法線層１
 10
-55.25
 20
-38.75
 41
1
 42
1
 50
0
  0
INSERT
  2
-005-_D5
  8
_0-9_寸法線層１
 10
-55.25
 20
-38.75
 41
1
 42
1
 50
0
  0
INSERT
  2
-006-_D6
  8
_0-9_寸法線層１
 10
-55.25
 20
-38.75
 41
1
 42
1
 50
0
  0
LINE
  8
_0-1_作画層１
  6
CONTINUOUS
 62
    7
 10
281.54112377850163
 20
23.367976384364852
 11
349.54112377850163
 21
23.367976384364852
  0
LINE
  8
_0-1_作画層１
  6
CONTINUOUS
 62
    7
 10
349.54112377850163
 20
23.367976384364852
 11
349.54112377850163
 21
91.367976384364852
  0
LINE
  8
_0-1_作画層１
  6
CONTINUOUS
 62
    7
 10
349.54112377850163
 20
91.367976384364852
 11
281.54112377850163
 21
91.367976384364852
  0
LINE
  8
_0-1_作画層１
  6
CONTINUOUS
 62
    7
 10
281.54112377850163
 20
91.367976384364852
 11
281.54112377850163
 21
23.367976384364852
  0
LINE
  8
_0-1_作画層１
  6
CONTINUOUS
 62
    7
 10
349.54112377850163
 20
86.581179819961221
 11
344.754327214098
 21
91.367976384364852
  0
LINE
  8
_0-1_作画層１
  6
CONTINUOUS
 62
    7
 10
349.54112377850163
 20
79.510112008095689
 11
337.68325940223247
 21
91.367976384364852
  0
LINE
  8
_0-1_作画層１
  6
CONTINUOUS
 62
    7
 10
349.54112377850163
 20
72.439044196230213
 11
330.61219159036699
 21
91.367976384364852
  0
LINE
  8
_0-1_作画層１
  6
CONTINUOUS
 62
    7
 10
349.54112377850163
 20
65.367976384364738
 11
323.54112377850151
 21
91.367976384364852
  0
LINE
  8
_0-1_作画層１
  6
CONTINUOUS
 62
    7
 10
349.54112377850163
 20
58.296908572499262
 11
316.47005596663604
 21
91.367976384364852
  0
LINE
  8
_0-1_作画層１
  6
CONTINUOUS
 62
    7
 10
349.54112377850163
 20
51.225840760633673
 11
309.39898815477045
 21
91.367976384364852
  0
LINE
  8
_0-1_作画層１
  6
CONTINUOUS
 62
    7
 10
349.54112377850163
 20
44.154772948768255
 11
302.32792034290503
 21
91.367976384364852
  0
LINE
  8
_0-1_作画層１
  6
CONTINUOUS
 62
    7
 10
349.54112377850163
 20
37.083705136902722
 11
295.2568525310395
 21
91.367976384364852
  0
LINE
  8
_0-1_作画層１
  6
CONTINUOUS
 62
    7
 10
349.54112377850163
 20
30.01263732503719
 11
288.18578471917397
 21
91.367976384364852
  0
LINE
  8
_0-1_作画層１
  6
CONTINUOUS
 62
    7
 10
349.11471690730849
 20
23.367976384364852
 11
281.54112377850163
 21
90.941569513171714
  0
LINE
  8
_0-1_作画層１
  6
CONTINUOUS
 62
    7
 10
342.04364909544296
 20
23.367976384364852
 11
281.54112377850163
 21
83.870501701306239
  0
LINE
  8
_0-1_作画層１
  6
CONTINUOUS
 62
    7
 10
334.97258128357754
 20
23.367976384364852
 11
281.54112377850163
 21
76.799433889440763
  0
LINE
  8
_0-1_作画層１
  6
CONTINUOUS
 62
    7
 10
327.90151347171201
 20
23.367976384364852
 11
281.54112377850163
 21
69.728366077575231
  0
LINE
  8
_0-1_作画層１
  6
CONTINUOUS
 62
    7
 10
320.83044565984648
 20
23.367976384364852
 11
281.54112377850163
 21
62.657298265709699
  0
LINE
  8
_0-1_作画層１
  6
CONTINUOUS
 62
    7
 10
313.759377847981
 20
23.367976384364852
 11
281.54112377850163
 21
55.586230453844223
  0
LINE
  8
_0-1_作画層１
  6
CONTINUOUS
 62
    7
 10
306.68831003611541
 20
23.367976384364852
 11
281.54112377850163
 21
48.515162641978634
  0
LINE
  8
_0-1_作画層１
  6
CONTINUOUS
 62
    7
 10
299.61724222424999
 20
23.367976384364852
 11
281.54112377850163
 21
41.444094830113215
  0
LINE
  8
_0-1_作画層１
  6
CONTINUOUS
 62
    7
 10
281.54112377850163
 20
34.373027018247683
 11
292.54617441238446
 21
23.367976384364852
  0
LINE
  8
_0-1_作画層１
  6
CONTINUOUS
 62
    7
 10
285.47510660051898
 20
23.367976384364852
 11
281.54112377850163
 21
27.301959206382207
  0
INSERT
  2
-007-_D7
  8
_0-9_寸法線層１
 10
-55.25
 20
-38.75
 41
1
 42
1
 50
0
  0
INSERT
  2
-008-_D8
  8
_0-9_寸法線層１
 10
-55.25
 20
-38.75
 41
1
 42
1
 50
0
  0
LINE
  8
_0-1_作画層１
  6
CONTINUOUS
 62
    7
 10
289.75
 20
8.75
 11
334.75
 21
8.75
  0
TEXT
  8
_0-7_注記層１
 62
    7
 10
292.25
 20
8.75
 40
5
 41
1
 50
0
  1
パネルカット寸法
  0
LINE
  8
_0-1_作画層１
  6
CONTINUOUS
 62
    7
 10
254.74110851971255
 20
90.61796875497032
 11
254.74110851971255
 21
87.317968754970309
  0
LINE
  8
_0-1_作画層１
  6
CONTINUOUS
 62
    7
 10
260.04110851971257
 20
85.317968754970309
 11
256.74110851971255
 21
85.317968754970309
  0
ARC
  8
_0-1_作画層１
  6
CONTINUOUS
 62
    7
 10
256.74110851971255
 20
87.317968754970309
 40
2
 50
179.9999999999996
 51
270
  0
ARC
  8
_0-1_作画層１
  6
CONTINUOUS
 62
    7
 10
259.04110851971257
 20
89.617968754970349
 40
0.9999999999999712
 50
359.99999999999835
 51
90.000000000000014
  0
LINE
  8
_0-1_作画層１
  6
CONTINUOUS
 62
    7
 10
260.04110851971257
 20
89.61796875497032
 11
260.04110851971257
 21
25.117984013759383
  0
ARC
  8
_0-1_作画層１
  6
CONTINUOUS
 62
    7
 10
259.04110851971257
 20
25.117984013759369
 40
1
 50
270
 51
0.0000000000008014
  0
LINE
  8
_0-1_作画層１
  6
CONTINUOUS
 62
    7
 10
259.04110851971257
 20
24.117984013759383
 11
194.04113903729069
 21
24.117984013759383
  0
ARC
  8
_0-1_作画層１
  6
CONTINUOUS
 62
    7
 10
194.04113903729069
 20
25.117984013759369
 40
0.9999999999999854
 50
179.99999999999918
 51
270
  0
LINE
  8
_0-1_作画層１
  6
CONTINUOUS
 62
    7
 10
193.04113903729069
 20
25.117984013759383
 11
193.04113903729069
 21
89.61796875497032
  0
LINE
  8
_0-1_作画層１
  6
CONTINUOUS
 62
    7
 10
259.04110851971257
 20
90.61796875497032
 11
194.04113903729069
 21
90.61796875497032
  0
ARC
  8
_0-1_作画層１
  6
CONTINUOUS
 62
    7
 10
194.04113903729066
 20
89.617968754970349
 40
0.9999999999999712
 50
89.99999999999838
 51
180.00000000000162
  0
LINE
  8
_0-1_作画層１
  6
CONTINUOUS
 62
    7
 10
193.04113522259343
 20
28.917995457851191
 11
196.34113522259344
 21
28.917995457851191
  0
LINE
  8
_0-1_作画層１
  6
CONTINUOUS
 62
    7
 10
234.58694449154484
 20
36.617987828456648
 11
243.08694782940495
 21
36.617987828456648
  0
LINE
  8
_0-1_作画層１
  6
CONTINUOUS
 62
    7
 10
211.08694210735905
 20
36.617987828456648
 11
219.586944968382
 21
36.617987828456648
  0
LINE
  8
_0-1_作画層１
  6
CONTINUOUS
 62
    7
 10
243.08694782940495
 20
24.117984013759383
 11
243.08694782940495
 21
36.617987828456648
  0
LINE
  8
_0-1_作画層１
  6
CONTINUOUS
 62
    7
 10
234.58694449154484
 20
24.117984013759383
 11
234.58694449154484
 21
36.617987828456648
  0
LINE
  8
_0-1_作画層１
  6
CONTINUOUS
 62
    7
 10
219.586944968382
 20
24.117984013759383
 11
219.586944968382
 21
36.617987828456648
  0
LINE
  8
_0-1_作画層１
  6
CONTINUOUS
 62
    7
 10
211.08694210735905
 20
24.117984013759383
 11
211.08694210735905
 21
36.617987828456648
  0
LINE
  8
_0-1_作画層１
  6
CONTINUOUS
 62
    7
 10
245.58695545879948
 20
36.617987828456648
 11
254.08695927349675
 21
36.617987828456648
  0
LINE
  8
_0-1_作画層１
  6
CONTINUOUS
 62
    7
 10
254.08695927349675
 20
24.117984013759383
 11
254.08695927349675
 21
36.617987828456648
  0
LINE
  8
_0-1_作画層１
  6
CONTINUOUS
 62
    7
 10
245.58695545879948
 20
24.117984013759383
 11
245.58695545879948
 21
36.617987828456648
  0
LINE
  8
_0-1_作画層１
  6
CONTINUOUS
 62
    7
 10
200.08693066326725
 20
36.617987828456648
 11
208.58693257061589
 21
36.617987828456648
  0
LINE
  8
_0-1_作画層１
  6
CONTINUOUS
 62
    7
 10
200.08693066326725
 20
24.117984013759383
 11
200.08693066326725
 21
36.617987828456648
  0
LINE
  8
_0-1_作画層１
  6
CONTINUOUS
 62
    7
 10
208.58693257061589
 20
24.117984013759383
 11
208.58693257061589
 21
36.617987828456648
  0
LINE
  8
_0-1_作画層１
  6
CONTINUOUS
 62
    7
 10
202.33692494122135
 20
32.117984013759383
 11
202.33692494122135
 21
32.617985921108016
  0
LINE
  8
_0-1_作画層１
  6
CONTINUOUS
 62
    7
 10
202.33692494122135
 20
32.117984013759383
 11
202.33692494122135
 21
31.617984013759383
  0
LINE
  8
_0-1_作画層１
  6
CONTINUOUS
 62
    7
 10
206.33693829266178
 20
32.117984013759383
 11
206.33693829266178
 21
31.617984013759383
  0
LINE
  8
_0-1_作画層１
  6
CONTINUOUS
 62
    7
 10
206.33693829266178
 20
32.117984013759383
 11
206.33693829266178
 21
32.617985921108016
  0
LINE
  8
_0-1_作画層１
  6
CONTINUOUS
 62
    7
 10
204.33693257061589
 20
34.117991643153914
 11
204.83693257061589
 21
34.117991643153914
  0
LINE
  8
_0-1_作画層１
  6
CONTINUOUS
 62
    7
 10
204.33693257061589
 20
34.117991643153914
 11
203.83693066326725
 21
34.117991643153914
  0
LINE
  8
_0-1_作画層１
  6
CONTINUOUS
 62
    7
 10
204.33693257061589
 20
30.117978291713484
 11
203.83693066326725
 21
30.117978291713484
  0
LINE
  8
_0-1_作画層１
  6
CONTINUOUS
 62
    7
 10
204.33693257061589
 20
30.117978291713484
 11
204.83693257061589
 21
30.117978291713484
  0
LINE
  8
_0-1_作画層１
  6
CONTINUOUS
 62
    7
 10
203.33692875591862
 20
32.617985921108016
 11
202.33692494122135
 21
32.617985921108016
  0
LINE
  8
_0-1_作画層１
  6
CONTINUOUS
 62
    7
 10
203.83693066326725
 20
33.117987828456648
 11
203.83693066326725
 21
34.117991643153914
  0
LINE
  8
_0-1_作画層１
  6
CONTINUOUS
 62
    7
 10
204.83693257061589
 20
33.117987828456648
 11
204.83693257061589
 21
34.117991643153914
  0
LINE
  8
_0-1_作画層１
  6
CONTINUOUS
 62
    7
 10
205.33693447796452
 20
32.617985921108016
 11
206.33693829266178
 21
32.617985921108016
  0
LINE
  8
_0-1_作画層１
  6
CONTINUOUS
 62
    7
 10
205.33693447796452
 20
31.617984013759383
 11
206.33693829266178
 21
31.617984013759383
  0
LINE
  8
_0-1_作画層１
  6
CONTINUOUS
 62
    7
 10
204.83693257061589
 20
31.11798210641075
 11
204.83693257061589
 21
30.117978291713484
  0
LINE
  8
_0-1_作画層１
  6
CONTINUOUS
 62
    7
 10
203.83693066326725
 20
31.11798210641075
 11
203.83693066326725
 21
30.117978291713484
  0
LINE
  8
_0-1_作画層１
  6
CONTINUOUS
 62
    7
 10
203.33692875591862
 20
31.617984013759383
 11
202.33692494122135
 21
31.617984013759383
  0
LINE
  8
_0-1_作画層１
  6
CONTINUOUS
 62
    7
 10
213.33693638531315
 20
32.117984013759383
 11
213.33693638531315
 21
32.617985921108016
  0
LINE
  8
_0-1_作画層１
  6
CONTINUOUS
 62
    7
 10
213.33693638531315
 20
32.117984013759383
 11
213.33693638531315
 21
31.617984013759383
  0
LINE
  8
_0-1_作画層１
  6
CONTINUOUS
 62
    7
 10
217.33694973675358
 20
32.117984013759383
 11
217.33694973675358
 21
31.617984013759383
  0
LINE
  8
_0-1_作画層１
  6
CONTINUOUS
 62
    7
 10
217.33694973675358
 20
32.117984013759383
 11
217.33694973675358
 21
32.617985921108016
  0
LINE
  8
_0-1_作画層１
  6
CONTINUOUS
 62
    7
 10
215.33694306103337
 20
34.117991643153914
 11
215.836944968382
 21
34.117991643153914
  0
LINE
  8
_0-1_作画層１
  6
CONTINUOUS
 62
    7
 10
215.33694306103337
 20
34.117991643153914
 11
214.83694115368473
 21
34.117991643153914
  0
LINE
  8
_0-1_作画層１
  6
CONTINUOUS
 62
    7
 10
215.33694306103337
 20
30.117978291713484
 11
214.83694115368473
 21
30.117978291713484
  0
LINE
  8
_0-1_作画層１
  6
CONTINUOUS
 62
    7
 10
215.33694306103337
 20
30.117978291713484
 11
215.836944968382
 21
30.117978291713484
  0
LINE
  8
_0-1_作画層１
  6
CONTINUOUS
 62
    7
 10
214.33694020001042
 20
32.617985921108016
 11
213.33693638531315
 21
32.617985921108016
  0
LINE
  8
_0-1_作画層１
  6
CONTINUOUS
 62
    7
 10
214.83694115368473
 20
33.117987828456648
 11
214.83694115368473
 21
34.117991643153914
  0
LINE
  8
_0-1_作画層１
  6
CONTINUOUS
 62
    7
 10
215.836944968382
 20
33.117987828456648
 11
215.836944968382
 21
34.117991643153914
  0
LINE
  8
_0-1_作画層１
  6
CONTINUOUS
 62
    7
 10
216.33694687573063
 20
32.617985921108016
 11
217.33694973675358
 21
32.617985921108016
  0
LINE
  8
_0-1_作画層１
  6
CONTINUOUS
 62
    7
 10
216.33694687573063
 20
31.617984013759383
 11
217.33694973675358
 21
31.617984013759383
  0
LINE
  8
_0-1_作画層１
  6
CONTINUOUS
 62
    7
 10
215.836944968382
 20
31.11798210641075
 11
215.836944968382
 21
30.117978291713484
  0
LINE
  8
_0-1_作画層１
  6
CONTINUOUS
 62
    7
 10
214.83694115368473
 20
31.11798210641075
 11
214.83694115368473
 21
30.117978291713484
  0
LINE
  8
_0-1_作画層１
  6
CONTINUOUS
 62
    7
 10
214.33694020001042
 20
31.617984013759383
 11
213.33693638531315
 21
31.617984013759383
  0
LINE
  8
_0-1_作画層１
  6
CONTINUOUS
 62
    7
 10
236.8369392463361
 20
32.117984013759383
 11
236.8369392463361
 21
32.617985921108016
  0
LINE
  8
_0-1_作画層１
  6
CONTINUOUS
 62
    7
 10
236.8369392463361
 20
32.117984013759383
 11
236.8369392463361
 21
31.617984013759383
  0
LINE
  8
_0-1_作画層１
  6
CONTINUOUS
 62
    7
 10
240.83695259777653
 20
32.117984013759383
 11
240.83695259777653
 21
31.617984013759383
  0
LINE
  8
_0-1_作画層１
  6
CONTINUOUS
 62
    7
 10
240.83695259777653
 20
32.117984013759383
 11
240.83695259777653
 21
32.617985921108016
  0
LINE
  8
_0-1_作画層１
  6
CONTINUOUS
 62
    7
 10
238.83694592205632
 20
34.117991643153914
 11
239.33694782940495
 21
34.117991643153914
  0
LINE
  8
_0-1_作画層１
  6
CONTINUOUS
 62
    7
 10
238.83694592205632
 20
34.117991643153914
 11
238.336944968382
 21
34.117991643153914
  0
LINE
  8
_0-1_作画層１
  6
CONTINUOUS
 62
    7
 10
238.83694592205632
 20
30.117978291713484
 11
238.336944968382
 21
30.117978291713484
  0
LINE
  8
_0-1_作画層１
  6
CONTINUOUS
 62
    7
 10
238.83694592205632
 20
30.117978291713484
 11
239.33694782940495
 21
30.117978291713484
  0
LINE
  8
_0-1_作画層１
  6
CONTINUOUS
 62
    7
 10
237.83694306103337
 20
32.617985921108016
 11
236.8369392463361
 21
32.617985921108016
  0
LINE
  8
_0-1_作画層１
  6
CONTINUOUS
 62
    7
 10
238.336944968382
 20
33.117987828456648
 11
238.336944968382
 21
34.117991643153914
  0
LINE
  8
_0-1_作画層１
  6
CONTINUOUS
 62
    7
 10
239.33694782940495
 20
33.117987828456648
 11
239.33694782940495
 21
34.117991643153914
  0
LINE
  8
_0-1_作画層１
  6
CONTINUOUS
 62
    7
 10
239.83694973675358
 20
32.617985921108016
 11
240.83695259777653
 21
32.617985921108016
  0
LINE
  8
_0-1_作画層１
  6
CONTINUOUS
 62
    7
 10
239.83694973675358
 20
31.617984013759383
 11
240.83695259777653
 21
31.617984013759383
  0
LINE
  8
_0-1_作画層１
  6
CONTINUOUS
 62
    7
 10
239.33694782940495
 20
31.11798210641075
 11
239.33694782940495
 21
30.117978291713484
  0
LINE
  8
_0-1_作画層１
  6
CONTINUOUS
 62
    7
 10
238.336944968382
 20
31.11798210641075
 11
238.336944968382
 21
30.117978291713484
  0
LINE
  8
_0-1_作画層１
  6
CONTINUOUS
 62
    7
 10
237.83694306103337
 20
31.617984013759383
 11
236.8369392463361
 21
31.617984013759383
  0
LINE
  8
_0-1_作画層１
  6
CONTINUOUS
 62
    7
 10
247.83695164410221
 20
32.117984013759383
 11
247.83695164410221
 21
32.617985921108016
  0
LINE
  8
_0-1_作画層１
  6
CONTINUOUS
 62
    7
 10
247.83695164410221
 20
32.117984013759383
 11
247.83695164410221
 21
31.617984013759383
  0
LINE
  8
_0-1_作画層１
  6
CONTINUOUS
 62
    7
 10
251.83696499554264
 20
32.117984013759383
 11
251.83696499554264
 21
31.617984013759383
  0
LINE
  8
_0-1_作画層１
  6
CONTINUOUS
 62
    7
 10
251.83696499554264
 20
32.117984013759383
 11
251.83696499554264
 21
32.617985921108016
  0
LINE
  8
_0-1_作画層１
  6
CONTINUOUS
 62
    7
 10
249.83695736614811
 20
34.117991643153914
 11
250.33695927349675
 21
34.117991643153914
  0
LINE
  8
_0-1_作画層１
  6
CONTINUOUS
 62
    7
 10
249.83695736614811
 20
34.117991643153914
 11
249.33695545879948
 21
34.117991643153914
  0
LINE
  8
_0-1_作画層１
  6
CONTINUOUS
 62
    7
 10
249.83695736614811
 20
30.117978291713484
 11
249.33695545879948
 21
30.117978291713484
  0
LINE
  8
_0-1_作画層１
  6
CONTINUOUS
 62
    7
 10
249.83695736614811
 20
30.117978291713484
 11
250.33695927349675
 21
30.117978291713484
  0
LINE
  8
_0-1_作画層１
  6
CONTINUOUS
 62
    7
 10
248.83695355145085
 20
32.617985921108016
 11
247.83695164410221
 21
32.617985921108016
  0
LINE
  8
_0-1_作画層１
  6
CONTINUOUS
 62
    7
 10
249.33695545879948
 20
33.117987828456648
 11
249.33695545879948
 21
34.117991643153914
  0
LINE
  8
_0-1_作画層１
  6
CONTINUOUS
 62
    7
 10
250.33695927349675
 20
33.117987828456648
 11
250.33695927349675
 21
34.117991643153914
  0
LINE
  8
_0-1_作画層１
  6
CONTINUOUS
 62
    7
 10
250.83696118084538
 20
32.617985921108016
 11
251.83696499554264
 21
32.617985921108016
  0
LINE
  8
_0-1_作画層１
  6
CONTINUOUS
 62
    7
 10
250.83696118084538
 20
31.617984013759383
 11
251.83696499554264
 21
31.617984013759383
  0
LINE
  8
_0-1_作画層１
  6
CONTINUOUS
 62
    7
 10
250.33695927349675
 20
31.11798210641075
 11
250.33695927349675
 21
30.117978291713484
  0
LINE
  8
_0-1_作画層１
  6
CONTINUOUS
 62
    7
 10
249.33695545879948
 20
31.11798210641075
 11
249.33695545879948
 21
30.117978291713484
  0
LINE
  8
_0-1_作画層１
  6
CONTINUOUS
 62
    7
 10
248.83695355145085
 20
31.617984013759383
 11
247.83695164410221
 21
31.617984013759383
  0
CIRCLE
  8
_0-1_作画層１
  6
CONTINUOUS
 62
    7
 10
204.33693257061589
 20
32.117984013759383
 40
3
  0
ARC
  8
_0-1_作画層１
  6
CONTINUOUS
 62
    7
 10
203.33692875591868
 20
33.117987828456634
 40
0.4999999999999856
 50
269.99999999999341
 51
0.0000000000015775
  0
ARC
  8
_0-1_作画層１
  6
CONTINUOUS
 62
    7
 10
205.33693447796446
 20
33.117987828456634
 40
0.4999999999999432
 50
179.99999999999838
 51
270.00000000000648
  0
ARC
  8
_0-1_作画層１
  6
CONTINUOUS
 62
    7
 10
205.33693447796446
 20
31.117982106410764
 40
0.4999999999999856
 50
89.999999999993506
 51
180.00000000000162
  0
ARC
  8
_0-1_作画層１
  6
CONTINUOUS
 62
    7
 10
203.33692875591868
 20
31.117982106410764
 40
0.4999999999999432
 50
359.99999999999835
 51
90.000000000006565
  0
CIRCLE
  8
_0-1_作画層１
  6
CONTINUOUS
 62
    7
 10
215.33694306103337
 20
32.117984013759383
 40
3
  0
ARC
  8
_0-1_作画層１
  6
CONTINUOUS
 62
    7
 10
214.33694020001047
 20
33.117987828456634
 40
0.4999999999999856
 50
269.99999999999341
 51
0.0000000000015775
  0
ARC
  8
_0-1_作画層１
  6
CONTINUOUS
 62
    7
 10
216.33694687573058
 20
33.117987828456634
 40
0.4999999999999432
 50
179.99999999999838
 51
270.00000000000648
  0
ARC
  8
_0-1_作画層１
  6
CONTINUOUS
 62
    7
 10
216.33694687573058
 20
31.117982106410764
 40
0.4999999999999856
 50
89.999999999993506
 51
180.00000000000162
  0
ARC
  8
_0-1_作画層１
  6
CONTINUOUS
 62
    7
 10
214.33694020001047
 20
31.117982106410764
 40
0.4999999999999432
 50
359.99999999999835
 51
90.000000000006565
  0
CIRCLE
  8
_0-1_作画層１
  6
CONTINUOUS
 62
    7
 10
238.83694592205632
 20
32.117984013759383
 40
3
  0
ARC
  8
_0-1_作画層１
  6
CONTINUOUS
 62
    7
 10
237.83694306103342
 20
33.117987828456634
 40
0.4999999999999856
 50
269.99999999999341
 51
0.0000000000015775
  0
ARC
  8
_0-1_作画層１
  6
CONTINUOUS
 62
    7
 10
239.83694973675352
 20
33.117987828456634
 40
0.4999999999999432
 50
179.99999999999838
 51
270.00000000000648
  0
ARC
  8
_0-1_作画層１
  6
CONTINUOUS
 62
    7
 10
239.83694973675352
 20
31.117982106410764
 40
0.4999999999999856
 50
89.999999999993506
 51
180.00000000000162
  0
ARC
  8
_0-1_作画層１
  6
CONTINUOUS
 62
    7
 10
237.83694306103342
 20
31.117982106410764
 40
0.4999999999999432
 50
359.99999999999835
 51
90.000000000006565
  0
CIRCLE
  8
_0-1_作画層１
  6
CONTINUOUS
 62
    7
 10
249.83695736614811
 20
32.117984013759383
 40
3
  0
ARC
  8
_0-1_作画層１
  6
CONTINUOUS
 62
    7
 10
248.8369535514509
 20
33.117987828456634
 40
0.4999999999999856
 50
269.99999999999341
 51
0.0000000000015775
  0
ARC
  8
_0-1_作画層１
  6
CONTINUOUS
 62
    7
 10
250.83696118084532
 20
33.117987828456634
 40
0.4999999999999432
 50
179.99999999999838
 51
270.00000000000648
  0
ARC
  8
_0-1_作画層１
  6
CONTINUOUS
 62
    7
 10
250.83696118084532
 20
31.117982106410764
 40
0.4999999999999856
 50
89.999999999993506
 51
180.00000000000162
  0
ARC
  8
_0-1_作画層１
  6
CONTINUOUS
 62
    7
 10
248.8369535514509
 20
31.117982106410764
 40
0.4999999999999432
 50
359.99999999999835
 51
90.000000000006565
  0
LINE
  8
_0-1_作画層１
  6
CONTINUOUS
 62
    7
 10
208.58693257061589
 20
26.617978291713484
 11
200.08693066326725
 21
26.617978291713484
  0
LINE
  8
_0-1_作画層１
  6
CONTINUOUS
 62
    7
 10
219.586944968382
 20
26.617978291713484
 11
211.08694210735905
 21
26.617978291713484
  0
LINE
  8
_0-1_作画層１
  6
CONTINUOUS
 62
    7
 10
243.08694782940495
 20
26.617978291713484
 11
234.58694449154484
 21
26.617978291713484
  0
LINE
  8
_0-1_作画層１
  6
CONTINUOUS
 62
    7
 10
254.08695927349675
 20
26.617978291713484
 11
245.58695545879948
 21
26.617978291713484
  0
ARC
  8
_0-1_作画層１
  6
CONTINUOUS
 62
    7
 10
196.34113522259344
 20
26.917995457851177
 40
2.0000000000000142
 50
0.0000000000004071
 51
90
  0
LINE
  8
_0-1_作画層１
  6
CONTINUOUS
 62
    7
 10
198.34113522259344
 20
24.117984013759383
 11
198.34113522259344
 21
26.917995457851191
  0
LINE
  8
_0-1_作画層１
  6
CONTINUOUS
 62
    7
 10
197.26805303895185
 20
39.117984013759383
 11
255.76805303895179
 21
39.117984013759383
  0
LINE
  8
_0-1_作画層１
  6
CONTINUOUS
 62
    7
 10
255.76805303895179
 20
39.117984013759383
 11
255.76805303895179
 21
84.617984013759383
  0
LINE
  8
_0-1_作画層１
  6
CONTINUOUS
 62
    7
 10
255.76805303895179
 20
84.617984013759383
 11
197.26805303895185
 21
84.617984013759383
  0
LINE
  8
_0-1_作画層１
  6
CONTINUOUS
 62
    7
 10
197.26805303895185
 20
84.617984013759383
 11
197.26805303895185
 21
39.117984013759383
  0
LINE
  8
_0-1_作画層１
  6
CONTINUOUS
 62
    7
 10
198.89305303895185
 20
73.242984013759397
 11
254.14305303895179
 21
73.242984013759397
  0
LINE
  8
_0-1_作画層１
  6
CONTINUOUS
 62
    7
 10
254.14305303895179
 20
73.242984013759397
 11
254.14305303895179
 21
61.867984013759397
  0
LINE
  8
_0-1_作画層１
  6
CONTINUOUS
 62
    7
 10
254.14305303895179
 20
61.867984013759397
 11
198.89305303895185
 21
61.867984013759397
  0
LINE
  8
_0-1_作画層１
  6
CONTINUOUS
 62
    7
 10
198.89305303895185
 20
61.867984013759397
 11
198.89305303895185
 21
73.242984013759397
  0
LINE
  8
_0-1_作画層１
  6
CONTINUOUS
 62
    7
 10
204.38340748066742
 20
67.555484013759397
 11
207.83055303895179
 21
71.002629572043801
  0
LINE
  8
_0-1_作画層１
  6
CONTINUOUS
 62
    7
 10
207.83055303895179
 20
71.002629572043801
 11
211.27769859723622
 21
67.555484013759397
  0
LINE
  8
_0-1_作画層１
  6
CONTINUOUS
 62
    7
 10
211.27769859723622
 20
67.555484013759397
 11
207.83055303895179
 21
64.108338455474993
  0
LINE
  8
_0-1_作画層１
  6
CONTINUOUS
 62
    7
 10
207.83055303895179
 20
64.108338455474993
 11
204.38340748066742
 21
67.555484013759397
  0
TEXT
  8
_0-7_注記層１
 62
    7
 10
206.8805530389518
 20
67.417984013759394
 40
1.8999999999999999
 41
1
 50
0
  1
PS
  0
TEXT
  8
_0-7_注記層１
 62
    7
 10
207.35555303895177
 20
65.517984013759389
 40
1.8999999999999999
 41
1
 50
0
  1
E
  0
TEXT
  8
_0-7_注記層１
 62
    7
 10
210.39305303895179
 20
63.305484013759397
 40
2
 41
1
 50
0
  1
JET
  0
TEXT
  8
_0-7_注記層１
 62
    7
 10
199.70555303895185
 20
57.467984013759391
 40
2.2999999999999998
 41
1
 50
0
  1
製造年月
  0
CIRCLE
  8
_0-1_作画層１
  6
CONTINUOUS
 62
    7
 10
205.26805303895179
 20
41.555484013759383
 40
1.1490485194281399
  0
CIRCLE
  8
_0-1_作画層１
  6
CONTINUOUS
 62
    7
 10
216.64305303895179
 20
41.555484013759383
 40
1.1490485194281399
  0
CIRCLE
  8
_0-1_作画層１
  6
CONTINUOUS
 62
    7
 10
239.64305303895179
 20
41.555484013759383
 40
1.1490485194281399
  0
CIRCLE
  8
_0-1_作画層１
  6
CONTINUOUS
 62
    7
 10
251.01805303895179
 20
41.555484013759383
 40
1.1490485194281399
  0
CIRCLE
  8
_0-1_作画層１
  6
CONTINUOUS
 62
    7
 10
210.95555303895179
 20
52.242984013759397
 40
3.2500000000000004
  0
ARC
  8
_0-1_作画層１
  6
CONTINUOUS
 62
    7
 10
209.93992803895179
 20
52.139000610320608
 40
1.0209342235500356
 50
5.8457823547345411
 51
174.15421764526545
  0
ARC
  8
_0-1_作画層１
  6
CONTINUOUS
 62
    7
 10
211.97117803895179
 20
52.346967417198186
 40
1.0209342235500356
 50
185.84578235473455
 51
354.15421764526542
  0
LINE
  8
_0-1_作画層１
  6
CONTINUOUS
 62
    7
 10
207.70555303895179
 20
52.242984013759397
 11
205.26805303895179
 21
52.242984013759397
  0
LINE
  8
_0-1_作画層１
  6
CONTINUOUS
 62
    7
 10
216.64305303895179
 20
52.242984013759397
 11
214.20555303895179
 21
52.242984013759397
  0
TEXT
  8
_0-7_注記層１
 62
    7
 10
208.65555303895178
 20
45.280484013759391
 40
2.2999999999999998
 41
1
 50
0
  1
電源
  0
LINE
  8
_0-1_作画層１
  6
CONTINUOUS
 62
    7
 10
205.26805303895179
 20
52.242984013759397
 11
205.26805303895179
 21
42.704532533187532
  0
LINE
  8
_0-1_作画層１
  6
CONTINUOUS
 62
    7
 10
216.64305303895179
 20
52.242984013759397
 11
216.64305303895179
 21
42.704532533187532
  0
CIRCLE
  8
_0-1_作画層１
  6
CONTINUOUS
 62
    7
 10
242.08055303895179
 20
52.242984013759397
 40
0.8125000000000001
  0
CIRCLE
  8
_0-1_作画層１
  6
CONTINUOUS
 62
    7
 10
248.58055303895179
 20
52.242984013759397
 40
0.8125000000000001
  0
LINE
  8
_0-1_作画層１
  6
CONTINUOUS
 62
    7
 10
241.26805303895179
 20
52.242984013759397
 11
239.64305303895179
 21
52.242984013759397
  0
LINE
  8
_0-1_作画層１
  6
CONTINUOUS
 62
    7
 10
249.39305303895179
 20
52.242984013759397
 11
251.01805303895179
 21
52.242984013759397
  0
LINE
  8
_0-1_作画層１
  6
CONTINUOUS
 62
    7
 10
242.85594382934937
 20
52.000238525301569
 11
249.39305303895179
 21
53.867984013759397
  0
LINE
  8
_0-1_作画層１
  6
CONTINUOUS
 62
    7
 10
239.64305303895179
 20
42.704532533187518
 11
239.64305303895179
 21
52.242984013759397
  0
LINE
  8
_0-1_作画層１
  6
CONTINUOUS
 62
    7
 10
251.01805303895179
 20
42.704532533187518
 11
251.01805303895179
 21
52.242984013759397
  0
TEXT
  8
_0-7_注記層１
 62
    7
 10
243.33055303895179
 20
46.930484013759397
 40
2
 41
1
 50
0
  1
負荷
  0
TEXT
  8
_0-7_注記層１
 62
    7
 10
201.39305303895185
 20
80.217984013759391
 40
2.2999999999999998
 41
1
 50
0
  1
カレンダータイマー　　　ETS-703P
  0
TEXT
  8
_0-7_注記層１
 62
    7
 10
201.39305303895185
 20
77.917984013759394
 40
2.2999999999999998
 41
1
 50
0
  1
操作電圧　　AC100～200V  50/60Hz共用
  0
TEXT
  8
_0-7_注記層１
 62
    7
 10
219.20555303895179
 20
68.305484013759397
 40
2.5
 41
1
 50
0
  1
定格電圧　AC250V
  0
TEXT
  8
_0-7_注記層１
 62
    7
 10
219.20555303895179
 20
65.805484013759397
 40
2.5
 41
1
 50
0
  1
定格電流　7A
  0
TEXT
  8
_0-7_注記層１
 62
    7
 10
219.20555303895179
 20
63.305484013759397
 40
2.5
 41
1
 50
0
  1
スナオ電気株式会社
  0
LINE
  8
_0-1_作画層１
  6
CONTINUOUS
 62
    7
 10
-19.458872406801106
 20
109.36797638436485
 11
52.541154296079739
 21
109.36795921822716
  0
LINE
  8
_0-1_作画層１
  6
CONTINUOUS
 62
    7
 10
-19.458872406801106
 20
103.36796875497032
 11
-19.458872406801106
 21
123.36797638436485
  0
LINE
  8
_0-1_作画層１
  6
CONTINUOUS
 62
    7
 10
52.541154296079739
 20
103.36795158883263
 11
52.541154296079739
 21
123.36795888683457
  0
LINE
  8
_0-1_作画層１
  6
CENTER
 62
    7
 10
16.541123778501628
 20
137.36799736518827
 11
16.541123778501628
 21
219.36798973580625
  0
LINE
  8
_0-1_作画層１
  6
CENTER
 62
    7
 10
16.541123778501628
 20
44.867997365188273
 11
16.541123778501628
 21
126.86798973580625
  0
LINE
  8
_0-1_作画層１
  6
CONTINUOUS
 62
    7
 10
50.29113140789616
 20
75.367952125279686
 11
-17.208872406801106
 21
75.367968218528716
  0
LINE
  8
_0-1_作画層１
  6
CONTINUOUS
 62
    7
 10
24.341123778501611
 20
60.367951732944775
 11
24.341123778501611
 21
48.367951732944775
  0
LINE
  8
_0-1_作画層１
  6
CONTINUOUS
 62
    7
 10
24.341123778501611
 20
48.367951732944775
 11
24.341123778501611
 21
56.367951732944775
  0
LINE
  8
_0-1_作画層１
  6
CONTINUOUS
 62
    7
 10
34.341123778501611
 20
48.367951732944775
 11
31.341123778501611
 21
48.367951732944775
  0
LINE
  8
_0-1_作画層１
  6
CONTINUOUS
 62
    7
 10
41.341123778501611
 20
48.367951732944775
 11
42.691123778501606
 21
48.367951732944775
  0
LINE
  8
_0-1_作画層１
  6
CONTINUOUS
 62
    7
 10
32.841123778501611
 20
60.367951732944775
 11
32.841123778501611
 21
48.367951732944775
  0
LINE
  8
_0-1_作画層１
  6
CONTINUOUS
 62
    7
 10
32.841123778501611
 20
48.367951732944775
 11
32.841123778501611
 21
56.367951732944775
  0
LINE
  8
_0-1_作画層１
  6
CONTINUOUS
 62
    7
 10
35.491123778501617
 20
60.367951732944775
 11
35.491123778501617
 21
48.367951732944775
  0
LINE
  8
_0-1_作画層１
  6
CONTINUOUS
 62
    7
 10
35.491123778501617
 20
48.367951732944775
 11
35.491123778501617
 21
56.367951732944775
  0
ARC
  8
_0-1_作画層１
  6
CONTINUOUS
 62
    7
 10
38.216123778501625
 20
54.38994921241904
 40
1.5000000000000142
 50
180.00000000000105
 51
269.99999999999943
  0
LINE
  8
_0-1_作画層１
  6
CONTINUOUS
 62
    7
 10
38.216123778501611
 20
52.889949212419012
 11
41.466123778501611
 21
52.889949212419012
  0
ARC
  8
_0-1_作画層１
  6
CONTINUOUS
 62
    7
 10
41.466123778501597
 20
54.38994921241904
 40
1.5000000000000284
 50
270.00000000000051
 51
359.99999999999892
  0
LINE
  8
_0-1_作画層１
  6
CONTINUOUS
 62
    7
 10
36.716123778501611
 20
54.389949212419012
 11
36.716123778501611
 21
54.889949212419012
  0
ARC
  8
_0-1_作画層１
  6
CONTINUOUS
 62
    7
 10
37.216123778501597
 20
54.889949212419026
 40
0.4999999999999856
 50
89.99999999999838
 51
180.00000000000162
  0
LINE
  8
_0-1_作画層１
  6
CONTINUOUS
 62
    7
 10
37.216123778501611
 20
55.389949212419012
 11
42.466123778501611
 21
55.389949212419012
  0
LINE
  8
_0-1_作画層１
  6
CONTINUOUS
 62
    7
 10
42.966123778501611
 20
54.389949212419012
 11
42.966123778501611
 21
54.889949212419012
  0
ARC
  8
_0-1_作画層１
  6
CONTINUOUS
 62
    7
 10
42.466123778501625
 20
54.889949212419026
 40
0.4999999999999856
 50
359.99999999999835
 51
90.000000000001663
  0
ARC
  8
_0-1_作画層１
  6
CONTINUOUS
 62
    7
 10
36.910488454722085
 20
55.242349212418887
 40
0.5000000000001421
 50
63.412951468164792
 51
89.999999999995111
  0
ARC
  8
_0-1_作画層１
  6
CONTINUOUS
 62
    7
 10
37.259911057735152
 20
55.867949212420228
 40
0.499999999998792
 50
71.5485515769697
 51
90.00000000001792
  0
LINE
  8
_0-1_作画層１
  6
CONTINUOUS
 62
    7
 10
37.418161531463284
 20
56.342245309350844
 11
38.201586025539967
 21
56.080853115487187
  0
ARC
  8
_0-1_作画層１
  6
CONTINUOUS
 62
    7
 10
38.359836499268312
 20
56.555149212419408
 40
0.5000000000003842
 50
251.54855157700476
 51
269.99999999999511
  0
LINE
  8
_0-1_作画層１
  6
CONTINUOUS
 62
    7
 10
37.134266933034539
 20
55.689476926438388
 11
37.547980623968684
 21
55.48242149839966
  0
ARC
  8
_0-1_作画層１
  6
CONTINUOUS
 62
    7
 10
37.771759102281138
 20
55.929549212419161
 40
0.5000000000001423
 50
243.41295146816481
 51
269.99999999999511
  0
LINE
  8
_0-1_作画層１
  6
CONTINUOUS
 62
    7
 10
38.359836499268269
 20
56.055149212419025
 11
41.322411057734996
 21
56.055149212419025
  0
ARC
  8
_0-1_作画層１
  6
CONTINUOUS
 62
    7
 10
41.322411057734939
 20
56.555149212419423
 40
0.5000000000003979
 50
270.00000000000648
 51
288.4514484229947
  0
LINE
  8
_0-1_作画層１
  6
CONTINUOUS
 62
    7
 10
41.480661531463284
 20
56.080853115487187
 11
42.264086025539967
 21
56.342245309350858
  0
ARC
  8
_0-1_作画層１
  6
CONTINUOUS
 62
    7
 10
42.422336499268141
 20
55.867949212419688
 40
0.4999999999993328
 50
89.999999999986969
 51
108.45144842301484
  0
ARC
  8
_0-1_作画層１
  6
CONTINUOUS
 62
    7
 10
42.459259102281138
 20
55.242349212418887
 40
0.5000000000001421
 50
90.000000000004903
 51
116.58704853183521
  0
LINE
  8
_0-1_作画層１
  6
CONTINUOUS
 62
    7
 10
42.235480623968684
 20
55.689476926438388
 11
41.821766933034525
 21
55.48242149839966
  0
LINE
  8
_0-1_作画層１
  6
CONTINUOUS
 62
    7
 10
37.771759102281095
 20
55.429549212419019
 11
41.597988454722113
 21
55.429549212419019
  0
ARC
  8
_0-1_作画層１
  6
CONTINUOUS
 62
    7
 10
41.597988454722099
 20
55.929549212419047
 40
0.5000000000000276
 50
270.00000000000159
 51
296.58704853183809
  0
LINE
  8
_0-1_作画層１
  6
CONTINUOUS
 62
    7
 10
43.991123778501617
 20
60.36794921241902
 11
43.991123778501617
 21
48.36794921241902
  0
LINE
  8
_0-1_作画層１
  6
CONTINUOUS
 62
    7
 10
43.991123778501617
 20
56.36794921241902
 11
36.716123778501611
 21
56.36794921241902
  0
LINE
  8
_0-1_作画層１
  6
CONTINUOUS
 62
    7
 10
43.991123778501617
 20
56.36794921241902
 11
42.422336499268255
 21
56.36794921241902
  0
LINE
  8
_0-1_作画層１
  6
CONTINUOUS
 62
    7
 10
43.991123778501617
 20
55.742349212419029
 11
42.459259102281095
 21
55.742349212419029
  0
LINE
  8
_0-1_作画層１
  6
CONTINUOUS
 62
    7
 10
35.491123778501617
 20
55.742349212419029
 11
36.910488454722127
 21
55.742349212419029
  0
LINE
  8
_0-1_作画層１
  6
CONTINUOUS
 62
    7
 10
35.491123778501617
 20
56.36794921241902
 11
37.259911057734996
 21
56.36794921241902
  0
ARC
  8
_0-1_作画層１
  6
CONTINUOUS
 62
    7
 10
27.06612377850162
 20
54.389951732944795
 40
1.5000000000000142
 50
180.00000000000105
 51
269.99999999999943
  0
LINE
  8
_0-1_作画層１
  6
CONTINUOUS
 62
    7
 10
27.066123778501606
 20
52.889951732944766
 11
30.316123778501606
 21
52.889951732944766
  0
ARC
  8
_0-1_作画層１
  6
CONTINUOUS
 62
    7
 10
30.316123778501591
 20
54.389951732944795
 40
1.5000000000000284
 50
270.00000000000051
 51
359.99999999999892
  0
LINE
  8
_0-1_作画層１
  6
CONTINUOUS
 62
    7
 10
25.566123778501606
 20
54.389951732944766
 11
25.566123778501606
 21
54.889951732944766
  0
ARC
  8
_0-1_作画層１
  6
CONTINUOUS
 62
    7
 10
26.066123778501591
 20
54.88995173294478
 40
0.4999999999999856
 50
89.99999999999838
 51
180.00000000000162
  0
LINE
  8
_0-1_作画層１
  6
CONTINUOUS
 62
    7
 10
26.066123778501606
 20
55.389951732944766
 11
31.316123778501606
 21
55.389951732944766
  0
LINE
  8
_0-1_作画層１
  6
CONTINUOUS
 62
    7
 10
31.816123778501606
 20
54.389951732944766
 11
31.816123778501606
 21
54.889951732944766
  0
ARC
  8
_0-1_作画層１
  6
CONTINUOUS
 62
    7
 10
31.31612377850162
 20
54.88995173294478
 40
0.4999999999999856
 50
359.99999999999835
 51
90.000000000001663
  0
ARC
  8
_0-1_作画層１
  6
CONTINUOUS
 62
    7
 10
25.760488454722079
 20
55.242351732944641
 40
0.5000000000001421
 50
63.412951468164792
 51
89.999999999995111
  0
ARC
  8
_0-1_作画層１
  6
CONTINUOUS
 62
    7
 10
26.109911057735147
 20
55.867951732945983
 40
0.499999999998792
 50
71.5485515769697
 51
90.00000000001792
  0
LINE
  8
_0-1_作画層１
  6
CONTINUOUS
 62
    7
 10
26.268161531463278
 20
56.342247829876598
 11
27.051586025539962
 21
56.080855636012942
  0
ARC
  8
_0-1_作画層１
  6
CONTINUOUS
 62
    7
 10
27.209836499268306
 20
56.555151732945163
 40
0.5000000000003842
 50
251.54855157700476
 51
269.99999999999511
  0
LINE
  8
_0-1_作画層１
  6
CONTINUOUS
 62
    7
 10
25.984266933034533
 20
55.689479446964143
 11
26.397980623968678
 21
55.482424018925414
  0
ARC
  8
_0-1_作画層１
  6
CONTINUOUS
 62
    7
 10
26.621759102281132
 20
55.929551732944915
 40
0.5000000000001423
 50
243.41295146816481
 51
269.99999999999511
  0
LINE
  8
_0-1_作画層１
  6
CONTINUOUS
 62
    7
 10
27.209836499268263
 20
56.055151732944779
 11
30.17241105773499
 21
56.055151732944779
  0
ARC
  8
_0-1_作画層１
  6
CONTINUOUS
 62
    7
 10
30.172411057734934
 20
56.555151732945177
 40
0.5000000000003979
 50
270.00000000000648
 51
288.4514484229947
  0
LINE
  8
_0-1_作画層１
  6
CONTINUOUS
 62
    7
 10
30.330661531463278
 20
56.080855636012942
 11
31.114086025539962
 21
56.342247829876612
  0
ARC
  8
_0-1_作画層１
  6
CONTINUOUS
 62
    7
 10
31.272336499268135
 20
55.867951732945443
 40
0.4999999999993328
 50
89.999999999986969
 51
108.45144842301484
  0
ARC
  8
_0-1_作画層１
  6
CONTINUOUS
 62
    7
 10
31.309259102281132
 20
55.242351732944641
 40
0.5000000000001421
 50
90.000000000004903
 51
116.58704853183521
  0
LINE
  8
_0-1_作画層１
  6
CONTINUOUS
 62
    7
 10
31.085480623968678
 20
55.689479446964143
 11
30.671766933034519
 21
55.482424018925414
  0
LINE
  8
_0-1_作画層１
  6
CONTINUOUS
 62
    7
 10
26.621759102281089
 20
55.429551732944773
 11
30.447988454722108
 21
55.429551732944773
  0
ARC
  8
_0-1_作画層１
  6
CONTINUOUS
 62
    7
 10
30.447988454722093
 20
55.929551732944802
 40
0.5000000000000276
 50
270.00000000000159
 51
296.58704853183809
  0
LINE
  8
_0-1_作画層１
  6
CONTINUOUS
 62
    7
 10
32.841123778501611
 20
56.367951732944775
 11
25.566123778501606
 21
56.367951732944775
  0
LINE
  8
_0-1_作画層１
  6
CONTINUOUS
 62
    7
 10
32.841123778501611
 20
56.367951732944775
 11
31.272336499268249
 21
56.367951732944775
  0
LINE
  8
_0-1_作画層１
  6
CONTINUOUS
 62
    7
 10
32.841123778501611
 20
55.742351732944783
 11
31.309259102281089
 21
55.742351732944783
  0
LINE
  8
_0-1_作画層１
  6
CONTINUOUS
 62
    7
 10
24.341123778501611
 20
55.742351732944783
 11
25.760488454722122
 21
55.742351732944783
  0
LINE
  8
_0-1_作画層１
  6
CONTINUOUS
 62
    7
 10
24.341123778501611
 20
56.367951732944775
 11
26.10991105773499
 21
56.367951732944775
  0
LINE
  8
_0-1_作画層１
  6
CONTINUOUS
 62
    7
 10
8.7411237785016169
 20
60.367951732944775
 11
8.7411237785016169
 21
48.367951732944775
  0
LINE
  8
_0-1_作画層１
  6
CONTINUOUS
 62
    7
 10
8.7411237785016169
 20
48.367951732944775
 11
8.7411237785016169
 21
56.367951732944775
  0
LINE
  8
_0-1_作画層１
  6
CONTINUOUS
 62
    7
 10
0.2411237785016169
 20
60.367951732944775
 11
0.2411237785016169
 21
48.367951732944775
  0
LINE
  8
_0-1_作画層１
  6
CONTINUOUS
 62
    7
 10
0.2411237785016169
 20
48.367951732944775
 11
0.2411237785016169
 21
56.367951732944775
  0
LINE
  8
_0-1_作画層１
  6
CONTINUOUS
 62
    7
 10
-2.4088762214984172
 20
60.367951732944775
 11
-2.4088762214984172
 21
48.367951732944775
  0
LINE
  8
_0-1_作画層１
  6
CONTINUOUS
 62
    7
 10
-2.4088762214984172
 20
48.367951732944775
 11
-2.4088762214984172
 21
56.367951732944775
  0
ARC
  8
_0-1_作画層１
  6
CONTINUOUS
 62
    7
 10
-5.1338762214984115
 20
54.38994921241904
 40
1.5000000000000213
 50
270.0000000000008
 51
359.99999999999892
  0
LINE
  8
_0-1_作画層１
  6
CONTINUOUS
 62
    7
 10
-5.1338762214983831
 20
52.889949212419012
 11
-8.3838762214983831
 21
52.889949212419012
  0
ARC
  8
_0-1_作画層１
  6
CONTINUOUS
 62
    7
 10
-8.3838762214983831
 20
54.38994921241904
 40
1.5000000000000284
 50
180.00000000000105
 51
269.9999999999992
  0
LINE
  8
_0-1_作画層１
  6
CONTINUOUS
 62
    7
 10
-3.6338762214983831
 20
54.389949212419012
 11
-3.6338762214983831
 21
54.889949212419012
  0
ARC
  8
_0-1_作画層１
  6
CONTINUOUS
 62
    7
 10
-4.1338762214983831
 20
54.889949212419026
 40
0.4999999999999926
 50
359.99999999999835
 51
90.00000000000081
  0
LINE
  8
_0-1_作画層１
  6
CONTINUOUS
 62
    7
 10
-4.1338762214983831
 20
55.389949212419012
 11
-9.3838762214983831
 21
55.389949212419012
  0
LINE
  8
_0-1_作画層１
  6
CONTINUOUS
 62
    7
 10
-9.8838762214983831
 20
54.389949212419012
 11
-9.8838762214983831
 21
54.889949212419012
  0
ARC
  8
_0-1_作画層１
  6
CONTINUOUS
 62
    7
 10
-9.3838762214984115
 20
54.889949212419026
 40
0.4999999999999856
 50
89.99999999999919
 51
180.00000000000162
  0
ARC
  8
_0-1_作画層１
  6
CONTINUOUS
 62
    7
 10
-3.8282408977188709
 20
55.242349212418887
 40
0.5000000000001421
 50
90.000000000004903
 51
116.58704853183521
  0
ARC
  8
_0-1_作画層１
  6
CONTINUOUS
 62
    7
 10
-4.1776635007319385
 20
55.867949212420228
 40
0.499999999998792
 50
89.99999999998127
 51
108.45144842302953
  0
LINE
  8
_0-1_作画層１
  6
CONTINUOUS
 62
    7
 10
-4.3359139744600839
 20
56.342245309350844
 11
-5.1193384685367391
 21
56.080853115487187
  0
ARC
  8
_0-1_作画層１
  6
CONTINUOUS
 62
    7
 10
-5.2775889422650835
 20
56.555149212419408
 40
0.5000000000003842
 50
270.00000000000489
 51
288.45144842299521
  0
LINE
  8
_0-1_作画層１
  6
CONTINUOUS
 62
    7
 10
-4.0520193760313248
 20
55.689476926438388
 11
-4.4657330669654698
 21
55.48242149839966
  0
ARC
  8
_0-1_作画層１
  6
CONTINUOUS
 62
    7
 10
-4.6895115452779237
 20
55.929549212419161
 40
0.5000000000001423
 50
270.00000000000489
 51
296.58704853183519
  0
LINE
  8
_0-1_作画層１
  6
CONTINUOUS
 62
    7
 10
-5.277588942265055
 20
56.055149212419025
 11
-8.2401635007317964
 21
56.055149212419025
  0
ARC
  8
_0-1_作画層１
  6
CONTINUOUS
 62
    7
 10
-8.2401635007317395
 20
56.555149212419423
 40
0.5000000000003979
 50
251.5485515770053
 51
269.99999999999346
  0
LINE
  8
_0-1_作画層１
  6
CONTINUOUS
 62
    7
 10
-8.3984139744600839
 20
56.080853115487187
 11
-9.1818384685367391
 21
56.342245309350858
  0
ARC
  8
_0-1_作画層１
  6
CONTINUOUS
 62
    7
 10
-9.3400889422649129
 20
55.867949212419688
 40
0.4999999999993304
 50
71.548551576985943
 51
90.000000000013841
  0
ARC
  8
_0-1_作画層１
  6
CONTINUOUS
 62
    7
 10
-9.3770115452779237
 20
55.242349212418887
 40
0.5000000000001421
 50
63.412951468164792
 51
89.999999999995111
  0
LINE
  8
_0-1_作画層１
  6
CONTINUOUS
 62
    7
 10
-9.1532330669654698
 20
55.689476926438388
 11
-8.7395193760312964
 21
55.48242149839966
  0
LINE
  8
_0-1_作画層１
  6
CONTINUOUS
 62
    7
 10
-4.6895115452778668
 20
55.429549212419019
 11
-8.5157408977188993
 21
55.429549212419019
  0
ARC
  8
_0-1_作画層１
  6
CONTINUOUS
 62
    7
 10
-8.5157408977188993
 20
55.929549212419047
 40
0.5000000000000276
 50
243.41295146816185
 51
269.99999999999835
  0
LINE
  8
_0-1_作画層１
  6
CONTINUOUS
 62
    7
 10
-10.908876221498417
 20
56.36794921241902
 11
-3.6338762214983831
 21
56.36794921241902
  0
LINE
  8
_0-1_作画層１
  6
CONTINUOUS
 62
    7
 10
-10.908876221498417
 20
56.36794921241902
 11
-9.3400889422650266
 21
56.36794921241902
  0
LINE
  8
_0-1_作画層１
  6
CONTINUOUS
 62
    7
 10
-10.908876221498417
 20
55.742349212419029
 11
-9.3770115452778668
 21
55.742349212419029
  0
LINE
  8
_0-1_作画層１
  6
CONTINUOUS
 62
    7
 10
-2.4088762214984172
 20
55.742349212419029
 11
-3.8282408977188993
 21
55.742349212419029
  0
LINE
  8
_0-1_作画層１
  6
CONTINUOUS
 62
    7
 10
-2.4088762214984172
 20
56.36794921241902
 11
-4.1776635007317964
 21
56.36794921241902
  0
ARC
  8
_0-1_作画層１
  6
CONTINUOUS
 62
    7
 10
6.0161237785015942
 20
54.389951732944795
 40
1.5000000000000213
 50
270.0000000000008
 51
359.99999999999892
  0
LINE
  8
_0-1_作画層１
  6
CONTINUOUS
 62
    7
 10
6.0161237785015942
 20
52.889951732944766
 11
2.7661237785015942
 21
52.889951732944766
  0
ARC
  8
_0-1_作画層１
  6
CONTINUOUS
 62
    7
 10
2.7661237785016226
 20
54.389951732944795
 40
1.5000000000000284
 50
180.00000000000105
 51
269.9999999999992
  0
LINE
  8
_0-1_作画層１
  6
CONTINUOUS
 62
    7
 10
7.5161237785015942
 20
54.389951732944766
 11
7.5161237785015942
 21
54.889951732944766
  0
ARC
  8
_0-1_作画層１
  6
CONTINUOUS
 62
    7
 10
7.0161237785016226
 20
54.88995173294478
 40
0.4999999999999926
 50
359.99999999999835
 51
90.00000000000081
  0
LINE
  8
_0-1_作画層１
  6
CONTINUOUS
 62
    7
 10
7.0161237785015942
 20
55.389951732944766
 11
1.7661237785015942
 21
55.389951732944766
  0
LINE
  8
_0-1_作画層１
  6
CONTINUOUS
 62
    7
 10
1.2661237785015942
 20
54.389951732944766
 11
1.2661237785015942
 21
54.889951732944766
  0
ARC
  8
_0-1_作画層１
  6
CONTINUOUS
 62
    7
 10
1.7661237785015942
 20
54.88995173294478
 40
0.4999999999999856
 50
89.99999999999919
 51
180.00000000000162
  0
ARC
  8
_0-1_作画層１
  6
CONTINUOUS
 62
    7
 10
7.3217591022811348
 20
55.242351732944641
 40
0.5000000000001421
 50
90.000000000004903
 51
116.58704853183521
  0
ARC
  8
_0-1_作画層１
  6
CONTINUOUS
 62
    7
 10
6.9723364992680672
 20
55.867951732945983
 40
0.499999999998792
 50
89.99999999998127
 51
108.45144842302953
  0
LINE
  8
_0-1_作画層１
  6
CONTINUOUS
 62
    7
 10
6.8140860255399502
 20
56.342247829876598
 11
6.0306615314632381
 21
56.080855636012942
  0
ARC
  8
_0-1_作画層１
  6
CONTINUOUS
 62
    7
 10
5.8724110577348938
 20
56.555151732945163
 40
0.5000000000003842
 50
270.00000000000489
 51
288.45144842299521
  0
LINE
  8
_0-1_作画層１
  6
CONTINUOUS
 62
    7
 10
7.0979806239686809
 20
55.689479446964143
 11
6.6842669330345359
 21
55.482424018925414
  0
ARC
  8
_0-1_作画層１
  6
CONTINUOUS
 62
    7
 10
6.460488454722082
 20
55.929551732944915
 40
0.5000000000001423
 50
270.00000000000489
 51
296.58704853183519
  0
LINE
  8
_0-1_作画層１
  6
CONTINUOUS
 62
    7
 10
5.8724110577349506
 20
56.055151732944779
 11
2.9098364992682377
 21
56.055151732944779
  0
ARC
  8
_0-1_作画層１
  6
CONTINUOUS
 62
    7
 10
2.9098364992682946
 20
56.555151732945177
 40
0.5000000000003979
 50
251.5485515770053
 51
269.99999999999346
  0
LINE
  8
_0-1_作画層１
  6
CONTINUOUS
 62
    7
 10
2.7515860255399502
 20
56.080855636012942
 11
1.9681615314632381
 21
56.342247829876612
  0
ARC
  8
_0-1_作画層１
  6
CONTINUOUS
 62
    7
 10
1.8099110577350928
 20
55.867951732945443
 40
0.4999999999993304
 50
71.548551576985943
 51
90.000000000013841
  0
ARC
  8
_0-1_作画層１
  6
CONTINUOUS
 62
    7
 10
1.772988454722082
 20
55.242351732944641
 40
0.5000000000001421
 50
63.412951468164792
 51
89.999999999995111
  0
LINE
  8
_0-1_作画層１
  6
CONTINUOUS
 62
    7
 10
1.9967669330345359
 20
55.689479446964143
 11
2.4104806239686809
 21
55.482424018925414
  0
LINE
  8
_0-1_作画層１
  6
CONTINUOUS
 62
    7
 10
6.4604884547221104
 20
55.429551732944773
 11
2.6342591022811064
 21
55.429551732944773
  0
ARC
  8
_0-1_作画層１
  6
CONTINUOUS
 62
    7
 10
2.6342591022811348
 20
55.929551732944802
 40
0.5000000000000276
 50
243.41295146816185
 51
269.99999999999835
  0
LINE
  8
_0-1_作画層１
  6
CONTINUOUS
 62
    7
 10
0.2411237785016169
 20
56.367951732944775
 11
7.5161237785015942
 21
56.367951732944775
  0
LINE
  8
_0-1_作画層１
  6
CONTINUOUS
 62
    7
 10
0.2411237785016169
 20
56.367951732944775
 11
1.8099110577349506
 21
56.367951732944775
  0
LINE
  8
_0-1_作画層１
  6
CONTINUOUS
 62
    7
 10
0.2411237785016169
 20
55.742351732944783
 11
1.7729884547221104
 21
55.742351732944783
  0
LINE
  8
_0-1_作画層１
  6
CONTINUOUS
 62
    7
 10
8.7411237785016169
 20
55.742351732944783
 11
7.321759102281078
 21
55.742351732944783
  0
LINE
  8
_0-1_作画層１
  6
CONTINUOUS
 62
    7
 10
8.7411237785016169
 20
56.367951732944775
 11
6.9723364992682377
 21
56.367951732944775
  0
LINE
  8
_0-1_作画層１
  6
CONTINUOUS
 62
    7
 10
43.991123778501617
 20
60.367947290941984
 11
24.341123778501611
 21
60.367951732944775
  0
LINE
  8
_0-1_作画層１
  6
CONTINUOUS
 62
    7
 10
-10.908876221498389
 20
60.367947290941984
 11
8.7411237785016169
 21
60.367951732944775
  0
INSERT
  2
-009-_D9
  8
_0-9_寸法線層１
 10
-55.25
 20
-38.75
 41
1
 42
1
 50
0
  0
LINE
  8
_0-1_作画層１
  6
CONTINUOUS
 62
    7
 10
11.541123778501628
 20
109.36796899339257
 11
11.541123778501628
 21
123.3679688507097
  0
LINE
  8
_0-1_作画層１
  6
CONTINUOUS
 62
    7
 10
21.541123778501614
 20
109.36796660920766
 11
21.541123778501614
 21
123.36796642049805
  0
LINE
  8
_0-1_作画層１
  6
CONTINUOUS
 62
    7
 10
88.041139901551162
 20
209.99297638436485
 11
86.416139543923435
 21
209.99297638436485
  0
ARC
  8
_0-1_作画層１
  6
CONTINUOUS
 62
    7
 10
86.416139543923492
 20
208.49297638436485
 40
1.5
 50
90.000000000002174
 51
179.9999863396271
  0
LINE
  8
_0-1_作画層１
  6
CONTINUOUS
 62
    7
 10
84.916139543923492
 20
208.49297674199258
 11
84.916139484318876
 21
208.24297678470597
  0
LINE
  8
_0-1_作画層１
  6
CONTINUOUS
 62
    7
 10
88.041139126691064
 20
206.74297638436485
 11
86.416139484318848
 21
206.74297638436485
  0
ARC
  8
_0-1_作画層１
  6
CONTINUOUS
 62
    7
 10
86.416139557235169
 20
208.2429764572812
 40
1.5000000729163292
 50
179.99998749329561
 51
269.99999721480179
  0
LINE
  8
_0-1_作画層１
  6
CONTINUOUS
 62
    7
 10
88.041137129943479
 20
198.36800694465637
 11
88.041140944639324
 21
214.36800690194298
  0
ARC
  8
_0-1_作画層１
  6
CONTINUOUS
 62
    7
 10
88.416139543923492
 20
148.24297638436485
 40
1.5
 50
180.00001366037287
 51
269.99999999999784
  0
LINE
  8
_0-1_作画層１
  6
CONTINUOUS
 62
    7
 10
86.916139543923492
 20
148.24297602673713
 11
86.916139484318876
 21
148.49297598402373
  0
ARC
  8
_0-1_作画層１
  6
CONTINUOUS
 62
    7
 10
88.416139557235169
 20
148.4929763114485
 40
1.5000000729163292
 50
90.000002785198191
 51
180.00001250670445
  0
LINE
  8
_0-1_作画層１
  6
CONTINUOUS
 62
    7
 10
89.416136086855317
 20
193.99297642707825
 11
89.416128487265922
 21
162.11797642707825
  0
LINE
  8
_0-1_作画層１
  6
CONTINUOUS
 62
    7
 10
90.541128487265894
 20
162.11797638436485
 11
89.416128487265922
 21
162.11797638436485
  0
LINE
  8
_0-1_作画層１
  6
CONTINUOUS
 62
    7
 10
90.541136086855289
 20
193.99297638436485
 11
89.416136086855317
 21
193.99297638436485
  0
LINE
  8
_0-1_作画層１
  6
CONTINUOUS
 62
    7
 10
88.041137129943479
 20
198.36800690194298
 11
88.541136653106463
 21
198.36800690194298
  0
LINE
  8
_0-1_作画層１
  6
CONTINUOUS
 62
    7
 10
90.541123778501628
 20
142.36798024177551
 11
90.541136653106378
 21
196.36800642510599
  0
ARC
  8
_0-1_作画層１
  6
CONTINUOUS
 62
    7
 10
88.541136653106491
 20
196.36800690194306
 40
1.9999999999999147
 50
359.99998633962417
 51
90.000000000000838
  0
ARC
  8
_0-1_作画層１
  6
CONTINUOUS
 62
    7
 10
151.21531264280119
 20
148.49063367399299
 40
0.9074999999999704
 50
90
 51
180
  0
LINE
  8
_0-1_作画層１
  6
CONTINUOUS
 62
    7
 10
150.3078126428012
 20
148.49063367399299
 11
150.3078126428012
 21
146.52438367399299
  0
ARC
  8
_0-1_作画層１
  6
CONTINUOUS
 62
    7
 10
151.21531264280122
 20
146.52438367399299
 40
0.9075000000000269
 50
180
 51
269.99999999999829
  0
LINE
  8
_0-1_作画層１
  6
CONTINUOUS
 62
    7
 10
151.21531264280119
 20
149.39813367399296
 11
151.5178126428012
 21
149.39813367399296
  0
ARC
  8
_0-1_作画層１
  6
CONTINUOUS
 62
    7
 10
151.51781264280132
 20
149.09563367399306
 40
0.3024999999998954
 50
359.99999999997846
 51
90.000000000021558
  0
LINE
  8
_0-1_作画層１
  6
CONTINUOUS
 62
    7
 10
151.82031264280121
 20
149.09563367399295
 11
151.82031264280121
 21
145.91938367399297
  0
LINE
  8
_0-1_作画層１
  6
CONTINUOUS
 62
    7
 10
151.21531264280119
 20
145.61688367399296
 11
151.5178126428012
 21
145.61688367399296
  0
ARC
  8
_0-1_作画層１
  6
CONTINUOUS
 62
    7
 10
151.51781264280115
 20
145.91938367399302
 40
0.3025000000000658
 50
270.0000000000108
 51
359.9999999999892
  0
ARC
  8
_0-1_作画層１
  6
CONTINUOUS
 62
    7
 10
152.14677064280247
 20
148.75947430310617
 40
0.3025000000012553
 50
153.41295146822679
 51
179.99999999995694
  0
LINE
  8
_0-1_作画層１
  6
CONTINUOUS
 62
    7
 10
151.84427064280121
 20
148.7594743031064
 11
151.84427064280121
 21
146.44460554487961
  0
ARC
  8
_0-1_作画層１
  6
CONTINUOUS
 62
    7
 10
152.14677064280221
 20
146.44460554487978
 40
0.302500000001001
 50
180.00000000003229
 51
206.58704853178523
  0
LINE
  8
_0-1_作画層１
  6
CONTINUOUS
 62
    7
 10
88.041133255635714
 20
182.11797638436485
 11
93.041133255635714
 21
182.11797638436485
  0
LINE
  8
_0-1_作画層１
  6
CONTINUOUS
 62
    7
 10
88.041131467497053
 20
174.61797638436485
 11
93.041133255635714
 21
174.61797638436485
  0
LINE
  8
_0-1_作画層１
  6
CONTINUOUS
 62
    7
 10
88.041133255635714
 20
183.11797638436485
 11
93.041133255635714
 21
183.11797638436485
  0
LINE
  8
_0-1_作画層１
  6
CONTINUOUS
 62
    7
 10
88.041131467497053
 20
173.61797638436485
 11
93.041133255635714
 21
173.61797638436485
  0
LINE
  8
_0-1_作画層１
  6
CONTINUOUS
 62
    7
 10
88.041131467497053
 20
174.61797642707825
 11
88.041131229078559
 21
173.61797642707825
  0
LINE
  8
_0-1_作画層１
  6
CONTINUOUS
 62
    7
 10
88.041133255635742
 20
182.11797642707825
 11
88.041133494054236
 21
183.11797642707825
  0
LINE
  8
_0-1_作画層１
  6
CONTINUOUS
 62
    7
 10
93.041131229078559
 20
173.61797642707825
 11
93.041123778501628
 21
142.36798019906212
  0
LINE
  8
_0-1_作画層１
  6
CONTINUOUS
 62
    7
 10
93.041133255635714
 20
182.11797642707825
 11
93.041131467497053
 21
174.61797642707825
  0
LINE
  8
_0-1_作画層１
  6
CONTINUOUS
 62
    7
 10
93.041133494054208
 20
183.11797642707825
 11
93.041140944639324
 21
214.36800690194298
  0
LINE
  8
_0-1_作画層１
  6
CONTINUOUS
 62
    7
 10
85.416136086855317
 20
193.99297642707825
 11
85.416128487265922
 21
162.11797642707825
  0
LINE
  8
_0-1_作画層１
  6
CONTINUOUS
 62
    7
 10
85.416136086855317
 20
193.99297638436485
 11
84.791136086855289
 21
193.99297638436485
  0
LINE
  8
_0-1_作画層１
  6
CONTINUOUS
 62
    7
 10
84.791136086855317
 20
193.99297642707825
 11
84.791128487265922
 21
162.11797642707825
  0
LINE
  8
_0-1_作画層１
  6
CONTINUOUS
 62
    7
 10
85.416128487265922
 20
162.11797638436485
 11
84.791128487265894
 21
162.11797638436485
  0
LINE
  8
_0-1_作画層１
  6
CONTINUOUS
 62
    7
 10
85.416128785289033
 20
163.36797638436485
 11
89.416128785289033
 21
163.36797638436485
  0
LINE
  8
_0-1_作画層１
  6
CONTINUOUS
 62
    7
 10
85.416130871450832
 20
172.11797638436485
 11
89.416135788832207
 21
172.11797638436485
  0
LINE
  8
_0-1_作画層１
  6
CONTINUOUS
 62
    7
 10
85.416129232323698
 20
165.24297638436485
 11
89.416135788832207
 21
165.24297638436485
  0
LINE
  8
_0-1_作画層１
  6
CONTINUOUS
 62
    7
 10
85.416135788832207
 20
192.74297638436485
 11
89.416135788832207
 21
192.74297638436485
  0
LINE
  8
_0-1_作画層１
  6
CONTINUOUS
 62
    7
 10
85.416134149705073
 20
185.86797638436485
 11
89.416135788832207
 21
185.86797638436485
  0
LINE
  8
_0-1_作画層１
  6
CONTINUOUS
 62
    7
 10
85.416132510577967
 20
178.99297638436485
 11
89.416135788832207
 21
178.99297638436485
  0
LINE
  8
_0-1_作画層１
  6
CONTINUOUS
 62
    7
 10
32.16612382121501
 20
110.49296407601116
 11
0.2911238212149669
 21
110.49297167560059
  0
LINE
  8
_0-1_作画層１
  6
CONTINUOUS
 62
    7
 10
0.2911237785015714
 20
109.36797167560061
 11
0.2911237785015714
 21
110.49297167560059
  0
LINE
  8
_0-1_作画層１
  6
CONTINUOUS
 62
    7
 10
32.166123778501614
 20
109.36796407601119
 11
32.166123778501614
 21
110.49296407601116
  0
LINE
  8
_0-1_作画層１
  6
CONTINUOUS
 62
    7
 10
32.16612382121501
 20
114.49296407601116
 11
0.2911238212149669
 21
114.49297167560059
  0
LINE
  8
_0-1_作画層１
  6
CONTINUOUS
 62
    7
 10
32.166123778501614
 20
114.49296407601116
 11
32.166123778501614
 21
115.11796407601119
  0
LINE
  8
_0-1_作画層１
  6
CONTINUOUS
 62
    7
 10
32.16612382121501
 20
115.11796407601116
 11
0.2911238212149669
 21
115.11797167560059
  0
LINE
  8
_0-1_作画層１
  6
CONTINUOUS
 62
    7
 10
0.2911237785015714
 20
114.49297167560059
 11
0.2911237785015714
 21
115.11797167560059
  0
LINE
  8
_0-1_作画層１
  6
CONTINUOUS
 62
    7
 10
1.5411237785015715
 20
114.49297137757745
 11
1.5411237785015715
 21
110.49297137757748
  0
LINE
  8
_0-1_作画層１
  6
CONTINUOUS
 62
    7
 10
10.291123778501571
 20
114.49296929141568
 11
10.291123778501571
 21
110.4929643740343
  0
LINE
  8
_0-1_作画層１
  6
CONTINUOUS
 62
    7
 10
3.4161237785015715
 20
114.49297093054278
 11
3.4161237785015715
 21
110.4929643740343
  0
LINE
  8
_0-1_作画層１
  6
CONTINUOUS
 62
    7
 10
30.916123778501614
 20
114.49296437403427
 11
30.916123778501614
 21
110.49296437403427
  0
LINE
  8
_0-1_作画層１
  6
CONTINUOUS
 62
    7
 10
24.041123778501614
 20
114.49296601316141
 11
24.041123778501614
 21
110.4929643740343
  0
LINE
  8
_0-1_作画層１
  6
CONTINUOUS
 62
    7
 10
17.166123778501571
 20
114.49296765228851
 11
17.166123778501571
 21
110.4929643740343
  0
LINE
  8
_0-1_作画層１
  6
CONTINUOUS
 62
    7
 10
90.541124821581604
 20
146.74297638436485
 11
88.416139543923435
 21
146.74297638436485
  0
LINE
  8
_0-1_作画層１
  6
CONTINUOUS
 62
    7
 10
90.541125596441702
 20
149.99297638436485
 11
88.416139484318848
 21
149.99297638436485
  0
ARC
  8
_0-1_作画層１
  6
CONTINUOUS
 62
    7
 10
43.9161237785016
 20
111.49296061894304
 40
1.5000000000000142
 50
90.000013660373455
 51
179.99999999999892
  0
LINE
  8
_0-1_作画層１
  6
CONTINUOUS
 62
    7
 10
43.916123420873859
 20
112.99296061894302
 11
44.166123378160464
 21
112.99296067854763
  0
ARC
  8
_0-1_作画層１
  6
CONTINUOUS
 62
    7
 10
44.16612370558525
 20
111.49296060563134
 40
1.5000000729163292
 50
0.0000027851981984
 51
90.00001250670492
  0
LINE
  8
_0-1_作画層１
  6
CONTINUOUS
 62
    7
 10
42.416123778501586
 20
109.3679753412849
 11
42.416123778501586
 21
111.49296061894307
  0
LINE
  8
_0-1_作画層１
  6
CONTINUOUS
 62
    7
 10
45.666123778501586
 20
109.36797456642481
 11
45.666123778501586
 21
111.49296067854766
  0
LINE
  8
_0-1_作画層１
  6
CONTINUOUS
 62
    7
 10
-8.4588762214983717
 20
109.36797376176236
 11
-8.4588762214983717
 21
114.86797638436485
  0
ARC
  8
_0-1_作画層１
  6
CONTINUOUS
 62
    7
 10
-9.4588762214983717
 20
114.86797638436485
 40
1
 50
0
 51
90.00000000000081
  0
LINE
  8
_0-1_作画層１
  6
CONTINUOUS
 62
    7
 10
-13.458876221498372
 20
109.36797495385483
 11
-13.458876221498372
 21
112.36797638436485
  0
ARC
  8
_0-1_作画層１
  6
CONTINUOUS
 62
    7
 10
-14.458876221498372
 20
112.36797638436485
 40
1
 50
0
 51
90.00000000000081
  0
LINE
  8
_0-1_作画層１
  6
CONTINUOUS
 62
    7
 10
-9.4588762214983717
 20
115.86797638436485
 11
-14.958876221498372
 21
115.86797638436485
  0
ARC
  8
_0-1_作画層１
  6
CONTINUOUS
 62
    7
 10
-14.9588762214984
 20
114.86797638436485
 40
1
 50
89.99999999999919
 51
180
  0
LINE
  8
_0-1_作画層１
  6
CONTINUOUS
 62
    7
 10
-14.458876221498372
 20
113.36797638436485
 11
-14.958876221498372
 21
113.36797638436485
  0
LINE
  8
_0-1_作画層１
  6
CONTINUOUS
 62
    7
 10
-15.958876221498372
 20
114.86797638436485
 11
-15.958876221498372
 21
114.36797638436485
  0
ARC
  8
_0-1_作画層１
  6
CONTINUOUS
 62
    7
 10
-14.9588762214984
 20
114.36797638436485
 40
1
 50
180
 51
270.0000000000008
  0
LINE
  8
_0-1_作画層１
  6
CONTINUOUS
 62
    7
 10
-5.9588762214983717
 20
109.36797376176236
 11
-5.9588762214983717
 21
114.86797638436485
  0
ARC
  8
_0-1_作画層１
  6
CONTINUOUS
 62
    7
 10
-6.9588762214983717
 20
114.86797638436485
 40
1
 50
0
 51
90.00000000000081
  0
LINE
  8
_0-1_作画層１
  6
CONTINUOUS
 62
    7
 10
-6.9588762214983717
 20
115.86797638436485
 11
-12.458876221498372
 21
115.86797638436485
  0
LINE
  8
_0-1_作画層１
  6
CONTINUOUS
 62
    7
 10
88.041126401104123
 20
198.36797638436485
 11
82.541123778501628
 21
198.36797638436485
  0
ARC
  8
_0-1_作画層１
  6
CONTINUOUS
 62
    7
 10
82.541123778501657
 20
199.36797638436488
 40
1.0000000000000284
 50
180.00000000000162
 51
269.99999999999835
  0
LINE
  8
_0-1_作画層１
  6
CONTINUOUS
 62
    7
 10
88.041125209011653
 20
203.36797638436488
 11
85.041123778501628
 21
203.36797638436488
  0
ARC
  8
_0-1_作画層１
  6
CONTINUOUS
 62
    7
 10
85.041123778501657
 20
204.36797638436494
 40
1.0000000000000284
 50
180.0000000000033
 51
269.99999999999835
  0
LINE
  8
_0-1_作画層１
  6
CONTINUOUS
 62
    7
 10
81.541123778501628
 20
199.36797638436485
 11
81.541123778501628
 21
204.86797638436488
  0
ARC
  8
_0-1_作画層１
  6
CONTINUOUS
 62
    7
 10
82.541123778501657
 20
204.86797638436482
 40
1.0000000000000284
 50
90.000000000001634
 51
179.99999999999676
  0
LINE
  8
_0-1_作画層１
  6
CONTINUOUS
 62
    7
 10
84.041123778501628
 20
204.36797638436488
 11
84.041123778501628
 21
204.86797638436488
  0
LINE
  8
_0-1_作画層１
  6
CONTINUOUS
 62
    7
 10
82.541123778501628
 20
205.86797638436488
 11
83.041123778501628
 21
205.86797638436488
  0
ARC
  8
_0-1_作画層１
  6
CONTINUOUS
 62
    7
 10
83.0411237785016
 20
204.86797638436482
 40
1.0000000000000284
 50
0.0000000000032569
 51
89.99999999999838
  0
LINE
  8
_0-1_作画層１
  6
DASHED
 62
    7
 10
-0.245218842347981
 20
207.12882347603966
 11
-0.2295499733294263
 21
207.13627739449669
  0
LINE
  8
_0-1_作画層１
  6
CONTINUOUS
 62
    7
 10
11.591378600278972
 20
183.31772156258751
 11
15.376190693060039
 21
181.13255997201134
  0
LINE
  8
_0-1_作画層１
  6
CONTINUOUS
 62
    7
 10
11.591378600278972
 20
183.31772156258751
 11
13.776540190855144
 21
179.53291817208458
  0
LINE
  8
_0-1_作画層１
  6
CONTINUOUS
 62
    7
 10
13.776540190855144
 20
179.53291817208458
 11
15.376190693060039
 21
181.13255997201134
  0
LINE
  8
_0-1_作画層１
  6
CONTINUOUS
 62
    7
 10
15.341123778501668
 20
181.09749324822096
 11
15.341123778501668
 21
181.15280585817808
  0
LINE
  8
_0-1_作画層１
  6
CONTINUOUS
 62
    7
 10
15.241123778501674
 20
180.99749379223215
 11
15.241123778501674
 21
181.21054086686567
  0
LINE
  8
_0-1_作画層１
  6
CONTINUOUS
 62
    7
 10
15.141123778501679
 20
180.89749433624337
 11
15.141123778501679
 21
181.26827587555326
  0
LINE
  8
_0-1_作画層１
  6
CONTINUOUS
 62
    7
 10
15.041123778501685
 20
180.79749488025459
 11
15.041123778501685
 21
181.32601088424084
  0
LINE
  8
_0-1_作画層１
  6
CONTINUOUS
 62
    7
 10
14.941123778501691
 20
180.69749542426581
 11
14.941123778501691
 21
181.38374589292843
  0
LINE
  8
_0-1_作画層１
  6
CONTINUOUS
 62
    7
 10
14.841123778501697
 20
180.59749596827703
 11
14.841123778501697
 21
181.44148090161602
  0
LINE
  8
_0-1_作画層１
  6
CONTINUOUS
 62
    7
 10
14.741123778501702
 20
180.49749651228825
 11
14.741123778501702
 21
181.4992159103036
  0
LINE
  8
_0-1_作画層１
  6
CONTINUOUS
 62
    7
 10
14.641123778501708
 20
180.39749705629947
 11
14.641123778501708
 21
181.55695091899119
  0
LINE
  8
_0-1_作画層１
  6
CONTINUOUS
 62
    7
 10
14.541123778501714
 20
180.29749760031069
 11
14.541123778501714
 21
181.61468592767878
  0
LINE
  8
_0-1_作画層１
  6
CONTINUOUS
 62
    7
 10
14.441123778501719
 20
180.19749814432191
 11
14.441123778501719
 21
181.67242093636636
  0
LINE
  8
_0-1_作画層１
  6
CONTINUOUS
 62
    7
 10
14.341123778501725
 20
180.09749868833313
 11
14.341123778501725
 21
181.73015594505395
  0
LINE
  8
_0-1_作画層１
  6
CONTINUOUS
 62
    7
 10
14.241123778501731
 20
179.99749923234435
 11
14.241123778501731
 21
181.78789095374154
  0
LINE
  8
_0-1_作画層１
  6
CONTINUOUS
 62
    7
 10
14.141123778501736
 20
179.89749977635557
 11
14.141123778501736
 21
181.84562596242912
  0
LINE
  8
_0-1_作画層１
  6
CONTINUOUS
 62
    7
 10
14.041123778501742
 20
179.79750032036679
 11
14.041123778501742
 21
181.90336097111674
  0
LINE
  8
_0-1_作画層１
  6
CONTINUOUS
 62
    7
 10
13.941123778501748
 20
179.69750086437801
 11
13.941123778501748
 21
181.96109597980433
  0
LINE
  8
_0-1_作画層１
  6
CONTINUOUS
 62
    7
 10
13.841123778501753
 20
179.59750140838923
 11
13.841123778501753
 21
182.01883098849191
  0
LINE
  8
_0-1_作画層１
  6
CONTINUOUS
 62
    7
 10
13.741123778501759
 20
179.59426107602931
 11
13.741123778501759
 21
182.0765659971795
  0
LINE
  8
_0-1_作画層１
  6
CONTINUOUS
 62
    7
 10
13.641123778501765
 20
179.76746581323619
 11
13.641123778501765
 21
182.13430100586709
  0
LINE
  8
_0-1_作画層１
  6
CONTINUOUS
 62
    7
 10
13.54112377850177
 20
179.94067055044303
 11
13.54112377850177
 21
182.19203601455467
  0
LINE
  8
_0-1_作画層１
  6
CONTINUOUS
 62
    7
 10
13.441123778501776
 20
180.1138752876499
 11
13.441123778501776
 21
182.24977102324226
  0
LINE
  8
_0-1_作画層１
  6
CONTINUOUS
 62
    7
 10
13.341123778501782
 20
180.28708002485678
 11
13.341123778501782
 21
182.30750603192985
  0
LINE
  8
_0-1_作画層１
  6
CONTINUOUS
 62
    7
 10
13.241123778501787
 20
180.46028476206362
 11
13.241123778501787
 21
182.36524104061743
  0
LINE
  8
_0-1_作画層１
  6
CONTINUOUS
 62
    7
 10
13.141123778501793
 20
180.63348949927047
 11
13.141123778501793
 21
182.42297604930502
  0
LINE
  8
_0-1_作画層１
  6
CONTINUOUS
 62
    7
 10
13.041123778501799
 20
180.80669423647734
 11
13.041123778501799
 21
182.48071105799261
  0
LINE
  8
_0-1_作画層１
  6
CONTINUOUS
 62
    7
 10
12.941123778501805
 20
180.97989897368421
 11
12.941123778501805
 21
182.53844606668019
  0
LINE
  8
_0-1_作画層１
  6
CONTINUOUS
 62
    7
 10
12.84112377850181
 20
181.15310371089106
 11
12.84112377850181
 21
182.59618107536778
  0
LINE
  8
_0-1_作画層１
  6
CONTINUOUS
 62
    7
 10
12.741123778501816
 20
181.32630844809793
 11
12.741123778501816
 21
182.65391608405537
  0
LINE
  8
_0-1_作画層１
  6
CONTINUOUS
 62
    7
 10
12.641123778501822
 20
181.49951318530481
 11
12.641123778501822
 21
182.71165109274295
  0
LINE
  8
_0-1_作画層１
  6
CONTINUOUS
 62
    7
 10
12.541123778501827
 20
181.67271792251165
 11
12.541123778501827
 21
182.76938610143054
  0
LINE
  8
_0-1_作画層１
  6
CONTINUOUS
 62
    7
 10
12.441123778501833
 20
181.8459226597185
 11
12.441123778501833
 21
182.82712111011813
  0
LINE
  8
_0-1_作画層１
  6
CONTINUOUS
 62
    7
 10
12.341123778501839
 20
182.01912739692537
 11
12.341123778501839
 21
182.88485611880571
  0
LINE
  8
_0-1_作画層１
  6
CONTINUOUS
 62
    7
 10
12.241123778501844
 20
182.19233213413224
 11
12.241123778501844
 21
182.9425911274933
  0
LINE
  8
_0-1_作画層１
  6
CONTINUOUS
 62
    7
 10
12.14112377850185
 20
182.36553687133909
 11
12.14112377850185
 21
183.00032613618089
  0
LINE
  8
_0-1_作画層１
  6
CONTINUOUS
 62
    7
 10
12.041123778501856
 20
182.53874160854593
 11
12.041123778501856
 21
183.05806114486847
  0
LINE
  8
_0-1_作画層１
  6
CONTINUOUS
 62
    7
 10
11.941123778501861
 20
182.71194634575281
 11
11.941123778501861
 21
183.11579615355606
  0
LINE
  8
_0-1_作画層１
  6
CONTINUOUS
 62
    7
 10
11.841123778501867
 20
182.88515108295968
 11
11.841123778501867
 21
183.17353116224368
  0
LINE
  8
_0-1_作画層１
  6
CONTINUOUS
 62
    7
 10
11.741123778501873
 20
183.05835582016653
 11
11.741123778501873
 21
183.23126617093126
  0
LINE
  8
_0-1_作画層１
  6
CONTINUOUS
 62
    7
 10
11.641123778501878
 20
183.23156055737337
 11
11.641123778501878
 21
183.28900117961885
  0
LINE
  8
_0-1_作画層１
  6
CONTINUOUS
 62
    7
 10
152.04113194433776
 20
144.61798024177551
 11
152.04113563982438
 21
160.11798024177551
  0
LINE
  8
_0-1_作画層１
  6
CONTINUOUS
 62
    7
 10
99.041131407896188
 20
142.36798024177551
 11
99.041149050870843
 21
216.36800694465637
  0
LINE
  8
_0-1_作画層１
  6
CONTINUOUS
 62
    7
 10
99.041148037586822
 20
212.11798401375938
 11
150.04114803758679
 21
212.11798401375938
  0
LINE
  8
_0-1_作画層１
  6
CONTINUOUS
 62
    7
 10
99.041131944337792
 20
144.61798019906212
 11
152.04113194433779
 21
144.61798019906212
  0
LINE
  8
_0-1_作画層１
  6
CONTINUOUS
 62
    7
 10
117.04113194433776
 20
144.61798024177551
 11
117.04114803758679
 21
212.11798405647278
  0
LINE
  8
_0-1_作画層１
  6
CONTINUOUS
 62
    7
 10
-5.958853333314778
 20
211.36796875497032
 11
-2.9588590553606764
 21
211.36796875497032
  0
LINE
  8
_0-1_作画層１
  6
CONTINUOUS
 62
    7
 10
-2.9588590553606764
 20
210.36796684762169
 11
-2.9588590553606764
 21
211.36796875497032
  0
LINE
  8
_0-1_作画層１
  6
CONTINUOUS
 62
    7
 10
-5.958853333314778
 20
210.36796684762169
 11
-5.958853333314778
 21
211.36796875497032
  0
LINE
  8
_0-1_作画層１
  6
CONTINUOUS
 62
    7
 10
-0.9588552406634107
 20
210.36796684762169
 11
-0.9588552406634107
 21
211.36796875497032
  0
LINE
  8
_0-1_作画層１
  6
CONTINUOUS
 62
    7
 10
-0.9588552406634107
 20
210.36796684762169
 11
4.04114189831364
 21
210.36796684762169
  0
LINE
  8
_0-1_作画層１
  6
CONTINUOUS
 62
    7
 10
4.04114189831364
 20
210.36796684762169
 11
4.04114189831364
 21
211.36796875497032
  0
LINE
  8
_0-1_作画層１
  6
CONTINUOUS
 62
    7
 10
-0.9588552406634107
 20
211.36796875497032
 11
4.04114189831364
 21
211.36796875497032
  0
LINE
  8
_0-1_作画層１
  6
CONTINUOUS
 62
    7
 10
3.9148792335187181
 20
210.36796684762169
 11
4.04114189831364
 21
210.49422760506798
  0
LINE
  8
_0-1_作画層１
  6
CONTINUOUS
 62
    7
 10
3.6320318290387377
 20
210.36796684762169
 11
4.04114189831364
 21
210.77707596322227
  0
LINE
  8
_0-1_作画層１
  6
CONTINUOUS
 62
    7
 10
3.3491930076276049
 20
210.36796684762169
 11
4.04114189831364
 21
211.05990524789024
  0
LINE
  8
_0-1_作画層１
  6
CONTINUOUS
 62
    7
 10
3.066354186216472
 20
210.36796684762169
 11
4.04114189831364
 21
211.34275360604454
  0
LINE
  8
_0-1_作画層１
  6
CONTINUOUS
 62
    7
 10
2.7835067817364916
 20
210.36796684762169
 11
3.7835086890851244
 21
211.36796875497032
  0
LINE
  8
_0-1_作画層１
  6
CONTINUOUS
 62
    7
 10
2.5006593772565111
 20
210.36796684762169
 11
3.5006603309308275
 21
211.36796875497032
  0
LINE
  8
_0-1_作画層１
  6
CONTINUOUS
 62
    7
 10
2.2178119727765306
 20
210.36796684762169
 11
3.217812926450847
 21
211.36796875497032
  0
LINE
  8
_0-1_作画層１
  6
CONTINUOUS
 62
    7
 10
1.9349731513653978
 20
210.36796684762169
 11
2.9349741050397142
 21
211.36796875497032
  0
LINE
  8
_0-1_作画層１
  6
CONTINUOUS
 62
    7
 10
1.6521257468854174
 20
210.36796684762169
 11
2.6521267005597338
 21
211.36796875497032
  0
LINE
  8
_0-1_作画層１
  6
CONTINUOUS
 62
    7
 10
1.3692869254742845
 20
210.36796684762169
 11
2.369287879148601
 21
211.36796875497032
  0
LINE
  8
_0-1_作画層１
  6
CONTINUOUS
 62
    7
 10
1.0864385673199877
 20
210.36796684762169
 11
2.0864404746686205
 21
211.36796875497032
  0
LINE
  8
_0-1_作画層１
  6
CONTINUOUS
 62
    7
 10
0.8035911628400072
 20
210.36796684762169
 11
1.80359307018864
 21
211.36796875497032
  0
LINE
  8
_0-1_作画層１
  6
CONTINUOUS
 62
    7
 10
0.5207437583600267
 20
210.36796684762169
 11
1.5207447120343431
 21
211.36796875497032
  0
LINE
  8
_0-1_作画層１
  6
CONTINUOUS
 62
    7
 10
0.2379049369488939
 20
210.36796684762169
 11
1.2379058906232103
 21
211.36796875497032
  0
LINE
  8
_0-1_作画層１
  6
CONTINUOUS
 62
    7
 10
-0.0449338844622388
 20
210.36796684762169
 11
0.9550670692120775
 21
211.36796875497032
  0
LINE
  8
_0-1_作画層１
  6
CONTINUOUS
 62
    7
 10
-0.3277822426165357
 20
210.36796684762169
 11
0.672219664732097
 21
211.36796875497032
  0
LINE
  8
_0-1_作画層１
  6
CONTINUOUS
 62
    7
 10
-0.6106286934221998
 20
210.36796684762169
 11
0.3893732139264329
 21
211.36796875497032
  0
LINE
  8
_0-1_作画層１
  6
CONTINUOUS
 62
    7
 10
-0.8934770515764967
 20
210.36796684762169
 11
0.1065248557721361
 21
211.36796875497032
  0
LINE
  8
_0-1_作画層１
  6
CONTINUOUS
 62
    7
 10
-0.9588552406634107
 20
210.58542557259727
 11
-0.1763139656389967
 21
211.36796875497032
  0
LINE
  8
_0-1_作画層１
  6
CONTINUOUS
 62
    7
 10
-0.9588552406634107
 20
210.86827393075157
 11
-0.4591623237932935
 21
211.36796875497032
  0
LINE
  8
_0-1_作画層１
  6
CONTINUOUS
 62
    7
 10
-0.9588552406634107
 20
211.15112228890587
 11
-0.7420011452044263
 21
211.36796875497032
  0
LINE
  8
_0-1_作画層１
  6
CONTINUOUS
 62
    7
 10
-3.1562219551409498
 20
210.36796684762169
 11
-2.9588590553606764
 21
210.56532211800743
  0
LINE
  8
_0-1_作画層１
  6
CONTINUOUS
 62
    7
 10
-3.4390703132952467
 20
210.36796684762169
 11
-2.9588590553606764
 21
210.84818573495079
  0
LINE
  8
_0-1_作画層１
  6
CONTINUOUS
 62
    7
 10
-3.7219167641009108
 20
210.36796684762169
 11
-2.9588590553606764
 21
211.13101883431602
  0
LINE
  8
_0-1_作画層１
  6
CONTINUOUS
 62
    7
 10
-4.0047651222552076
 20
210.36796684762169
 11
-3.0047632149065748
 21
211.36796875497032
  0
LINE
  8
_0-1_作画層１
  6
CONTINUOUS
 62
    7
 10
-4.2876039436663405
 20
210.36796684762169
 11
-3.2876020363177076
 21
211.36796875497032
  0
LINE
  8
_0-1_作画層１
  6
CONTINUOUS
 62
    7
 10
-4.5704427650774733
 20
210.36796684762169
 11
-3.5704408577288405
 21
211.36796875497032
  0
LINE
  8
_0-1_作画層１
  6
CONTINUOUS
 62
    7
 10
-4.8532911232317701
 20
210.36796684762169
 11
-3.8532892158831373
 21
211.36796875497032
  0
LINE
  8
_0-1_作画層１
  6
CONTINUOUS
 62
    7
 10
-5.1361375740374342
 20
210.36796684762169
 11
-4.1361356666888014
 21
211.36796875497032
  0
LINE
  8
_0-1_作画層１
  6
CONTINUOUS
 62
    7
 10
-5.4189859321917311
 20
210.36796684762169
 11
-4.4189840248430983
 21
211.36796875497032
  0
LINE
  8
_0-1_作画層１
  6
CONTINUOUS
 62
    7
 10
-5.7018247536028639
 20
210.36796684762169
 11
-4.7018228462542311
 21
211.36796875497032
  0
LINE
  8
_0-1_作画層１
  6
CONTINUOUS
 62
    7
 10
-5.958853333314778
 20
210.39377518197227
 11
-4.9846616676653639
 21
211.36796875497032
  0
LINE
  8
_0-1_作画層１
  6
CONTINUOUS
 62
    7
 10
-5.958853333314778
 20
210.67662354012657
 11
-5.267517655214192
 21
211.36796875497032
  0
LINE
  8
_0-1_作画層１
  6
CONTINUOUS
 62
    7
 10
-5.958853333314778
 20
210.95947189828087
 11
-5.5503564766253248
 21
211.36796875497032
  0
LINE
  8
_0-1_作画層１
  6
CONTINUOUS
 62
    7
 10
-5.958853333314778
 20
211.24232025643516
 11
-5.8332048347796217
 21
211.36796875497032
  0
LINE
  8
_0-1_作画層１
  6
CONTINUOUS
 62
    7
 10
-5.958853333314778
 20
210.36796684762169
 11
-2.9588590553606764
 21
210.36796684762169
  0
LINE
  8
_0-1_作画層１
  6
CONTINUOUS
 62
    7
 10
-6.4824148109759108
 20
201.38505859872032
 11
-6.4759241035784498
 21
201.39155121346641
  0
LINE
  8
_0-1_作画層１
  6
CONTINUOUS
 62
    7
 10
-6.6561399391497389
 20
201.49418182870079
 11
-6.5850473335589186
 21
201.56527443429161
  0
LINE
  8
_0-1_作画層１
  6
CONTINUOUS
 62
    7
 10
-9.5607648781145826
 20
204.46986504098106
 11
-10.267874329408528
 21
203.76275368233848
  0
LINE
  8
_0-1_作画層１
  6
CONTINUOUS
 62
    7
 10
-6.8298631599749342
 20
201.60330505868126
 11
-6.6941705635393873
 21
201.73899956246544
  0
LINE
  8
_0-1_作画層１
  6
CONTINUOUS
 62
    7
 10
-7.0035882881487623
 20
201.7124206592672
 11
-6.803284256776692
 21
201.91272278329063
  0
LINE
  8
_0-1_作画層１
  6
CONTINUOUS
 62
    7
 10
-7.1773115089739576
 20
201.8215343525045
 11
-6.9124074867571608
 21
202.0864383747213
  0
LINE
  8
_0-1_作画層１
  6
CONTINUOUS
 62
    7
 10
-7.3510366371477858
 20
201.93065758248497
 11
-7.0215326240862623
 21
202.26017113228966
  0
LINE
  8
_0-1_作画層１
  6
CONTINUOUS
 62
    7
 10
-7.5247598579729811
 20
202.03977318307091
 11
-7.130646317323567
 21
202.43388672372032
  0
LINE
  8
_0-1_作画層１
  6
CONTINUOUS
 62
    7
 10
-7.6984945228899733
 20
202.14889641305138
 11
-7.2397695473040358
 21
202.60761948128868
  0
LINE
  8
_0-1_作画層１
  6
CONTINUOUS
 62
    7
 10
-7.8722177437151686
 20
202.25801010628868
 11
-7.3488927772845045
 21
202.78133507271934
  0
LINE
  8
_0-1_作画層１
  6
CONTINUOUS
 62
    7
 10
-8.0459333351458326
 20
202.36713333626915
 11
-7.458008377870442
 21
202.95505066415001
  0
LINE
  8
_0-1_作画層１
  6
CONTINUOUS
 62
    7
 10
-8.219666092714192
 20
202.47624893685509
 11
-7.5671316078509108
 21
203.12878342171837
  0
LINE
  8
_0-1_作画層１
  6
CONTINUOUS
 62
    7
 10
-6.4649702003802076
 20
201.37410469552208
 11
-10.267874329408528
 21
203.76275368233848
  0
LINE
  8
_0-1_作画層１
  6
CONTINUOUS
 62
    7
 10
-8.3933912208880201
 20
202.58537216683555
 11
-7.6762548378313795
 21
203.30251617928673
  0
LINE
  8
_0-1_作画層１
  6
CONTINUOUS
 62
    7
 10
-8.5671239784563795
 20
202.69448586007286
 11
-7.7853780678118483
 21
203.47623177071739
  0
LINE
  8
_0-1_作画層１
  6
CONTINUOUS
 62
    7
 10
-8.7408471992815748
 20
202.80360909005333
 11
-7.894491761049153
 21
203.64996452828575
  0
LINE
  8
_0-1_作画層１
  6
CONTINUOUS
 62
    7
 10
-8.9145627907122389
 20
202.91272469063927
 11
-8.0036149910296217
 21
203.82368011971641
  0
LINE
  8
_0-1_作画層１
  6
CONTINUOUS
 62
    7
 10
-9.0882955482805983
 20
203.02183838387657
 11
-8.1127305916155592
 21
203.99739571114708
  0
LINE
  8
_0-1_作画層１
  6
CONTINUOUS
 62
    7
 10
-9.2620206764544264
 20
203.1309711506002
 11
-8.221853821596028
 21
204.17112846871544
  0
LINE
  8
_0-1_作画層１
  6
CONTINUOUS
 62
    7
 10
-9.4357438972796217
 20
203.24008484383751
 11
-8.3309770515764967
 21
204.34486313363243
  0
LINE
  8
_0-1_作画層１
  6
CONTINUOUS
 62
    7
 10
-9.6094690254534498
 20
203.34920044442345
 11
-8.4401002815569655
 21
204.51857872506309
  0
LINE
  8
_0-1_作画層１
  6
CONTINUOUS
 62
    7
 10
-9.7831922462786451
 20
203.45831413766075
 11
-8.5492139747942701
 21
204.69229240914513
  0
LINE
  8
_0-1_作画層１
  6
CONTINUOUS
 62
    7
 10
-9.9569173744524733
 20
203.56744690438438
 11
-8.6583372047747389
 21
204.86602707406212
  0
LINE
  8
_0-1_作画層１
  6
CONTINUOUS
 62
    7
 10
-10.130642502626301
 20
203.67656250497032
 11
-8.7674623421038405
 21
205.03974266549278
  0
LINE
  8
_0-1_作画層１
  6
CONTINUOUS
 62
    7
 10
-8.8536535194720045
 20
205.17697449227501
 11
-6.4649702003802076
 21
201.37410469552208
  0
LINE
  8
_0-1_作画層１
  6
CONTINUOUS
 62
    7
 10
-9.5704065254534498
 20
204.4602233936422
 11
-8.8536535194720045
 21
205.17697449227501
  0
LINE
  8
_0-1_作画層１
  6
CONTINUOUS
 62
    7
 10
-4.0571790626848951
 20
204.06672211190391
 11
-4.3569379738177076
 21
203.66655273934532
  0
LINE
  8
_0-1_作画層１
  6
CONTINUOUS
 62
    7
 10
-4.4287210396136061
 20
203.72160072823692
 11
-4.0722433021868483
 21
204.07807655831505
  0
LINE
  8
_0-1_作画層１
  6
CONTINUOUS
 62
    7
 10
-5.8951288154925123
 20
204.59773750802208
 11
-5.5097452095354811
 21
205.02646179696251
  0
LINE
  8
_0-1_作画層１
  6
CONTINUOUS
 62
    7
 10
-4.5835920265520826
 20
203.84957809945274
 11
-4.2290483406389967
 21
204.20411224862266
  0
LINE
  8
_0-1_作画層１
  6
CONTINUOUS
 62
    7
 10
-4.731323807557942
 20
203.98469276925255
 11
-4.3776899269427076
 21
204.33831902047325
  0
LINE
  8
_0-1_作画層１
  6
CONTINUOUS
 62
    7
 10
-4.8719774177874342
 20
204.12687798043419
 11
-4.5182386329973951
 21
204.48060722848106
  0
LINE
  8
_0-1_作画層１
  6
CONTINUOUS
 62
    7
 10
-5.0055528572405592
 20
204.27614899178673
 11
-4.650686829408528
 21
204.63101692696739
  0
LINE
  8
_0-1_作画層１
  6
CONTINUOUS
 62
    7
 10
-5.1319738319720045
 20
204.43255920907188
 11
-4.7749353340471998
 21
204.78959770699669
  0
LINE
  8
_0-1_作画層１
  6
CONTINUOUS
 62
    7
 10
-5.2511487892473951
 20
204.59624977608848
 11
-4.8908315590227858
 21
204.95655937691856
  0
ARC
  8
_0-1_作画層１
  6
CONTINUOUS
 62
    7
 10
-1.9588571480121573
 20
206.86798782845656
 40
3.9999999999998592
 50
207.41172790527315
 51
233.16444396972707
  0
LINE
  8
_0-1_作画層１
  6
CONTINUOUS
 62
    7
 10
-5.3628717354143873
 20
204.76735802193809
 11
-4.9980817726458326
 21
205.13214607735802
  0
LINE
  8
_0-1_作画層１
  6
CONTINUOUS
 62
    7
 10
-5.466919510682942
 20
204.94614716073204
 11
-5.0963216713274733
 21
205.31674500008751
  0
LINE
  8
_0-1_作画層１
  6
CONTINUOUS
 62
    7
 10
-5.4325014046038405
 20
207.31842728158165
 11
-5.8951288154925123
 21
204.59773750802208
  0
LINE
  8
_0-1_作画層１
  6
CONTINUOUS
 62
    7
 10
-5.8535276344622389
 20
204.84238739510704
 11
-5.1850439003313795
 21
205.51088066598106
  0
LINE
  8
_0-1_作画層１
  6
CONTINUOUS
 62
    7
 10
-5.7955766609514967
 20
205.18318672677208
 11
-5.2635637214983717
 21
205.7151996662252
  0
LINE
  8
_0-1_作画層１
  6
CONTINUOUS
 62
    7
 10
-5.7376237800921217
 20
205.52398605843712
 11
-5.3309999397600905
 21
205.93061180611778
  0
LINE
  8
_0-1_作画層１
  6
CONTINUOUS
 62
    7
 10
-5.6796804359759108
 20
205.86476822396446
 11
-5.3861509254778639
 21
206.15830727120567
  0
LINE
  8
_0-1_作画層１
  6
CONTINUOUS
 62
    7
 10
-5.6217294624651686
 20
206.2055503894918
 11
-5.4274106911028639
 21
206.39987679024864
  0
LINE
  8
_0-1_作画層１
  6
CONTINUOUS
 62
    7
 10
-5.5637861183489576
 20
206.54634972115684
 11
-5.4525285652483717
 21
206.65761681100059
  0
LINE
  8
_0-1_作画層１
  6
CONTINUOUS
 62
    7
 10
-5.5058351448382155
 20
206.88714905282188
 11
-5.4582239082659498
 21
206.93475838204552
  0
LINE
  8
_0-1_作画層１
  6
CONTINUOUS
 62
    7
 10
-5.4478822639788405
 20
207.22794838448692
 11
-5.439413636049153
 21
207.23641701241661
  0
ARC
  8
_0-1_作画層１
  6
CONTINUOUS
 62
    7
 10
-1.9588571480120436
 20
206.86798782845665
 40
3.50000000000002
 50
172.61149597167963
 51
233.1645355224608
  0
LINE
  8
_0-1_作画層１
  6
CONTINUOUS
 62
    7
 10
-1.744232743104817
 20
206.4163944294088
 11
-0.245218842347981
 21
207.12882347603966
  0
LINE
  8
_0-1_作画層１
  6
CONTINUOUS
 62
    7
 10
-2.1734815529192701
 20
207.31958313485313
 11
-0.6633497169817701
 21
208.03729553719688
  0
LINE
  8
_0-1_作画層１
  6
CONTINUOUS
 62
    7
 10
-0.6633497169817701
 20
208.03729553719688
 11
-0.6588006904925123
 21
208.03946609994102
  0
LINE
  8
_0-1_作画層１
  6
CONTINUOUS
 62
    7
 10
-2.1734815529192701
 20
207.31958313485313
 11
-3.6828809669817701
 21
206.60221786996055
  0
LINE
  8
_0-1_作画層１
  6
CONTINUOUS
 62
    7
 10
-3.6828809669817701
 20
206.60221786996055
 11
-3.6881738594378248
 21
206.59969826241661
  0
LINE
  8
_0-1_作画層１
  6
CONTINUOUS
 62
    7
 10
-1.744232743104817
 20
206.4163944294088
 11
-3.2455202034319655
 21
205.70288010140587
  0
LINE
  8
_0-1_作画層１
  6
CONTINUOUS
 62
    7
 10
-3.2455202034319655
 20
205.70288010140587
 11
-3.2589059761370436
 21
205.69651146432091
  0
LINE
  8
_0-1_作画層１
  6
CONTINUOUS
 62
    7
 10
-0.646219818910481
 20
206.93824120064903
 11
-0.2674508980120435
 21
207.31701012154747
  0
LINE
  8
_0-1_作画層１
  6
CONTINUOUS
 62
    7
 10
-1.1852479866350905
 20
206.68205948373009
 11
-0.3384462288225904
 21
207.52887077828575
  0
LINE
  8
_0-1_作画層１
  6
CONTINUOUS
 62
    7
 10
-1.7242761543596998
 20
206.42587776681114
 11
-0.4302297523821607
 21
207.71992607613731
  0
LINE
  8
_0-1_作画層１
  6
CONTINUOUS
 62
    7
 10
-2.263296692689778
 20
206.16969795724083
 11
-0.540262787660481
 21
207.89273186227013
  0
LINE
  8
_0-1_作画層１
  6
CONTINUOUS
 62
    7
 10
-2.8023267677630201
 20
205.91351624032188
 11
-0.6922899177874342
 21
208.0235435535543
  0
LINE
  8
_0-1_作画層１
  6
CONTINUOUS
 62
    7
 10
-3.2792306831682936
 20
205.71945114632774
 11
-1.2313180855120436
 21
207.76736183663536
  0
LINE
  8
_0-1_作画層１
  6
CONTINUOUS
 62
    7
 10
-3.4025693825091139
 20
205.87895889779259
 11
-1.7703481605852858
 21
207.51118011971641
  0
LINE
  8
_0-1_作画層１
  6
CONTINUOUS
 62
    7
 10
-3.5088315895403639
 20
206.055543141567
 11
-2.3093858650530592
 21
207.25499840279747
  0
LINE
  8
_0-1_作画層１
  6
CONTINUOUS
 62
    7
 10
-3.5964170387591139
 20
206.25081558724571
 11
-2.8484140327776686
 21
206.99881859322716
  0
LINE
  8
_0-1_作画層１
  6
CONTINUOUS
 62
    7
 10
-3.6624437263811842
 20
206.46761055489708
 11
-3.3874250343645826
 21
206.74263687630821
  0
ARC
  8
_0-1_作画層１
  6
CONTINUOUS
 62
    7
 10
-1.9588571480120436
 20
206.86798782845662
 40
1.7500000000000056
 50
43.385589599609901
 51
187.66662597656128
  0
ARC
  8
_0-1_作画層１
  6
CONTINUOUS
 62
    7
 10
-1.9588571480122141
 20
206.86798782845656
 40
1.7499999999998153
 50
187.6666259765602
 51
222.75694274902523
  0
ARC
  8
_0-1_作画層１
  6
CONTINUOUS
 62
    7
 10
-1.9588571480122141
 20
206.86798782845659
 40
1.750000000000157
 50
8.0641479492204127
 51
43.385284423826633
  0
ARC
  8
_0-1_作画層１
  6
CONTINUOUS
 62
    7
 10
-1.9588571480120436
 20
206.86798782845665
 40
1.7500000000000002
 50
222.75694274902352
 51
8.0641479492192616
  0
LINE
  8
_0-1_作画層１
  6
CONTINUOUS
 62
    7
 10
47.276542098203763
 20
207.06067200204063
 11
47.84843960491763
 21
207.63255997201134
  0
LINE
  8
_0-1_作画層１
  6
CONTINUOUS
 62
    7
 10
46.828912169614895
 20
206.89586182137657
 11
48.013230712095364
 21
208.08019943734337
  0
LINE
  8
_0-1_作画層１
  6
CONTINUOUS
 62
    7
 10
46.518365294614895
 20
206.86816330453087
 11
48.040929228941067
 21
208.39074631234337
  0
LINE
  8
_0-1_作画層１
  6
CONTINUOUS
 62
    7
 10
46.261624724546536
 20
206.89426918526817
 11
48.014832884946927
 21
208.64748688241173
  0
LINE
  8
_0-1_作画層１
  6
CONTINUOUS
 62
    7
 10
46.039037139097317
 20
206.95451469918419
 11
47.95457974163638
 21
208.87007446786095
  0
LINE
  8
_0-1_作画層１
  6
CONTINUOUS
 62
    7
 10
45.842347533384427
 20
207.04068871041466
 11
47.868413359800442
 21
209.06674500008751
  0
LINE
  8
_0-1_作画層１
  6
CONTINUOUS
 62
    7
 10
45.667485625425442
 20
207.14866753121544
 11
47.760444075742825
 21
209.24161644478966
  0
LINE
  8
_0-1_作画層１
  6
CONTINUOUS
 62
    7
 10
45.51235333172427
 20
207.2763626148336
 11
47.632739455381497
 21
209.39674873849083
  0
LINE
  8
_0-1_作画層１
  6
CONTINUOUS
 62
    7
 10
45.376178176084622
 20
207.42304535409141
 11
47.486056716123684
 21
209.53293343087364
  0
LINE
  8
_0-1_作画層１
  6
CONTINUOUS
 62
    7
 10
45.259269148985013
 20
207.58895607491661
 11
47.320136458555325
 21
209.64983292123009
  0
LINE
  8
_0-1_作画層１
  6
CONTINUOUS
 62
    7
 10
45.163051039854153
 20
207.77558632394005
 11
47.133517653623684
 21
209.74605293770958
  0
LINE
  8
_0-1_作画層１
  6
CONTINUOUS
 62
    7
 10
45.09056606976138
 20
207.98595924874473
 11
46.923144728818997
 21
209.81852646371055
  0
LINE
  8
_0-1_作画層１
  6
CONTINUOUS
 62
    7
 10
45.047837645689114
 20
208.22606010934044
 11
46.68303433148013
 21
209.86127396126915
  0
LINE
  8
_0-1_作画層１
  6
CONTINUOUS
 62
    7
 10
45.047723204771145
 20
208.5088016559713
 11
46.400300414243802
 21
209.86137886544395
  0
LINE
  8
_0-1_作画層１
  6
CONTINUOUS
 62
    7
 10
45.128440291563138
 20
208.87234802743126
 11
46.036746413389309
 21
209.78066177865196
  0
CIRCLE
  8
_0-1_作画層１
  6
CONTINUOUS
 62
    7
 10
46.541102797666653
 20
208.36799927254845
 40
1.5
  0
LINE
  8
_0-1_作画層１
  6
CONTINUOUS
 62
    7
 10
44.332608611265286
 20
150.09383125802208
 11
44.815242201963528
 21
150.57646484872032
  0
LINE
  8
_0-1_作画層１
  6
CONTINUOUS
 62
    7
 10
43.857734114805325
 20
149.90179558297325
 11
45.007277877012356
 21
151.05133934518028
  0
LINE
  8
_0-1_作画層１
  6
CONTINUOUS
 62
    7
 10
43.541089446226223
 20
149.86798973580528
 11
45.041083724180325
 21
151.36798401375938
  0
LINE
  8
_0-1_作画層１
  6
CONTINUOUS
 62
    7
 10
43.280972869077786
 20
149.89071960946251
 11
45.018353850523098
 21
151.62810249825645
  0
LINE
  8
_0-1_作画層１
  6
CONTINUOUS
 62
    7
 10
43.05600681988345
 20
149.9485923816793
 11
44.960481078306302
 21
151.85306854745079
  0
LINE
  8
_0-1_作画層１
  6
CONTINUOUS
 62
    7
 10
42.857427031675442
 20
150.03285141488243
 11
44.876229674497708
 21
152.05164642831016
  0
LINE
  8
_0-1_作画層１
  6
CONTINUOUS
 62
    7
 10
42.680877120176419
 20
150.1391498615377
 11
44.769923598447903
 21
152.22819633980919
  0
LINE
  8
_0-1_作画層１
  6
CONTINUOUS
 62
    7
 10
42.52419415203677
 20
150.26529808541466
 11
44.64377537457095
 21
152.38487930794884
  0
LINE
  8
_0-1_作画層１
  6
CONTINUOUS
 62
    7
 10
42.386489302793606
 20
150.41043968697716
 11
44.49863377300845
 21
152.522584157192
  0
LINE
  8
_0-1_作画層１
  6
CONTINUOUS
 62
    7
 10
42.267978102842434
 20
150.57476730843712
 11
44.334306151548489
 21
152.64109535714317
  0
LINE
  8
_0-1_作画層１
  6
CONTINUOUS
 62
    7
 10
42.169991881528958
 20
150.75961990853477
 11
44.149453551450833
 21
152.73908157845665
  0
LINE
  8
_0-1_作画層１
  6
CONTINUOUS
 62
    7
 10
42.095425994077786
 20
150.9679023792379
 11
43.941171080747708
 21
152.81364746590782
  0
LINE
  8
_0-1_作画層１
  6
CONTINUOUS
 62
    7
 10
42.049933821836575
 20
151.20524712105919
 11
43.703826338926419
 21
152.85914154549766
  0
LINE
  8
_0-1_作画層１
  6
CONTINUOUS
 62
    7
 10
42.045550734678372
 20
151.48370285531212
 11
43.425370604673489
 21
152.86352463265587
  0
LINE
  8
_0-1_作画層１
  6
CONTINUOUS
 62
    7
 10
42.116433531919583
 20
151.83743401070763
 11
43.071639449277981
 21
152.79264183541466
  0
CIRCLE
  8
_0-1_作画層１
  6
CONTINUOUS
 62
    7
 10
43.541081816831692
 20
151.36799164315391
 40
1.5
  0
LINE
  8
_0-1_作画層１
  6
CONTINUOUS
 62
    7
 10
-15.958872406801106
 20
152.86802025338341
 11
-14.958874314149739
 21
152.86802025338341
  0
LINE
  8
_0-1_作画層１
  6
CONTINUOUS
 62
    7
 10
-14.958874314149739
 20
145.86801834603477
 11
-14.958874314149739
 21
152.86802025338341
  0
LINE
  8
_0-1_作画層１
  6
CONTINUOUS
 62
    7
 10
-15.958876221498372
 20
145.86801834603477
 11
-14.958874314149739
 21
145.86801834603477
  0
LINE
  8
_0-1_作画層１
  6
CONTINUOUS
 62
    7
 10
-15.958876221498372
 20
145.86801834603477
 11
-15.958872406801106
 21
152.86802025338341
  0
LINE
  8
_0-1_作画層１
  6
CONTINUOUS
 62
    7
 10
-12.958872406801106
 20
152.86802025338341
 11
-11.958870499452473
 21
152.86802025338341
  0
LINE
  8
_0-1_作画層１
  6
CONTINUOUS
 62
    7
 10
-11.958870499452473
 20
145.86801834603477
 11
-11.958870499452473
 21
152.86802025338341
  0
LINE
  8
_0-1_作画層１
  6
CONTINUOUS
 62
    7
 10
-12.958872406801106
 20
145.86801834603477
 11
-11.958870499452473
 21
145.86801834603477
  0
LINE
  8
_0-1_作画層１
  6
CONTINUOUS
 62
    7
 10
-12.958872406801106
 20
145.86801834603477
 11
-12.958872406801106
 21
152.86802025338341
  0
LINE
  8
_0-1_作画層１
  6
CONTINUOUS
 62
    7
 10
-9.9588685921038405
 20
152.86802025338341
 11
-8.9588666847552076
 21
152.86802025338341
  0
LINE
  8
_0-1_作画層１
  6
CONTINUOUS
 62
    7
 10
-8.9588666847552076
 20
145.86801834603477
 11
-8.9588666847552076
 21
152.86802025338341
  0
LINE
  8
_0-1_作画層１
  6
CONTINUOUS
 62
    7
 10
-9.9588685921038405
 20
145.86801834603477
 11
-8.9588666847552076
 21
145.86801834603477
  0
LINE
  8
_0-1_作画層１
  6
CONTINUOUS
 62
    7
 10
-9.9588685921038405
 20
145.86801834603477
 11
-9.9588685921038405
 21
152.86802025338341
  0
LINE
  8
_0-1_作画層１
  6
CONTINUOUS
 62
    7
 10
-19.458872406801106
 20
103.36796875497032
 11
52.541119963804334
 21
103.36795158884081
  0
LINE
  8
_0-1_作画層１
  6
CONTINUOUS
 62
    7
 10
-17.208872406801106
 20
103.36796821852872
 11
-17.208872406801106
 21
48.367961125575761
  0
LINE
  8
_0-1_作画層１
  6
CONTINUOUS
 62
    7
 10
45.291131407896145
 20
72.367953317372141
 11
45.291131407896145
 21
48.367945866786698
  0
LINE
  8
_0-1_作画層１
  6
CONTINUOUS
 62
    7
 10
45.291131407896145
 20
72.367953317372141
 11
50.29113140789616
 21
72.367952125279686
  0
ARC
  8
_0-1_作画層１
  6
CONTINUOUS
 62
    7
 10
47.190431596091187
 20
72.107791420218334
 40
0.7500000000000142
 50
180.00000000000105
 51
269.99999999999886
  0
LINE
  8
_0-1_作画層１
  6
CONTINUOUS
 62
    7
 10
47.190431596091173
 20
71.357791420218319
 11
48.815431596091173
 21
71.357791420218319
  0
ARC
  8
_0-1_作画層１
  6
CONTINUOUS
 62
    7
 10
48.815431596091187
 20
72.107791420218305
 40
0.7499999999999854
 50
269.99999999999886
 51
0.0000000000010941
  0
LINE
  8
_0-1_作画層１
  6
CONTINUOUS
 62
    7
 10
46.440431596091173
 20
72.107791420218319
 11
46.440431596091173
 21
72.357791420218319
  0
LINE
  8
_0-1_作画層１
  6
CONTINUOUS
 62
    7
 10
49.565431596091173
 20
72.107791420218319
 11
49.565431596091173
 21
72.357791420218319
  0
LINE
  8
_0-1_作画層１
  6
CONTINUOUS
 62
    7
 10
-10.908876221498417
 20
75.367966716493143
 11
-10.908876221498417
 21
48.36794921241902
  0
LINE
  8
_0-1_作画層１
  6
CONTINUOUS
 62
    7
 10
50.29113140789616
 20
85.867952125279714
 11
-17.208872406801106
 21
85.867968218528745
  0
LINE
  8
_0-1_作画層１
  6
CONTINUOUS
 62
    7
 10
50.291131407896145
 20
103.36795212527969
 11
50.291131407896145
 21
48.367945866786698
  0
TEXT
  8
_0-d_0_1
 62
    7
 10
4.8848856486525847
 20
207.50327013865052
 40
5
 41
1
 50
0
  1
ON
  0
TEXT
  8
_0-d_0_1
 62
    7
 10
-16.365114351347415
 20
207.50327013865052
 40
5
 41
1
 50
0
  1
OFF
  0
TEXT
  8
_0-d_0_1
 62
    7
 10
42.384885648652585
 20
200.00327013865052
 40
5
 41
1
 50
0
  1
PL
  0
TEXT
  8
_0-d_0_1
 62
    7
 10
41.134885648652585
 20
145.00327013865052
 40
5
 41
1
 50
0
  1
OUT
  0
TEXT
  8
_0-d_0_1
 62
    7
 10
-8.8651143513474153
 20
145.00327013865052
 40
5
 41
1
 50
0
  1
SPARE
  0
CIRCLE
  8
_0-1_作画層１
  6
CONTINUOUS
 62
    7
 10
268.55788906449766
 20
133.20771997410844
 40
2.2223565553895699
  0
TEXT
  8
_0-7_注記層１
 62
    7
 10
284.04112377850163
 20
-16.632023615635148
 40
4
 41
1
 50
0
  1
平野
  0
TEXT
  8
_0-7_注記層１
 62
    7
 10
244.75
 20
199.5
 40
3.5
 41
1
 50
0
  1
200時間（リチウム電池使用）
  0
TEXT
  8
_0-7_注記層１
 62
    7
 10
244.75
 20
214.5
 40
3.5
 41
1
 50
0
  1
AC100V 又は AC200V
  0
TEXT
  8
_0-7_注記層１
 62
    7
 10
244.75
 20
204.5
 40
3.5
 41
1
 50
0
  1
50Hz/60Hz共用
  0
TEXT
  8
_0-7_注記層１
 62
    7
 10
244.75
 20
189.5
 40
3.5
 41
1
 50
0
  1
35%RH～85％RH
  0
TEXT
  8
_0-7_注記層１
 62
    7
 10
244.75
 20
174.5
 40
3.5
 41
1
 50
0
  1
1日24回ON-OFF動作
  0
TEXT
  8
_0-7_注記層１
 62
    7
 10
244.75
 20
149.5
 40
3.5
 41
1
 50
0
  1
H72×W72×D73mm
  0
TEXT
  8
_0-7_注記層１
 62
    7
 10
244.75
 20
144.5
 40
3.5
 41
1
 50
0
  1
前面カバー、取付け具
  0
TEXT
  8
_0-7_注記層１
 62
    7
 10
206.54112377850163
 20
131.61797638436485
 40
3.5
 41
1
 50
0
  1
※取付け具：（図番）ATTACH-001-02　A  参照
  0
TEXT
  8
_0-7_注記層１
 62
    7
 10
302.25
 20
-26.25
 40
5
 41
1
 50
0
  1
ETS-703P-001-03
  0
TEXT
  8
_0-7_注記層１
 62
    7
 10
211
 20
-15.5
 40
3.5
 41
1
 50
0
  1
2020.04.21
  0
TEXT
  8
_0-0_
 62
    7
 10
210.84808884297519
 20
-8.282308884297521
 40
3.5
 41
1
 50
0
  1
2020.04.21：取付け具変更
  0
TEXT
  8
_0-7_注記層１
 62
    7
 10
244.75
 20
141
 40
3.5
 41
1
 50
0
  1
ゴムパッキン、（赤）（白）色設定子各３個
  0
ENDSEC
  0
EOF
