  0
SECTION
  2
HEADER
  9
$ACADVER
  1
AC1009
  9
$INSBASE
 10
0
 20
0
 30
0
  9
$EXTMIN
 10
0
 20
0
  9
$EXTMAX
 10
297
 20
210
  9
$LIMMIN
 10
0
 20
0
  9
$LIMMAX
 10
297
 20
210
  9
$LTSCALE
 40
1
  0
ENDSEC
  0
SECTION
  2
TABLES
  0
TABLE
  2
LTYPE
 70
     9
  0
LTYPE
  2
CONTINUOUS
 70
    64
  3
実線
 72
    65
 73
     0
 40
0.0
  0
LTYPE
  2
DASHED1
 70
    64
  3
--  --  --  --  --  --  --  --  
 72
    65
 73
     2
 40
2.5
 49
1.25
 49
-1.25
  0
LTYPE
  2
DASHED2
 70
    64
  3
----    ----    ----    ----    
 72
    65
 73
     2
 40
5.0
 49
2.5
 49
-2.5
  0
LTYPE
  2
DASHED3
 70
    64
  3
------  ------  ------  ------  
 72
    65
 73
     2
 40
5.0
 49
3.75
 49
-1.25
  0
LTYPE
  2
CENTER1
 70
    64
  3
----- - ----- - ----- - ----- - 
 72
    65
 73
     4
 40
10.0
 49
6.25
 49
-1.25
 49
1.25
 49
-1.25
  0
LTYPE
  2
CENTER2
 70
    64
  3
----------  --  ----------  --  
 72
    65
 73
     4
 40
20.0
 49
12.5
 49
-2.5
 49
2.5
 49
-2.5
  0
LTYPE
  2
PHANTOM1
 70
    64
  3
--- - - --- - - --- - - --- - - 
 72
    65
 73
     6
 40
10.0
 49
3.25
 49
-1.25
 49
1.25
 49
-1.25
 49
1.25
 49
-1.25
  0
LTYPE
  2
PHANTOM2
 70
    64
  3
--------  -  -  --------  -  -  
 72
    65
 73
     6
 40
20.0
 49
10.0
 49
-2.5
 49
1.25
 49
-2.5
 49
1.25
 49
-2.5
  0
LTYPE
  2
DOT
 70
    64
  3
-   -   -   -   -   -   -   -   
 72
    65
 73
     2
 40
2.5
 49
0.625
 49
-1.875
  0
LTYPE
  2
DUMMY
 70
    64
  3
ダミー
 72
    65
 73
     0
 40
0.0
  0
LTYPE
  2
RAND1
 70
    64
  3
ランダム線1
 72
    65
 73
     4
 40
10.0
 49
1.0
 49
-2.0
 49
3.0
 49
-4.0
  0
LTYPE
  2
RAND2
 70
    64
  3
ランダム線2
 72
    65
 73
     4
 40
14.0
 49
2.0
 49
-3.0
 49
4.0
 49
-5.0
  0
LTYPE
  2
RAND3
 70
    64
  3
ランダム線3
 72
    65
 73
     4
 40
18.0
 49
3.0
 49
-4.0
 49
5.0
 49
-6.0
  0
LTYPE
  2
RAND4
 70
    64
  3
ランダム線4
 72
    65
 73
     4
 40
22.0
 49
4.0
 49
-5.0
 49
6.0
 49
-7.0
  0
LTYPE
  2
RAND5
 70
    64
  3
ランダム線5
 72
    65
 73
     4
 40
26.0
 49
5.0
 49
-6.0
 49
7.0
 49
-8.0
  0
LTYPE
  2
LONG1
 70
    64
  3
----------  --  ----------  --  
 72
    65
 73
     4
 40
40.0
 49
32.5
 49
-2.5
 49
2.5
 49
-2.5
  0
LTYPE
  2
LONG2
 70
    64
  3
--------  -  -  --------  -  -  
 72
    65
 73
     6
 40
40.0
 49
30.0
 49
-2.5
 49
1.25
 49
-2.5
 49
1.25
 49
-2.5
  0
LTYPE
  2
LONG3
 70
    64
  3
+++++++++++++++..+++++++++++++++
 72
    65
 73
     2
 40
40.0
 49
37.5
 49
-2.5
  0
LTYPE
  2
LONG4
 70
    64
  3
+++++++++++++++..+++++++++++++++
 72
    65
 73
     2
 40
80.0
 49
75.0
 49
-5.0
  0
LTYPE
  2
LONG5
 70
    64
  3
----------  --  ----------  --  
 72
    65
 73
     4
 40
60.0
 49
37.5
 49
-7.5
 49
7.5
 49
-7.5
  0
LTYPE
  2
dashed
 70
   64
  3
-------   -------------   ------
 72
   65
 73
    2
 40
7.5
 49
6
 49
-1.5
  0
LTYPE
  2
dashed_spaced
 70
   64
  3
----        --------        ----
 72
   65
 73
    2
 40
12
 49
6
 49
-6
  0
LTYPE
  2
long_dashed_dotted
 70
   64
  3
------------- --- --------------
 72
   65
 73
    4
 40
15.25
 49
12
 49
-1.5
 49
0.25
 49
-1.5
  0
LTYPE
  2
long_dashed_double-dotted
 70
   64
  3
----------- --- --- ------------
 72
   65
 73
    6
 40
17
 49
12
 49
-1.5
 49
0.25
 49
-1.5
 49
0.25
 49
-1.5
  0
LTYPE
  2
long_dashed_triplicate-dotted
 70
   64
  3
--------- --- --- --- ----------
 72
   65
 73
    8
 40
18.75
 49
12
 49
-1.5
 49
0.25
 49
-1.5
 49
0.25
 49
-1.5
 49
0.25
 49
-1.5
  0
LTYPE
  2
dotted
 70
   64
  3
   -       -       -       -    
 72
   65
 73
    2
 40
1.75
 49
0.25
 49
-1.5
  0
LTYPE
  2
chain
 70
   64
  3
-------------- -- --------------
 72
   65
 73
    4
 40
18.5
 49
12
 49
-1.5
 49
3.5
 49
-1.5
  0
LTYPE
  2
chain_double_dash
 70
   64
  3
------------ -- -- -------------
 72
   65
 73
    6
 40
23.5
 49
12
 49
-1.5
 49
3.5
 49
-1.5
 49
3.5
 49
-1.5
  0
LTYPE
  2
dashed_dotted
 70
   64
  3
-----------     -     ----------
 72
   65
 73
    4
 40
9.25
 49
6
 49
-1.5
 49
0.25
 49
-1.5
  0
LTYPE
  2
double-dashed_dotted
 70
   64
  3
------   -----------   -   -----
 72
   65
 73
    6
 40
16.75
 49
6
 49
-1.5
 49
6
 49
-1.5
 49
0.25
 49
-1.5
  0
LTYPE
  2
dashed_double-dotted
 70
   64
  3
---------    -    -    ---------
 72
   65
 73
    6
 40
11
 49
6
 49
-1.5
 49
0.25
 49
-1.5
 49
0.25
 49
-1.5
  0
LTYPE
  2
double-dashed_double-dotted
 70
   64
  3
-----   ---------   -   -   ----
 72
   65
 73
    8
 40
18.5
 49
6
 49
-1.5
 49
6
 49
-1.5
 49
0.25
 49
-1.5
 49
0.25
 49
-1.5
  0
LTYPE
  2
dashed_triplicate-dotted
 70
   64
  3
-------    -    -    -    ------
 72
   65
 73
    8
 40
12.75
 49
6
 49
-1.5
 49
0.25
 49
-1.5
 49
0.25
 49
-1.5
 49
0.25
 49
-1.5
  0
LTYPE
  2
double-dashed_triplicate-dotted
 70
   64
  3
-----  ---------  -  -  -  -----
 72
   65
 73
   10
 40
20.25
 49
6
 49
-1.5
 49
6
 49
-1.5
 49
0.25
 49
-1.5
 49
0.25
 49
-1.5
 49
0.25
 49
-1.5
  0
LTYPE
  2
undefined
 70
   64
  3
--------------------------------
 72
   65
 73
    0
 40
0
  0
LTYPE
  2
DASHED
 70
   64
  3
----        --------        ----
 72
   65
 73
    2
 40
4
 49
2
 49
-2
  0
LTYPE
  2
DOT_18
 70
   64
  3
---           -----           --
 72
   65
 73
    2
 40
3
 49
1
 49
-2
  0
LTYPE
  2
DASHDOT
 70
   64
  3
---------    ------    ---------
 72
   65
 73
    4
 40
17
 49
10
 49
-2
 49
3
 49
-2
  0
LTYPE
  2
DIVIDE
 70
   64
  3
-----------  --  --  -----------
 72
   65
 73
    6
 40
30
 49
20
 49
-2
 49
2
 49
-2
 49
2
 49
-2
  0
LTYPE
  2
CENTER
 70
   64
  3
-------------  --  -------------
 72
   65
 73
    4
 40
13
 49
10
 49
-1
 49
1
 49
-1
  0
ENDTAB
  0
TABLE
  2
STYLE
  5
3
100
AcDbSymbolTable
 70
     1
  0
STYLE
  5
10
100
AcDbSymbolTableRecord
100
AcDbTextStyleTableRecord
  2
STANDARD
 70
     0
 40
0.0
 41
1.0
 50
0.0
 71
     0
 42
0.2
  3
txt
  4
bigfont.shx
  0
STYLE
  5
26
100
AcDbSymbolTableRecord
100
AcDbTextStyleTableRecord
  2
TATEGAKI
 70
    68
 40
0.0
 41
1.0
 50
0.0
 71
     0
 42
1.0
  3
txt
  4
bigfont.shx
  0
ENDTAB
  0
TABLE
  2
LAYER
 70
    4
  0
LAYER
  2
_0-1_作画層１
 70
   64
 62
    7
  6
CONTINUOUS
  0
LAYER
  2
_0-7_注記層１
 70
   64
 62
    7
  6
CONTINUOUS
  0
LAYER
  2
_0-9_寸法線層１
 70
   64
 62
    7
  6
CONTINUOUS
  0
LAYER
  2
ADD_LINE
 70
   64
 62
    7
  6
CONTINUOUS
  0
ENDTAB
  0
ENDSEC
  0
SECTION
  2
BLOCKS
  0
BLOCK
  2
-000-_D0
 70
   64
 10
0
 20
0
 30
0
  0
LINE
  8
_0-9_寸法線層１
  6
CONTINUOUS
 62
    7
 10
35.007567025808058
 20
267.51170132798796
 11
105.00756702580806
 21
267.51170132798796
  0
TEXT
  8
_0-9_寸法線層１
 62
    7
 10
68.119338458154274
 20
268.51170132798796
 40
3
 41
1
 50
0
  1
70
  0
LINE
  8
_0-9_寸法線層１
  6
CONTINUOUS
 62
    7
 10
35.007567025808058
 20
255.51170132798794
 11
35.007567025808058
 21
269.51170132798796
  0
LINE
  8
_0-9_寸法線層１
  6
CONTINUOUS
 62
    7
 10
105.00756702580806
 20
255.51170132798794
 11
105.00756702580806
 21
269.51170132798796
  0
ENDBLK
  0
BLOCK
  2
-001-_D1
 70
   64
 10
0
 20
0
 30
0
  0
LINE
  8
_0-9_寸法線層１
  6
CONTINUOUS
 62
    7
 10
27.507567025808058
 20
260.01170132798796
 11
27.507567025808058
 21
140.01170132798794
  0
TEXT
  8
_0-9_寸法線層１
 62
    7
 10
26.507567025808044
 20
197.37347276033418
 40
3
 41
1
 50
90
  1
120
  0
LINE
  8
_0-9_寸法線層１
  6
CONTINUOUS
 62
    7
 10
39.507567025808058
 20
260.01170132798796
 11
25.507567025808058
 21
260.01170132798796
  0
LINE
  8
_0-9_寸法線層１
  6
CONTINUOUS
 62
    7
 10
39.507567025808058
 20
140.01170132798794
 11
25.507567025808058
 21
140.01170132798794
  0
ENDBLK
  0
BLOCK
  2
-002-_D2
 70
   64
 10
0
 20
0
 30
0
  0
LINE
  8
_0-9_寸法線層１
  6
CONTINUOUS
 62
    7
 10
135.00756702580807
 20
267.51170132798796
 11
149.00756702580807
 21
267.51170132798796
  0
TEXT
  8
_0-9_寸法線層１
 62
    7
 10
140.11933845815429
 20
268.51170132798796
 40
3
 41
1
 50
0
  1
14
  0
LINE
  8
_0-9_寸法線層１
  6
CONTINUOUS
 62
    7
 10
135.00756702580807
 20
258.01170132798796
 11
135.00756702580807
 21
269.51170132798796
  0
LINE
  8
_0-9_寸法線層１
  6
CONTINUOUS
 62
    7
 10
149.00756702580807
 20
260.51170132798791
 11
149.00756702580807
 21
269.51170132798796
  0
ENDBLK
  0
BLOCK
  2
-003-_D3
 70
   64
 10
0
 20
0
 30
0
  0
LINE
  8
_0-9_寸法線層１
  6
CONTINUOUS
 62
    7
 10
149.00756702580807
 20
267.51170132798796
 11
182.00756702580807
 21
267.51170132798796
  0
TEXT
  8
_0-9_寸法線層１
 62
    7
 10
152.36933845815429
 20
268.51170132798796
 40
3
 41
1
 50
0
  1
33(壁埋込み寸法）
  0
LINE
  8
_0-9_寸法線層１
  6
CONTINUOUS
 62
    7
 10
149.00756702580807
 20
260.51170132798791
 11
149.00756702580807
 21
269.51170132798796
  0
LINE
  8
_0-9_寸法線層１
  6
CONTINUOUS
 62
    7
 10
182.00756702580807
 20
240.51170132798791
 11
182.00756702580807
 21
269.51170132798796
  0
ENDBLK
  0
BLOCK
  2
-004-_D4
 70
   64
 10
0
 20
0
 30
0
  0
LINE
  8
_0-9_寸法線層１
  6
CONTINUOUS
 62
    7
 10
322.50756702580804
 20
139.51170132798796
 11
322.50756702580804
 21
60.511701327987964
  0
TEXT
  8
_0-9_寸法線層１
 62
    7
 10
321.50756702580804
 20
98.123472760334181
 40
3
 41
1
 50
90
  1
79
  0
LINE
  8
_0-9_寸法線層１
  6
CONTINUOUS
 62
    7
 10
299.50756702580804
 20
139.51170132798796
 11
324.50756702580804
 21
139.51170132798796
  0
LINE
  8
_0-9_寸法線層１
  6
CONTINUOUS
 62
    7
 10
299.50756702580804
 20
60.511701327987964
 11
324.50756702580804
 21
60.511701327987964
  0
ENDBLK
  0
BLOCK
  2
-005-_D5
 70
   64
 10
0
 20
0
 30
0
  0
LINE
  8
_0-9_寸法線層１
  6
CONTINUOUS
 62
    7
 10
330.00756702580804
 20
152.01170132798796
 11
330.00756702580804
 21
48.011701327987964
  0
TEXT
  8
_0-9_寸法線層１
 62
    7
 10
329.00756702580804
 20
97.373472760334181
 40
3
 41
1
 50
90
  1
104
  0
LINE
  8
_0-9_寸法線層１
  6
CONTINUOUS
 62
    7
 10
271.50756702580799
 20
152.01170132798796
 11
332.00756702580804
 21
152.01170132798796
  0
LINE
  8
_0-9_寸法線層１
  6
CONTINUOUS
 62
    7
 10
271.50756702580799
 20
48.011701327987964
 11
332.00756702580804
 21
48.011701327987964
  0
ENDBLK
  0
BLOCK
  2
-006-_D6
 70
   64
 10
0
 20
0
 30
0
  0
LINE
  8
_0-9_寸法線層１
  6
CONTINUOUS
 62
    7
 10
249.00756702580804
 20
167.51170132798794
 11
301.00756702580804
 21
167.51170132798794
  0
TEXT
  8
_0-9_寸法線層１
 62
    7
 10
273.11933845815429
 20
168.51170132798794
 40
3
 41
1
 50
0
  1
52
  0
LINE
  8
_0-9_寸法線層１
  6
CONTINUOUS
 62
    7
 10
249.00756702580804
 20
138.01170132798796
 11
249.00756702580804
 21
169.51170132798794
  0
LINE
  8
_0-9_寸法線層１
  6
CONTINUOUS
 62
    7
 10
301.00756702580804
 20
138.01170132798796
 11
301.00756702580804
 21
169.51170132798794
  0
ENDBLK
  0
BLOCK
  2
-007-_D7
 70
   64
 10
0
 20
0
 30
0
  0
LINE
  8
_0-9_寸法線層１
  6
CONTINUOUS
 62
    7
 10
392.50756702580804
 20
142.51170132798794
 11
338.50756702580804
 21
142.51170132798794
  0
TEXT
  8
_0-9_寸法線層１
 62
    7
 10
361.24757846079666
 20
144.11170132798793
 40
3
 41
1
 50
0
  1
54
  0
TEXT
  8
_0-9_寸法線層１
 62
    7
 10
365.02403559610417
 20
145.61170132798793
 40
2.0999999999999996
 41
1
 50
0
  1
+0.5
  0
TEXT
  8
_0-9_寸法線層１
 62
    7
 10
365.02403559610417
 20
143.51170132798794
 40
2.0999999999999996
 41
1
 50
0
  1
-0
  0
LINE
  8
_0-9_寸法線層１
  6
CONTINUOUS
 62
    7
 10
392.50756702580804
 20
136.51170132798796
 11
392.50756702580804
 21
144.51170132798794
  0
LINE
  8
_0-9_寸法線層１
  6
CONTINUOUS
 62
    7
 10
338.50756702580804
 20
136.51170132798796
 11
338.50756702580804
 21
144.51170132798794
  0
ENDBLK
  0
BLOCK
  2
-008-_D8
 70
   64
 10
0
 20
0
 30
0
  0
LINE
  8
_0-9_寸法線層１
  6
CONTINUOUS
 62
    7
 10
400.00756702580804
 20
55.011701327987964
 11
400.00756702580804
 21
136.01170132798796
  0
TEXT
  8
_0-9_寸法線層１
 62
    7
 10
398.40756702580802
 20
91.251712762976538
 40
3
 41
1
 50
90
  1
81
  0
TEXT
  8
_0-9_寸法線層１
 62
    7
 10
396.90756702580802
 20
95.028169898284105
 40
2.0999999999999996
 41
1
 50
90
  1
+0.5
  0
TEXT
  8
_0-9_寸法線層１
 62
    7
 10
399.00756702580804
 20
95.028169898284105
 40
2.0999999999999996
 41
1
 50
90
  1
-0
  0
LINE
  8
_0-9_寸法線層１
  6
CONTINUOUS
 62
    7
 10
393.00756702580804
 20
55.011701327987964
 11
402.00756702580804
 21
55.011701327987964
  0
LINE
  8
_0-9_寸法線層１
  6
CONTINUOUS
 62
    7
 10
393.00756702580804
 20
136.01170132798796
 11
402.00756702580804
 21
136.01170132798796
  0
ENDBLK
  0
ENDSEC
  0
SECTION
  2
ENTITIES
  0
TEXT
  8
_0-7_注記層１
 62
    7
 10
209.75
 20
219.5
 40
3.5
 41
1
 50
0
  1
型　　 　番
  0
TEXT
  8
_0-7_注記層１
 62
    7
 10
209.75
 20
209.5
 40
3.5
 41
1
 50
0
  1
許容電圧変動範囲
  0
TEXT
  8
_0-7_注記層１
 62
    7
 10
209.75
 20
204.5
 40
3.5
 41
1
 50
0
  1
周　　波　　数
  0
TEXT
  8
_0-7_注記層１
 62
    7
 10
209.75
 20
199.5
 40
3.5
 41
1
 50
0
  1
停　電　補　償
  0
TEXT
  8
_0-7_注記層１
 62
    7
 10
209.75
 20
214.5
 40
3.5
 41
1
 50
0
  1
電  源  電  圧
  0
TEXT
  8
_0-7_注記層１
 62
    7
 10
207.25
 20
228.75
 40
5
 41
1
 50
0
  1
規　格
  0
LINE
  8
_0-1_作画層１
  6
CONTINUOUS
 62
    7
 10
204.75
 20
228.75
 11
224.75
 21
228.75
  0
TEXT
  8
_0-7_注記層１
 62
    7
 10
239.625
 20
-15.5
 40
3.5
 41
1
 50
0
  1
1/1
  0
TEXT
  8
_0-7_注記層１
 62
    7
 10
273.75
 20
-13
 40
3.5
 41
1
 50
0
  1
承認
  0
LINE
  8
_0-1_作画層１
  6
CONTINUOUS
 62
    7
 10
207.25
 20
-8.75
 11
207.25
 21
-28.75
  0
LINE
  8
_0-1_作画層１
  6
CONTINUOUS
 62
    7
 10
232.25
 20
-8.75
 11
232.25
 21
-18.75
  0
LINE
  8
_0-1_作画層１
  6
CONTINUOUS
 62
    7
 10
252.25
 20
-8.75
 11
252.25
 21
-18.75
  0
LINE
  8
_0-1_作画層１
  6
CONTINUOUS
 62
    7
 10
272.25
 20
-8.75
 11
272.25
 21
-18.75
  0
LINE
  8
_0-1_作画層１
  6
CONTINUOUS
 62
    7
 10
297.25
 20
-28.75
 11
297.25
 21
-8.75
  0
LINE
  8
_0-1_作画層１
  6
CONTINUOUS
 62
    7
 10
352.25
 20
248.75
 11
-45.25
 21
248.75
  0
LINE
  8
_0-1_作画層１
  6
CONTINUOUS
 62
    7
 10
-45.25
 20
-28.75
 11
-45.25
 21
248.75
  0
LINE
  8
_0-1_作画層１
  6
CONTINUOUS
 62
    7
 10
352.25
 20
-28.75
 11
-45.25
 21
-28.75
  0
LINE
  8
_0-1_作画層１
  6
CONTINUOUS
 62
    7
 10
352.25
 20
-8.75
 11
207.25
 21
-8.75
  0
LINE
  8
_0-1_作画層１
  6
CONTINUOUS
 62
    7
 10
352.25
 20
-18.75
 11
207.25
 21
-18.75
  0
LINE
  8
_0-1_作画層１
  6
CONTINUOUS
 62
    7
 10
352.25
 20
-28.75
 11
352.25
 21
248.75
  0
TEXT
  8
_0-7_注記層１
 62
    7
 10
257
 20
-15.5
 40
3.5
 41
1
 50
0
  1
ゴトウ
  0
LINE
  8
_0-1_作画層１
  6
CONTINUOUS
 62
    7
 10
319.75
 20
223.75
 11
207.25
 21
223.75
  0
LINE
  8
_0-1_作画層１
  6
CONTINUOUS
 62
    7
 10
319.75
 20
218.75
 11
207.25
 21
218.75
  0
LINE
  8
_0-1_作画層１
  6
CONTINUOUS
 62
    7
 10
319.75
 20
213.75
 11
207.25
 21
213.75
  0
LINE
  8
_0-1_作画層１
  6
CONTINUOUS
 62
    7
 10
319.75
 20
208.75
 11
207.25
 21
208.75
  0
LINE
  8
_0-1_作画層１
  6
CONTINUOUS
 62
    7
 10
319.75
 20
203.75
 11
207.25
 21
203.75
  0
LINE
  8
_0-1_作画層１
  6
CONTINUOUS
 62
    7
 10
319.75
 20
198.75
 11
207.25
 21
198.75
  0
TEXT
  8
_0-7_注記層１
 62
    7
 10
209.75
 20
189.5
 40
3.5
 41
1
 50
0
  1
使 用 周 囲 温 度
  0
TEXT
  8
_0-7_注記層１
 62
    7
 10
209.75
 20
184.5
 40
3.5
 41
1
 50
0
  1
使 用 周 囲 湿 度
  0
TEXT
  8
_0-7_注記層１
 62
    7
 10
209.75
 20
179.5
 40
3.5
 41
1
 50
0
  1
接　点　定　格
  0
TEXT
  8
_0-7_注記層１
 62
    7
 10
209.75
 20
174.5
 40
3.5
 41
1
 50
0
  1
出　　　　　力
  0
TEXT
  8
_0-7_注記層１
 62
    7
 10
209.75
 20
169.5
 40
3.5
 41
1
 50
0
  1
設　定　回　数
  0
TEXT
  8
_0-7_注記層１
 62
    7
 10
209.75
 20
164.5
 40
3.5
 41
1
 50
0
  1
最 小 設 定 時 間
  0
TEXT
  8
_0-7_注記層１
 62
    7
 10
209.75
 20
159.5
 40
3.5
 41
1
 50
0
  1
時　間　精　度
  0
TEXT
  8
_0-7_注記層１
 62
    7
 10
209.75
 20
154.5
 40
3.5
 41
1
 50
0
  1
消　費　電　力　
  0
TEXT
  8
_0-7_注記層１
 62
    7
 10
209.75
 20
149.5
 40
3.5
 41
1
 50
0
  1
重　　　  　量
  0
TEXT
  8
_0-7_注記層１
 62
    7
 10
209.75
 20
144.5
 40
3.5
 41
1
 50
0
  1
外　形　寸　法
  0
TEXT
  8
_0-7_注記層１
 62
    7
 10
209.75
 20
139.5
 40
3.5
 41
1
 50
0
  1
付　　属　　品
  0
LINE
  8
_0-1_作画層１
  6
CONTINUOUS
 62
    7
 10
319.75
 20
188.75
 11
207.25
 21
188.75
  0
LINE
  8
_0-1_作画層１
  6
CONTINUOUS
 62
    7
 10
319.75
 20
188.75
 11
207.25
 21
188.75
  0
LINE
  8
_0-1_作画層１
  6
CONTINUOUS
 62
    7
 10
319.75
 20
183.75
 11
207.25
 21
183.75
  0
LINE
  8
_0-1_作画層１
  6
CONTINUOUS
 62
    7
 10
319.75
 20
178.75
 11
207.25
 21
178.75
  0
LINE
  8
_0-1_作画層１
  6
CONTINUOUS
 62
    7
 10
319.75
 20
173.75
 11
207.25
 21
173.75
  0
LINE
  8
_0-1_作画層１
  6
CONTINUOUS
 62
    7
 10
319.75
 20
168.75
 11
207.25
 21
168.75
  0
LINE
  8
_0-1_作画層１
  6
CONTINUOUS
 62
    7
 10
319.75
 20
163.75
 11
207.25
 21
163.75
  0
LINE
  8
_0-1_作画層１
  6
CONTINUOUS
 62
    7
 10
319.75
 20
158.75
 11
207.25
 21
158.75
  0
LINE
  8
_0-1_作画層１
  6
CONTINUOUS
 62
    7
 10
319.75
 20
153.75
 11
207.25
 21
153.75
  0
LINE
  8
_0-1_作画層１
  6
CONTINUOUS
 62
    7
 10
319.75
 20
148.75
 11
207.25
 21
148.75
  0
LINE
  8
_0-1_作画層１
  6
CONTINUOUS
 62
    7
 10
319.75
 20
143.75
 11
207.25
 21
143.75
  0
LINE
  8
_0-1_作画層１
  6
CONTINUOUS
 62
    7
 10
319.75
 20
193.75
 11
207.25
 21
193.75
  0
TEXT
  8
_0-7_注記層１
 62
    7
 10
209.75
 20
194.5
 40
3.5
 41
1
 50
0
  1
充　電　時　間
  0
TEXT
  8
_0-7_注記層１
 62
    7
 10
244.75
 20
194.5
 40
3.5
 41
1
 50
0
  1
－
  0
TEXT
  8
_0-7_注記層１
 62
    7
 10
244.75
 20
189.5
 40
3.5
 41
1
 50
0
  1
-10℃～50℃
  0
TEXT
  8
_0-7_注記層１
 62
    7
 10
212.25
 20
-26.25
 40
5
 41
1
 50
0
  1
スナオ電気株式会社
  0
TEXT
  8
_0-7_注記層１
 62
    7
 10
244.75
 20
154.5
 40
3.5
 41
1
 50
0
  1
約5VA
  0
TEXT
  8
_0-7_注記層１
 62
    7
 10
244.75
 20
219.5
 40
3.5
 41
1
 50
0
  1
SSC-242P
  0
TEXT
  8
_0-7_注記層１
 62
    7
 10
244.75
 20
214.5
 40
3.5
 41
1
 50
0
  1
AC100V
  0
TEXT
  8
_0-7_注記層１
 62
    7
 10
244.75
 20
199.5
 40
3.5
 41
1
 50
0
  1
10時間
  0
TEXT
  8
_0-7_注記層１
 62
    7
 10
244.75
 20
179.5
 40
3.5
 41
1
 50
0
  1
AC100V  10A
  0
TEXT
  8
_0-7_注記層１
 62
    7
 10
244.75
 20
174.5
 40
3.5
 41
1
 50
0
  1
電圧出力
  0
TEXT
  8
_0-7_注記層１
 62
    7
 10
244.75
 20
164.5
 40
3.5
 41
1
 50
0
  1
1分
  0
TEXT
  8
_0-7_注記層１
 62
    7
 10
244.75
 20
159.5
 40
3.5
 41
1
 50
0
  1
±15秒/月（25℃）
  0
TEXT
  8
_0-7_注記層１
 62
    7
 10
244.75
 20
149.5
 40
3.5
 41
1
 50
0
  1
200g
  0
TEXT
  8
_0-7_注記層１
 62
    7
 10
244.75
 20
139.5
 40
3.5
 41
1
 50
0
  1
取付ビス２本
  0
LINE
  8
_0-1_作画層１
  6
CONTINUOUS
 62
    7
 10
319.75
 20
138.75
 11
207.25
 21
138.75
  0
LINE
  8
_0-1_作画層１
  6
CONTINUOUS
 62
    7
 10
207.25
 20
138.75
 11
207.25
 21
223.75
  0
LINE
  8
_0-1_作画層１
  6
CONTINUOUS
 62
    7
 10
242.25
 20
138.75
 11
242.25
 21
223.75
  0
LINE
  8
_0-1_作画層１
  6
CONTINUOUS
 62
    7
 10
319.75
 20
138.75
 11
319.75
 21
223.75
  0
TEXT
  8
_0-7_注記層１
 62
    7
 10
-32.75
 20
233.75
 40
5
 41
1
 50
0
  1
外形寸法
  0
LINE
  8
_0-1_作画層１
  6
CONTINUOUS
 62
    7
 10
-35.25
 20
233.75
 11
-10.25
 21
233.75
  0
CIRCLE
  8
_0-1_作画層１
  6
CONTINUOUS
 62
    7
 10
92.257567025808072
 20
26.26170132798795
 40
5
  0
LINE
  8
_0-1_作画層１
  6
CONTINUOUS
 62
    7
 10
91.007567025808072
 20
30.63670132798795
 11
93.507567025808072
 21
30.63670132798795
  0
LINE
  8
_0-1_作画層１
  6
CONTINUOUS
 62
    7
 10
93.507567025808072
 20
21.88670132798795
 11
91.007567025808072
 21
21.88670132798795
  0
LINE
  8
_0-1_作画層１
  6
CONTINUOUS
 62
    7
 10
96.632567025808072
 20
27.51170132798795
 11
96.632567025808072
 21
25.01170132798795
  0
LINE
  8
_0-1_作画層１
  6
CONTINUOUS
 62
    7
 10
87.882567025808072
 20
25.01170132798795
 11
87.882567025808072
 21
27.51170132798795
  0
ARC
  8
_0-1_作画層１
  6
CONTINUOUS
 62
    7
 10
90.0075670258081
 20
28.511701327987936
 40
0.9999999999999713
 50
269.99999999999835
 51
0.0000000000008142
  0
LINE
  8
_0-1_作画層１
  6
CONTINUOUS
 62
    7
 10
87.882567025808072
 20
25.01170132798795
 11
90.007567025808072
 21
25.01170132798795
  0
ARC
  8
_0-1_作画層１
  6
CONTINUOUS
 62
    7
 10
90.0075670258081
 20
24.011701327987964
 40
0.9999999999999784
 50
359.99999999999881
 51
90.00000000000162
  0
LINE
  8
_0-1_作画層１
  6
CONTINUOUS
 62
    7
 10
96.632567025808072
 20
27.51170132798795
 11
94.507567025808072
 21
27.51170132798795
  0
ARC
  8
_0-1_作画層１
  6
CONTINUOUS
 62
    7
 10
94.507567025808044
 20
28.511701327987936
 40
0.9999999999999855
 50
179.99999999999918
 51
270.00000000000171
  0
LINE
  8
_0-1_作画層１
  6
CONTINUOUS
 62
    7
 10
90.007567152964668
 20
27.51170132798795
 11
87.882567025808072
 21
27.51170132798795
  0
LINE
  8
_0-1_作画層１
  6
CONTINUOUS
 62
    7
 10
96.632567025808072
 20
25.01170132798795
 11
94.507567025808072
 21
25.01170132798795
  0
LINE
  8
_0-1_作画層１
  6
CONTINUOUS
 62
    7
 10
93.507567025808072
 20
21.88670132798795
 11
93.507567025808072
 21
24.01170132798795
  0
ARC
  8
_0-1_作画層１
  6
CONTINUOUS
 62
    7
 10
94.507567025808044
 20
24.011701327987964
 40
0.9999999999999784
 50
89.99999999999838
 51
180.00000000000122
  0
LINE
  8
_0-1_作画層１
  6
CONTINUOUS
 62
    7
 10
91.007567025808072
 20
28.511701327987936
 11
91.007567025808072
 21
30.63670132798795
  0
LINE
  8
_0-1_作画層１
  6
CONTINUOUS
 62
    7
 10
91.007567025808072
 20
24.011701327987964
 11
91.007567025808072
 21
21.88670132798795
  0
LINE
  8
_0-1_作画層１
  6
CONTINUOUS
 62
    7
 10
93.507567025808072
 20
28.511701327987936
 11
93.507567025808072
 21
30.63670132798795
  0
CIRCLE
  8
_0-1_作画層１
  6
CONTINUOUS
 62
    7
 10
109.75756702580807
 20
26.26170132798795
 40
5
  0
LINE
  8
_0-1_作画層１
  6
CONTINUOUS
 62
    7
 10
108.50756702580807
 20
30.63670132798795
 11
111.00756702580807
 21
30.63670132798795
  0
LINE
  8
_0-1_作画層１
  6
CONTINUOUS
 62
    7
 10
111.00756702580807
 20
21.88670132798795
 11
108.50756702580807
 21
21.88670132798795
  0
LINE
  8
_0-1_作画層１
  6
CONTINUOUS
 62
    7
 10
114.13256702580807
 20
27.51170132798795
 11
114.13256702580807
 21
25.01170132798795
  0
LINE
  8
_0-1_作画層１
  6
CONTINUOUS
 62
    7
 10
105.38256702580807
 20
25.01170132798795
 11
105.38256702580807
 21
27.51170132798795
  0
ARC
  8
_0-1_作画層１
  6
CONTINUOUS
 62
    7
 10
107.5075670258081
 20
28.511701327987936
 40
0.9999999999999713
 50
269.99999999999835
 51
0.0000000000008142
  0
LINE
  8
_0-1_作画層１
  6
CONTINUOUS
 62
    7
 10
105.38256702580807
 20
25.01170132798795
 11
107.50756702580807
 21
25.01170132798795
  0
ARC
  8
_0-1_作画層１
  6
CONTINUOUS
 62
    7
 10
107.5075670258081
 20
24.011701327987964
 40
0.9999999999999784
 50
359.99999999999881
 51
90.00000000000162
  0
LINE
  8
_0-1_作画層１
  6
CONTINUOUS
 62
    7
 10
114.13256702580807
 20
27.51170132798795
 11
112.00756702580807
 21
27.51170132798795
  0
ARC
  8
_0-1_作画層１
  6
CONTINUOUS
 62
    7
 10
112.00756702580804
 20
28.511701327987936
 40
0.9999999999999855
 50
179.99999999999918
 51
270.00000000000171
  0
LINE
  8
_0-1_作画層１
  6
CONTINUOUS
 62
    7
 10
107.50756715296467
 20
27.51170132798795
 11
105.38256702580807
 21
27.51170132798795
  0
LINE
  8
_0-1_作画層１
  6
CONTINUOUS
 62
    7
 10
114.13256702580807
 20
25.01170132798795
 11
112.00756702580807
 21
25.01170132798795
  0
LINE
  8
_0-1_作画層１
  6
CONTINUOUS
 62
    7
 10
111.00756702580807
 20
21.88670132798795
 11
111.00756702580807
 21
24.01170132798795
  0
ARC
  8
_0-1_作画層１
  6
CONTINUOUS
 62
    7
 10
112.00756702580804
 20
24.011701327987964
 40
0.9999999999999784
 50
89.99999999999838
 51
180.00000000000122
  0
LINE
  8
_0-1_作画層１
  6
CONTINUOUS
 62
    7
 10
108.50756702580807
 20
28.511701327987936
 11
108.50756702580807
 21
30.63670132798795
  0
LINE
  8
_0-1_作画層１
  6
CONTINUOUS
 62
    7
 10
108.50756702580807
 20
24.011701327987964
 11
108.50756702580807
 21
21.88670132798795
  0
LINE
  8
_0-1_作画層１
  6
CONTINUOUS
 62
    7
 10
111.00756702580807
 20
28.511701327987936
 11
111.00756702580807
 21
30.63670132798795
  0
CIRCLE
  8
_0-1_作画層１
  6
CONTINUOUS
 62
    7
 10
127.25756702580807
 20
26.26170132798795
 40
5
  0
LINE
  8
_0-1_作画層１
  6
CONTINUOUS
 62
    7
 10
126.00756702580807
 20
30.63670132798795
 11
128.50756702580807
 21
30.63670132798795
  0
LINE
  8
_0-1_作画層１
  6
CONTINUOUS
 62
    7
 10
128.50756702580807
 20
21.88670132798795
 11
126.00756702580807
 21
21.88670132798795
  0
LINE
  8
_0-1_作画層１
  6
CONTINUOUS
 62
    7
 10
131.63256702580807
 20
27.51170132798795
 11
131.63256702580807
 21
25.01170132798795
  0
LINE
  8
_0-1_作画層１
  6
CONTINUOUS
 62
    7
 10
122.88256702580807
 20
25.01170132798795
 11
122.88256702580807
 21
27.51170132798795
  0
ARC
  8
_0-1_作画層１
  6
CONTINUOUS
 62
    7
 10
125.0075670258081
 20
28.511701327987936
 40
0.9999999999999713
 50
269.99999999999835
 51
0.0000000000008142
  0
LINE
  8
_0-1_作画層１
  6
CONTINUOUS
 62
    7
 10
122.88256702580807
 20
25.01170132798795
 11
125.00756702580807
 21
25.01170132798795
  0
ARC
  8
_0-1_作画層１
  6
CONTINUOUS
 62
    7
 10
125.0075670258081
 20
24.011701327987964
 40
0.9999999999999784
 50
359.99999999999881
 51
90.00000000000162
  0
LINE
  8
_0-1_作画層１
  6
CONTINUOUS
 62
    7
 10
131.63256702580807
 20
27.51170132798795
 11
129.50756702580807
 21
27.51170132798795
  0
ARC
  8
_0-1_作画層１
  6
CONTINUOUS
 62
    7
 10
129.50756702580804
 20
28.511701327987936
 40
0.9999999999999855
 50
179.99999999999918
 51
270.00000000000171
  0
LINE
  8
_0-1_作画層１
  6
CONTINUOUS
 62
    7
 10
125.00756715296467
 20
27.51170132798795
 11
122.88256702580807
 21
27.51170132798795
  0
LINE
  8
_0-1_作画層１
  6
CONTINUOUS
 62
    7
 10
131.63256702580807
 20
25.01170132798795
 11
129.50756702580807
 21
25.01170132798795
  0
LINE
  8
_0-1_作画層１
  6
CONTINUOUS
 62
    7
 10
128.50756702580807
 20
21.88670132798795
 11
128.50756702580807
 21
24.01170132798795
  0
ARC
  8
_0-1_作画層１
  6
CONTINUOUS
 62
    7
 10
129.50756702580804
 20
24.011701327987964
 40
0.9999999999999784
 50
89.99999999999838
 51
180.00000000000122
  0
LINE
  8
_0-1_作画層１
  6
CONTINUOUS
 62
    7
 10
126.00756702580807
 20
28.511701327987936
 11
126.00756702580807
 21
30.63670132798795
  0
LINE
  8
_0-1_作画層１
  6
CONTINUOUS
 62
    7
 10
126.00756702580807
 20
24.011701327987964
 11
126.00756702580807
 21
21.88670132798795
  0
LINE
  8
_0-1_作画層１
  6
CONTINUOUS
 62
    7
 10
128.50756702580807
 20
28.511701327987936
 11
128.50756702580807
 21
30.63670132798795
  0
CIRCLE
  8
_0-1_作画層１
  6
CONTINUOUS
 62
    7
 10
144.75756702580807
 20
26.26170132798795
 40
5
  0
LINE
  8
_0-1_作画層１
  6
CONTINUOUS
 62
    7
 10
143.50756702580807
 20
30.63670132798795
 11
146.00756702580807
 21
30.63670132798795
  0
LINE
  8
_0-1_作画層１
  6
CONTINUOUS
 62
    7
 10
146.00756702580807
 20
21.88670132798795
 11
143.50756702580807
 21
21.88670132798795
  0
LINE
  8
_0-1_作画層１
  6
CONTINUOUS
 62
    7
 10
149.13256702580807
 20
27.51170132798795
 11
149.13256702580807
 21
25.01170132798795
  0
LINE
  8
_0-1_作画層１
  6
CONTINUOUS
 62
    7
 10
140.38256702580807
 20
25.01170132798795
 11
140.38256702580807
 21
27.51170132798795
  0
ARC
  8
_0-1_作画層１
  6
CONTINUOUS
 62
    7
 10
142.5075670258081
 20
28.511701327987936
 40
0.9999999999999713
 50
269.99999999999835
 51
0.0000000000008142
  0
LINE
  8
_0-1_作画層１
  6
CONTINUOUS
 62
    7
 10
140.38256702580807
 20
25.01170132798795
 11
142.50756702580807
 21
25.01170132798795
  0
ARC
  8
_0-1_作画層１
  6
CONTINUOUS
 62
    7
 10
142.5075670258081
 20
24.011701327987964
 40
0.9999999999999784
 50
359.99999999999881
 51
90.00000000000162
  0
LINE
  8
_0-1_作画層１
  6
CONTINUOUS
 62
    7
 10
149.13256702580807
 20
27.51170132798795
 11
147.00756702580807
 21
27.51170132798795
  0
ARC
  8
_0-1_作画層１
  6
CONTINUOUS
 62
    7
 10
147.00756702580804
 20
28.511701327987936
 40
0.9999999999999855
 50
179.99999999999918
 51
270.00000000000171
  0
LINE
  8
_0-1_作画層１
  6
CONTINUOUS
 62
    7
 10
142.50756715296467
 20
27.51170132798795
 11
140.38256702580807
 21
27.51170132798795
  0
LINE
  8
_0-1_作画層１
  6
CONTINUOUS
 62
    7
 10
149.13256702580807
 20
25.01170132798795
 11
147.00756702580807
 21
25.01170132798795
  0
LINE
  8
_0-1_作画層１
  6
CONTINUOUS
 62
    7
 10
146.00756702580807
 20
21.88670132798795
 11
146.00756702580807
 21
24.01170132798795
  0
ARC
  8
_0-1_作画層１
  6
CONTINUOUS
 62
    7
 10
147.00756702580804
 20
24.011701327987964
 40
0.9999999999999784
 50
89.99999999999838
 51
180.00000000000122
  0
LINE
  8
_0-1_作画層１
  6
CONTINUOUS
 62
    7
 10
143.50756702580807
 20
28.511701327987936
 11
143.50756702580807
 21
30.63670132798795
  0
LINE
  8
_0-1_作画層１
  6
CONTINUOUS
 62
    7
 10
143.50756702580807
 20
24.011701327987964
 11
143.50756702580807
 21
21.88670132798795
  0
LINE
  8
_0-1_作画層１
  6
CONTINUOUS
 62
    7
 10
146.00756702580807
 20
28.511701327987936
 11
146.00756702580807
 21
30.63670132798795
  0
CIRCLE
  8
_0-1_作画層１
  6
CONTINUOUS
 62
    7
 10
101.00756702580807
 20
3.7617013279879501
 40
5
  0
ARC
  8
_0-1_作画層１
  6
CONTINUOUS
 62
    7
 10
99.4450670258081
 20
3.9216757948168492
 40
1.5706680362307956
 50
185.84578235473438
 51
354.15421764526531
  0
ARC
  8
_0-1_作画層１
  6
CONTINUOUS
 62
    7
 10
102.57006702580807
 20
3.6017268611589941
 40
1.5706680362308283
 50
5.8457823547360706
 51
174.15421764526394
  0
LINE
  8
_0-1_作画層１
  6
CONTINUOUS
 62
    7
 10
96.007567025808072
 20
3.7617013279879501
 11
92.257567025808072
 21
3.7617013279879501
  0
LINE
  8
_0-1_作画層１
  6
CONTINUOUS
 62
    7
 10
109.75756702580807
 20
3.7617013279879501
 11
106.00756702580807
 21
3.7617013279879501
  0
LINE
  8
_0-1_作画層１
  6
CONTINUOUS
 62
    7
 10
92.257567025808072
 20
18.76170132798795
 11
92.257567025808072
 21
3.7617013279879501
  0
LINE
  8
_0-1_作画層１
  6
CONTINUOUS
 62
    7
 10
109.75756702580807
 20
18.76170132798795
 11
109.75756702580807
 21
3.7617013279879501
  0
LINE
  8
_0-1_作画層１
  6
DASHED
 62
    7
 10
72.257567025808072
 20
58.76170132798795
 11
72.257567025808072
 21
26.26170132798795
  0
LINE
  8
_0-1_作画層１
  6
DASHED
 62
    7
 10
72.257567025808072
 20
26.26170132798795
 11
84.757567025808072
 21
26.26170132798795
  0
LINE
  8
_0-1_作画層１
  6
CONTINUOUS
 62
    7
 10
84.757567025808072
 20
33.76170132798795
 11
152.25756702580807
 21
33.76170132798795
  0
LINE
  8
_0-1_作画層１
  6
CONTINUOUS
 62
    7
 10
84.757567025808072
 20
18.76170132798795
 11
84.757567025808072
 21
33.76170132798795
  0
LINE
  8
_0-1_作画層１
  6
CONTINUOUS
 62
    7
 10
129.75756702580807
 20
-11.23829867201205
 11
127.25756702580807
 21
-11.23829867201205
  0
TEXT
  8
_0-7_注記層１
 62
    7
 10
131.25756702580807
 20
-12.98829867201205
 40
3.5
 41
1
 50
0
  1
負荷
  0
LINE
  8
_0-1_作画層１
  6
CONTINUOUS
 62
    7
 10
129.75756702580807
 20
-13.73829867201205
 11
139.75756702580807
 21
-13.73829867201205
  0
LINE
  8
_0-1_作画層１
  6
CONTINUOUS
 62
    7
 10
139.75756702580807
 20
-13.73829867201205
 11
139.75756702580807
 21
-8.7382986720120499
  0
LINE
  8
_0-1_作画層１
  6
CONTINUOUS
 62
    7
 10
139.75756702580807
 20
-8.7382986720120499
 11
129.75756702580807
 21
-8.7382986720120499
  0
LINE
  8
_0-1_作画層１
  6
CONTINUOUS
 62
    7
 10
129.75756702580807
 20
-8.7382986720120499
 11
129.75756702580807
 21
-13.73829867201205
  0
LINE
  8
_0-1_作画層１
  6
CONTINUOUS
 62
    7
 10
127.25756702580807
 20
18.76170132798795
 11
127.25756702580807
 21
-11.23829867201205
  0
LINE
  8
_0-1_作画層１
  6
CONTINUOUS
 62
    7
 10
-10.242432974191956
 20
221.26170132798791
 11
39.757567025808072
 21
221.26170132798791
  0
ARC
  8
_0-1_作画層１
  6
CONTINUOUS
 62
    7
 10
39.757567025808072
 20
211.26170132798794
 40
9.9999999999999716
 50
359.99999999999989
 51
90.000000000000014
  0
LINE
  8
_0-1_作画層１
  6
CONTINUOUS
 62
    7
 10
49.757567025808072
 20
211.26170132798791
 11
49.757567025808058
 21
111.26170132798796
  0
ARC
  8
_0-1_作画層１
  6
CONTINUOUS
 62
    7
 10
39.757567025808058
 20
111.26170132798796
 40
10
 50
270
 51
0
  0
LINE
  8
_0-1_作画層１
  6
CONTINUOUS
 62
    7
 10
39.757567025808058
 20
101.26170132798796
 11
-10.242432974191956
 21
101.26170132798796
  0
LINE
  8
_0-1_作画層１
  6
CONTINUOUS
 62
    7
 10
-20.242432974191956
 20
211.26170132798791
 11
-20.242432974191956
 21
111.26170132798796
  0
ARC
  8
_0-1_作画層１
  6
CONTINUOUS
 62
    7
 10
-10.242432974191956
 20
111.26170132798796
 40
10
 50
180
 51
270.00000000000006
  0
ARC
  8
_0-1_作画層１
  6
CONTINUOUS
 62
    7
 10
-7.7424329741919564
 20
208.26170132798794
 40
6.9999999999999716
 50
89.999999999999901
 51
180.0000000000002
  0
LINE
  8
_0-1_作画層１
  6
CONTINUOUS
 62
    7
 10
-14.742432974191956
 20
208.26170132798791
 11
-14.742432974191956
 21
114.26170132798796
  0
ARC
  8
_0-1_作画層１
  6
CONTINUOUS
 62
    7
 10
-7.7424329741919564
 20
114.26170132798794
 40
6.9999999999999858
 50
179.9999999999998
 51
270.00000000000011
  0
LINE
  8
_0-1_作画層１
  6
CONTINUOUS
 62
    7
 10
-7.7424329741919564
 20
107.26170132798796
 11
37.257567025808072
 21
107.26170132798796
  0
ARC
  8
_0-1_作画層１
  6
CONTINUOUS
 62
    7
 10
37.257567025808086
 20
114.26170132798791
 40
6.9999999999999432
 50
269.99999999999989
 51
0.0000000000004579
  0
LINE
  8
_0-1_作画層１
  6
CONTINUOUS
 62
    7
 10
44.257567025808058
 20
114.26170132798796
 11
44.257567025808072
 21
208.26170132798791
  0
LINE
  8
_0-1_作画層１
  6
CONTINUOUS
 62
    7
 10
-7.7424329741919564
 20
215.26170132798791
 11
37.257567025808072
 21
215.26170132798791
  0
ARC
  8
_0-1_作画層１
  6
CONTINUOUS
 62
    7
 10
37.257567025808086
 20
208.26170132798794
 40
6.9999999999999858
 50
359.99999999999977
 51
90.000000000000085
  0
CIRCLE
  8
_0-1_作画層１
  6
CONTINUOUS
 62
    7
 10
14.757567025808044
 20
196.26170132798791
 40
6.2999999999999998
  0
ARC
  8
_0-1_作画層１
  6
CONTINUOUS
 62
    7
 10
-1.2424329741919564
 20
173.26170132798794
 40
0.9999999999999784
 50
89.999999999998778
 51
180.00000000000162
  0
LINE
  8
_0-1_作画層１
  6
CONTINUOUS
 62
    7
 10
-2.2424329741919564
 20
173.26170132798791
 11
-2.2424329741919564
 21
161.26170132798791
  0
ARC
  8
_0-1_作画層１
  6
CONTINUOUS
 62
    7
 10
-1.2424329741919564
 20
161.26170132798788
 40
0.9999999999999784
 50
179.99999999999838
 51
270.00000000000119
  0
LINE
  8
_0-1_作画層１
  6
CONTINUOUS
 62
    7
 10
-1.2424329741919564
 20
160.26170132798791
 11
30.757567025808072
 21
160.26170132798791
  0
ARC
  8
_0-1_作画層１
  6
CONTINUOUS
 62
    7
 10
30.757567025808086
 20
161.26170132798788
 40
0.9999999999999713
 50
269.9999999999992
 51
0.0000000000016284
  0
LINE
  8
_0-1_作画層１
  6
CONTINUOUS
 62
    7
 10
31.757567025808072
 20
161.26170132798791
 11
31.757567025808072
 21
173.26170132798791
  0
LINE
  8
_0-1_作画層１
  6
CONTINUOUS
 62
    7
 10
-1.2424329741919564
 20
174.26170132798791
 11
30.757567025808072
 21
174.26170132798791
  0
ARC
  8
_0-1_作画層１
  6
CONTINUOUS
 62
    7
 10
30.757567025808086
 20
173.26170132798794
 40
0.9999999999999855
 50
359.99999999999835
 51
90.00000000000081
  0
CIRCLE
  8
_0-1_作画層１
  6
CONTINUOUS
 62
    7
 10
37.948550031433115
 20
172.37973531673782
 40
4
  0
CIRCLE
  8
_0-1_作画層１
  6
CONTINUOUS
 62
    7
 10
37.948550031433115
 20
162.37973531673782
 40
4
  0
CIRCLE
  8
_0-1_作画層１
  6
CONTINUOUS
 62
    7
 10
27.257567025808058
 20
178.76170132798794
 40
1
  0
CIRCLE
  8
_0-1_作画層１
  6
CONTINUOUS
 62
    7
 10
27.257567025808058
 20
183.76170132798794
 40
1
  0
TEXT
  8
_0-7_注記層１
 62
    7
 10
35.448550031433115
 20
169.87973531673782
 40
5
 41
1
 50
0
  1
＋
  0
TEXT
  8
_0-7_注記層１
 62
    7
 10
35.448550031433115
 20
159.87973531673782
 40
5
 41
1
 50
0
  1
－
  0
TEXT
  8
_0-7_注記層１
 62
    7
 10
8.7575670258080436
 20
181.76170132798794
 40
4
 41
1
 50
0
  1
入時刻
  0
TEXT
  8
_0-7_注記層１
 62
    7
 10
8.7575670258080436
 20
176.76170132798794
 40
4
 41
1
 50
0
  1
切時刻
  0
TEXT
  8
_0-7_注記層１
 62
    7
 10
-11.742432974191956
 20
167.51170132798794
 40
4
 41
1
 50
0
  1
ＡＭ
  0
TEXT
  8
_0-7_注記層１
 62
    7
 10
-11.742432974191956
 20
163.51170132798794
 40
4
 41
1
 50
0
  1
ＰＭ
  0
ARC
  8
_0-1_作画層１
  6
CONTINUOUS
 62
    7
 10
-7.242432974191928
 20
148.51170132798796
 40
3
 50
90.000000000000284
 51
180
  0
LINE
  8
_0-1_作画層１
  6
CONTINUOUS
 62
    7
 10
-7.2424329741919564
 20
151.51170132798796
 11
2.7575670258080436
 21
151.51170132798796
  0
ARC
  8
_0-1_作画層１
  6
CONTINUOUS
 62
    7
 10
2.7575670258080436
 20
148.51170132798796
 40
3
 50
0
 51
89.99999999999973
  0
LINE
  8
_0-1_作画層１
  6
CONTINUOUS
 62
    7
 10
5.7575670258080436
 20
148.51170132798796
 11
5.7575670258080436
 21
119.51170132798796
  0
ARC
  8
_0-1_作画層１
  6
CONTINUOUS
 62
    7
 10
2.7575670258080436
 20
119.51170132798796
 40
3.0000000000000142
 50
270.00000000000023
 51
0.0000000000000254
  0
LINE
  8
_0-1_作画層１
  6
CONTINUOUS
 62
    7
 10
2.7575670258080436
 20
116.51170132798796
 11
-7.2424329741919564
 21
116.51170132798796
  0
LINE
  8
_0-1_作画層１
  6
CONTINUOUS
 62
    7
 10
-10.242432974191956
 20
148.51170132798796
 11
-10.242432974191956
 21
119.51170132798796
  0
ARC
  8
_0-1_作画層１
  6
CONTINUOUS
 62
    7
 10
-7.242432974191928
 20
119.51170132798796
 40
3
 50
180
 51
269.99999999999972
  0
ARC
  8
_0-1_作画層１
  6
CONTINUOUS
 62
    7
 10
10.757567025808044
 20
147.76170132798796
 40
0.9999999999999713
 50
89.99999999999919
 51
180.00000000000162
  0
LINE
  8
_0-1_作画層１
  6
CONTINUOUS
 62
    7
 10
9.7575670258080436
 20
147.76170132798794
 11
9.7575670258080436
 21
139.76170132798794
  0
ARC
  8
_0-1_作画層１
  6
CONTINUOUS
 62
    7
 10
10.757567025808044
 20
139.76170132798791
 40
0.9999999999999855
 50
179.99999999999838
 51
270.0000000000008
  0
LINE
  8
_0-1_作画層１
  6
CONTINUOUS
 62
    7
 10
10.757567025808044
 20
138.76170132798794
 11
18.757567025808044
 21
138.76170132798794
  0
ARC
  8
_0-1_作画層１
  6
CONTINUOUS
 62
    7
 10
18.757567025808072
 20
139.76170132798791
 40
0.9999999999999713
 50
269.9999999999992
 51
0.0000000000016284
  0
LINE
  8
_0-1_作画層１
  6
CONTINUOUS
 62
    7
 10
19.757567025808044
 20
139.76170132798794
 11
19.757567025808044
 21
147.76170132798794
  0
LINE
  8
_0-1_作画層１
  6
CONTINUOUS
 62
    7
 10
10.757567025808044
 20
148.76170132798794
 11
18.757567025808044
 21
148.76170132798794
  0
ARC
  8
_0-1_作画層１
  6
CONTINUOUS
 62
    7
 10
18.757567025808072
 20
147.76170132798796
 40
0.9999999999999855
 50
359.99999999999835
 51
90.00000000000081
  0
ARC
  8
_0-1_作画層１
  6
CONTINUOUS
 62
    7
 10
10.757567025808044
 20
130.26170132798796
 40
0.9999999999999713
 50
89.99999999999919
 51
180.00000000000162
  0
LINE
  8
_0-1_作画層１
  6
CONTINUOUS
 62
    7
 10
9.7575670258080436
 20
130.26170132798794
 11
9.7575670258080436
 21
122.26170132798794
  0
ARC
  8
_0-1_作画層１
  6
CONTINUOUS
 62
    7
 10
10.757567025808044
 20
122.26170132798791
 40
0.9999999999999855
 50
179.99999999999838
 51
270.0000000000008
  0
LINE
  8
_0-1_作画層１
  6
CONTINUOUS
 62
    7
 10
10.757567025808044
 20
121.26170132798794
 11
18.757567025808044
 21
121.26170132798794
  0
ARC
  8
_0-1_作画層１
  6
CONTINUOUS
 62
    7
 10
18.757567025808072
 20
122.26170132798791
 40
0.9999999999999713
 50
269.9999999999992
 51
0.0000000000016284
  0
LINE
  8
_0-1_作画層１
  6
CONTINUOUS
 62
    7
 10
19.757567025808044
 20
122.26170132798794
 11
19.757567025808044
 21
130.26170132798794
  0
LINE
  8
_0-1_作画層１
  6
CONTINUOUS
 62
    7
 10
10.757567025808044
 20
131.26170132798794
 11
18.757567025808044
 21
131.26170132798794
  0
ARC
  8
_0-1_作画層１
  6
CONTINUOUS
 62
    7
 10
18.757567025808072
 20
130.26170132798796
 40
0.9999999999999855
 50
359.99999999999835
 51
90.00000000000081
  0
TEXT
  8
_0-7_注記層１
 62
    7
 10
9.1325670258080436
 20
135.01170132798794
 40
2.5
 41
1
 50
0
  1
設定/確定
  0
ARC
  8
_0-1_作画層１
  6
CONTINUOUS
 62
    7
 10
28.257567025808044
 20
147.76170132798796
 40
0.9999999999999713
 50
89.99999999999919
 51
180.00000000000162
  0
LINE
  8
_0-1_作画層１
  6
CONTINUOUS
 62
    7
 10
27.257567025808058
 20
147.76170132798794
 11
27.257567025808058
 21
139.76170132798794
  0
ARC
  8
_0-1_作画層１
  6
CONTINUOUS
 62
    7
 10
28.257567025808044
 20
139.76170132798791
 40
0.9999999999999855
 50
179.99999999999838
 51
270.0000000000008
  0
LINE
  8
_0-1_作画層１
  6
CONTINUOUS
 62
    7
 10
28.257567025808058
 20
138.76170132798794
 11
36.257567025808058
 21
138.76170132798794
  0
ARC
  8
_0-1_作画層１
  6
CONTINUOUS
 62
    7
 10
36.257567025808072
 20
139.76170132798791
 40
0.9999999999999713
 50
269.9999999999992
 51
0.0000000000016284
  0
LINE
  8
_0-1_作画層１
  6
CONTINUOUS
 62
    7
 10
37.257567025808058
 20
139.76170132798794
 11
37.257567025808058
 21
147.76170132798794
  0
LINE
  8
_0-1_作画層１
  6
CONTINUOUS
 62
    7
 10
28.257567025808058
 20
148.76170132798794
 11
36.257567025808058
 21
148.76170132798794
  0
ARC
  8
_0-1_作画層１
  6
CONTINUOUS
 62
    7
 10
36.257567025808072
 20
147.76170132798796
 40
0.9999999999999855
 50
359.99999999999835
 51
90.00000000000081
  0
ARC
  8
_0-1_作画層１
  6
CONTINUOUS
 62
    7
 10
28.257567025808044
 20
130.26170132798796
 40
0.9999999999999713
 50
89.99999999999919
 51
180.00000000000162
  0
LINE
  8
_0-1_作画層１
  6
CONTINUOUS
 62
    7
 10
27.257567025808058
 20
130.26170132798794
 11
27.257567025808058
 21
122.26170132798794
  0
ARC
  8
_0-1_作画層１
  6
CONTINUOUS
 62
    7
 10
28.257567025808044
 20
122.26170132798791
 40
0.9999999999999855
 50
179.99999999999838
 51
270.0000000000008
  0
LINE
  8
_0-1_作画層１
  6
CONTINUOUS
 62
    7
 10
28.257567025808058
 20
121.26170132798794
 11
36.257567025808058
 21
121.26170132798794
  0
ARC
  8
_0-1_作画層１
  6
CONTINUOUS
 62
    7
 10
36.257567025808072
 20
122.26170132798791
 40
0.9999999999999713
 50
269.9999999999992
 51
0.0000000000016284
  0
LINE
  8
_0-1_作画層１
  6
CONTINUOUS
 62
    7
 10
37.257567025808058
 20
122.26170132798794
 11
37.257567025808058
 21
130.26170132798794
  0
LINE
  8
_0-1_作画層１
  6
CONTINUOUS
 62
    7
 10
28.257567025808058
 20
131.26170132798794
 11
36.257567025808058
 21
131.26170132798794
  0
ARC
  8
_0-1_作画層１
  6
CONTINUOUS
 62
    7
 10
36.257567025808072
 20
130.26170132798796
 40
0.9999999999999855
 50
359.99999999999835
 51
90.00000000000081
  0
TEXT
  8
_0-7_注記層１
 62
    7
 10
26.632567025808058
 20
135.01170132798794
 40
2.5
 41
1
 50
0
  1
設定/確定
  0
TEXT
  8
_0-7_注記層１
 62
    7
 10
28.257567025808058
 20
141.76170132798794
 40
4
 41
1
 50
0
  1
動作
  0
TEXT
  8
_0-7_注記層１
 62
    7
 10
10.757567025808044
 20
194.26170132798794
 40
4
 41
1
 50
0
  1
自動
  0
TEXT
  8
_0-7_注記層１
 62
    7
 10
10.757567025808044
 20
141.76170132798794
 40
4
 41
1
 50
0
  1
時計
  0
TEXT
  8
_0-7_注記層１
 62
    7
 10
10.757567025808044
 20
126.76170132798794
 40
4
 41
1
 50
0
  1
手動
  0
TEXT
  8
_0-7_注記層１
 62
    7
 10
11.632567025808044
 20
122.51170132798794
 40
2.5
 41
1
 50
0
  1
入/切
  0
TEXT
  8
_0-7_注記層１
 62
    7
 10
28.257567025808058
 20
124.26170132798794
 40
4
 41
1
 50
0
  1
取消
  0
TEXT
  8
_0-7_注記層１
 62
    7
 10
-8.2424329741919564
 20
134.26170132798794
 40
4
 41
1
 50
0
  1
出力
  0
TEXT
  8
_0-7_注記層１
 62
    7
 10
-7.2424329741919564
 20
142.01170132798794
 40
3.5
 41
1
 50
0
  1
自動
  0
TEXT
  8
_0-7_注記層１
 62
    7
 10
-4.2424329741919564
 20
124.26170132798794
 40
4
 41
1
 50
0
  1
入
  0
TEXT
  8
_0-7_注記層１
 62
    7
 10
-4.2424329741919564
 20
119.26170132798794
 40
4
 41
1
 50
0
  1
切
  0
CIRCLE
  8
_0-1_作画層１
  6
CONTINUOUS
 62
    7
 10
2.2575670258080436
 20
121.26170132798794
 40
1
  0
CIRCLE
  8
_0-1_作画層１
  6
CONTINUOUS
 62
    7
 10
2.2575670258080436
 20
126.26170132798794
 40
1
  0
CIRCLE
  8
_0-1_作画層１
  6
CONTINUOUS
 62
    7
 10
2.2575670258080436
 20
143.76170132798794
 40
1
  0
TEXT
  8
_0-7_注記層１
 62
    7
 10
20.257567025808044
 20
154.51170132798794
 40
3.5
 41
1
 50
0
  1
出力
  0
LINE
  8
_0-1_作画層１
  6
CONTINUOUS
 62
    7
 10
27.257567025808058
 20
156.26170132798794
 11
29.757567025808058
 21
156.26170132798794
  0
LINE
  8
_0-1_作画層１
  6
CONTINUOUS
 62
    7
 10
29.757567025808058
 20
160.26170132798791
 11
29.757567025808058
 21
156.26170132798794
  0
LINE
  8
_0-1_作画層１
  6
CONTINUOUS
 62
    7
 10
0.1150620948415905
 20
111.17910763962502
 11
0.1143756017595762
 21
111.18887744918155
  0
LINE
  8
_0-1_作画層１
  6
CONTINUOUS
 62
    7
 10
0.1143756017595762
 20
111.18887744918155
 11
0.1143258331653669
 21
111.19698412974424
  0
LINE
  8
_0-1_作画層１
  6
CONTINUOUS
 62
    7
 10
0.1143258331653669
 20
111.19698412974424
 11
0.1144759317035948
 21
111.20705357117356
  0
LINE
  8
_0-1_作画層１
  6
CONTINUOUS
 62
    7
 10
0.1144759317035948
 20
111.20705357117356
 11
0.1148290587502742
 21
111.21894695622731
  0
LINE
  8
_0-1_作画層１
  6
CONTINUOUS
 62
    7
 10
0.1148290587502742
 20
111.21894695622731
 11
0.1153883756813058
 21
111.23252546766329
  0
LINE
  8
_0-1_作画層１
  6
CONTINUOUS
 62
    7
 10
0.1153883756813058
 20
111.23252546766329
 11
0.1161570438726471
 21
111.24765028823916
  0
LINE
  8
_0-1_作画層１
  6
CONTINUOUS
 62
    7
 10
0.1161570438726471
 20
111.24765028823916
 11
0.1171382247003123
 21
111.26418260071287
  0
LINE
  8
_0-1_作画層１
  6
CONTINUOUS
 62
    7
 10
0.1171382247003123
 20
111.26418260071287
 11
0.118335079540202
 21
111.28198358784206
  0
LINE
  8
_0-1_作画層１
  6
CONTINUOUS
 62
    7
 10
0.118335079540202
 20
111.28198358784206
 11
0.1197507697682738
 21
111.30091443238459
  0
LINE
  8
_0-1_作画層１
  6
CONTINUOUS
 62
    7
 10
0.1197507697682738
 20
111.30091443238459
 11
0.121388456760485
 21
111.32083631709813
  0
LINE
  8
_0-1_作画層１
  6
CONTINUOUS
 62
    7
 10
0.121388456760485
 20
111.32083631709813
 11
0.12325130189285
 21
111.34161042474057
  0
LINE
  8
_0-1_作画層１
  6
CONTINUOUS
 62
    7
 10
0.12325130189285
 20
111.34161042474057
 11
0.125342466541241
 21
111.36309793806961
  0
LINE
  8
_0-1_作画層１
  6
CONTINUOUS
 62
    7
 10
0.125342466541241
 20
111.36309793806961
 11
0.1276651120816723
 21
111.3851600398431
  0
LINE
  8
_0-1_作画層１
  6
CONTINUOUS
 62
    7
 10
0.1276651120816723
 20
111.3851600398431
 11
0.1302223998900444
 21
111.40765791281871
  0
LINE
  8
_0-1_作画層１
  6
CONTINUOUS
 62
    7
 10
0.1302223998900444
 20
111.40765791281871
 11
0.1330174913423434
 21
111.43045273975432
  0
LINE
  8
_0-1_作画層１
  6
CONTINUOUS
 62
    7
 10
0.1330174913423434
 20
111.43045273975432
 11
0.1360535478145266
 21
111.45340570340761
  0
LINE
  8
_0-1_作画層１
  6
CONTINUOUS
 62
    7
 10
0.1360535478145266
 20
111.45340570340761
 11
0.1393337306825799
 21
111.47637798653645
  0
LINE
  8
_0-1_作画層１
  6
CONTINUOUS
 62
    7
 10
0.1393337306825799
 20
111.47637798653645
 11
0.1428612013224039
 21
111.49923077189854
  0
LINE
  8
_0-1_作画層１
  6
CONTINUOUS
 62
    7
 10
0.1428612013224039
 20
111.49923077189854
 11
0.1466391211099562
 21
111.52182524225171
  0
LINE
  8
_0-1_作画層１
  6
CONTINUOUS
 62
    7
 10
0.1466391211099562
 20
111.52182524225171
 11
0.1506706514212226
 21
111.54402258035367
  0
LINE
  8
_0-1_作画層１
  6
CONTINUOUS
 62
    7
 10
0.1506706514212226
 20
111.54402258035367
 11
0.1549589536321605
 21
111.56568396896225
  0
LINE
  8
_0-1_作画層１
  6
CONTINUOUS
 62
    7
 10
0.1549589536321605
 20
111.56568396896225
 11
0.1595071891186989
 21
111.58667059083524
  0
LINE
  8
_0-1_作画層１
  6
CONTINUOUS
 62
    7
 10
0.1595071891186989
 20
111.58667059083524
 11
0.1643185192568239
 21
111.60684362873036
  0
LINE
  8
_0-1_作画層１
  6
CONTINUOUS
 62
    7
 10
0.1643185192568239
 20
111.60684362873036
 11
0.1693961054224359
 21
111.6260642654054
  0
LINE
  8
_0-1_作画層１
  6
CONTINUOUS
 62
    7
 10
0.1693961054224359
 20
111.6260642654054
 11
0.1747431089915494
 21
111.64419368361814
  0
LINE
  8
_0-1_作画層１
  6
CONTINUOUS
 62
    7
 10
0.1747431089915494
 20
111.64419368361814
 11
0.1803626913400933
 21
111.6610930661264
  0
LINE
  8
_0-1_作画層１
  6
CONTINUOUS
 62
    7
 10
0.1803626913400933
 20
111.6610930661264
 11
0.186258013844025
 21
111.67662359568789
  0
LINE
  8
_0-1_作画層１
  6
CONTINUOUS
 62
    7
 10
0.186258013844025
 20
111.67662359568789
 11
0.1924322378793021
 21
111.6906464550604
  0
LINE
  8
_0-1_作画層１
  6
CONTINUOUS
 62
    7
 10
0.1924322378793021
 20
111.6906464550604
 11
0.1988885248218821
 21
111.70302282700175
  0
LINE
  8
_0-1_作画層１
  6
CONTINUOUS
 62
    7
 10
0.1988885248218821
 20
111.70302282700175
 11
0.2337370766890956
 21
111.75787932541692
  0
LINE
  8
_0-1_作画層１
  6
CONTINUOUS
 62
    7
 10
0.2337370766890956
 20
111.75787932541692
 11
0.2543369001954261
 21
111.78657359544809
  0
LINE
  8
_0-1_作画層１
  6
CONTINUOUS
 62
    7
 10
0.2543369001954261
 20
111.78657359544809
 11
0.27688838177977
 21
111.81597010199673
  0
LINE
  8
_0-1_作画層１
  6
CONTINUOUS
 62
    7
 10
0.27688838177977
 20
111.81597010199673
 11
0.3012674912144177
 21
111.84596251203916
  0
LINE
  8
_0-1_作画層１
  6
CONTINUOUS
 62
    7
 10
0.3012674912144177
 20
111.84596251203916
 11
0.3273501982715174
 21
111.87644449255174
  0
LINE
  8
_0-1_作画層１
  6
CONTINUOUS
 62
    7
 10
0.3273501982715174
 20
111.87644449255174
 11
0.3550124727232173
 21
111.90730971051067
  0
LINE
  8
_0-1_作画層１
  6
CONTINUOUS
 62
    7
 10
0.3550124727232173
 20
111.90730971051067
 11
0.3841302843418645
 21
111.93845183289244
  0
LINE
  8
_0-1_作画層１
  6
CONTINUOUS
 62
    7
 10
0.3841302843418645
 20
111.93845183289244
 11
0.4145796028995221
 21
111.9697645266732
  0
LINE
  8
_0-1_作画層１
  6
CONTINUOUS
 62
    7
 10
0.4145796028995221
 20
111.9697645266732
 11
0.4462363981684802
 21
112.00114145882944
  0
LINE
  8
_0-1_作画層１
  6
CONTINUOUS
 62
    7
 10
0.4462363981684802
 20
112.00114145882944
 11
0.4789766399208303
 21
112.03247629633731
  0
LINE
  8
_0-1_作画層１
  6
CONTINUOUS
 62
    7
 10
0.4789766399208303
 20
112.03247629633731
 11
0.5126762979289196
 21
112.06366270617329
  0
LINE
  8
_0-1_作画層１
  6
CONTINUOUS
 62
    7
 10
0.5126762979289196
 20
112.06366270617329
 11
0.547211341964811
 21
112.09459435531363
  0
LINE
  8
_0-1_作画層１
  6
CONTINUOUS
 62
    7
 10
0.547211341964811
 20
112.09459435531363
 11
0.5824577418007947
 21
112.12516491073458
  0
LINE
  8
_0-1_作画層１
  6
CONTINUOUS
 62
    7
 10
0.5824577418007947
 20
112.12516491073458
 11
0.6182914672090191
 21
112.15526803941256
  0
LINE
  8
_0-1_作画層１
  6
CONTINUOUS
 62
    7
 10
0.6182914672090191
 20
112.15526803941256
 11
0.654588487961746
 21
112.18479740832387
  0
LINE
  8
_0-1_作画層１
  6
CONTINUOUS
 62
    7
 10
0.654588487961746
 20
112.18479740832387
 11
0.6912247738310952
 21
112.2136466844448
  0
LINE
  8
_0-1_作画層１
  6
CONTINUOUS
 62
    7
 10
0.6912247738310952
 20
112.2136466844448
 11
0.7280762945893286
 21
112.24170953475169
  0
LINE
  8
_0-1_作画層１
  6
CONTINUOUS
 62
    7
 10
0.7280762945893286
 20
112.24170953475169
 11
0.7650190200085944
 21
112.26887962622087
  0
LINE
  8
_0-1_作画層１
  6
CONTINUOUS
 62
    7
 10
0.7650190200085944
 20
112.26887962622087
 11
0.8019289198611545
 21
112.29505062582862
  0
LINE
  8
_0-1_作画層１
  6
CONTINUOUS
 62
    7
 10
0.8019289198611545
 20
112.29505062582862
 11
0.8386819639191571
 21
112.32011620055127
  0
LINE
  8
_0-1_作画層１
  6
CONTINUOUS
 62
    7
 10
0.8386819639191571
 20
112.32011620055127
 11
0.8751541219548073
 21
112.34397001736517
  0
LINE
  8
_0-1_作画層１
  6
CONTINUOUS
 62
    7
 10
0.8751541219548073
 20
112.34397001736517
 11
0.911221363740367
 21
112.36650574324665
  0
LINE
  8
_0-1_作画層１
  6
CONTINUOUS
 62
    7
 10
0.911221363740367
 20
112.36650574324665
 11
0.9467596590479274
 21
112.38761704517196
  0
LINE
  8
_0-1_作画層１
  6
CONTINUOUS
 62
    7
 10
0.9467596590479274
 20
112.38761704517196
 11
0.9816449776498075
 21
112.40719759011751
  0
LINE
  8
_0-1_作画層１
  6
CONTINUOUS
 62
    7
 10
0.9816449776498075
 20
112.40719759011751
 11
1.0157532893180985
 21
112.42514104505958
  0
LINE
  8
_0-1_作画層１
  6
CONTINUOUS
 62
    7
 10
1.0157532893180985
 20
112.42514104505958
 11
1.0489605638250623
 21
112.44134107697445
  0
LINE
  8
_0-1_作画層１
  6
CONTINUOUS
 62
    7
 10
1.0489605638250623
 20
112.44134107697445
 11
1.081142770942904
 21
112.4556913528385
  0
LINE
  8
_0-1_作画層１
  6
CONTINUOUS
 62
    7
 10
1.081142770942904
 20
112.4556913528385
 11
1.1121758804438002
 21
112.46808553962799
  0
LINE
  8
_0-1_作画層１
  6
CONTINUOUS
 62
    7
 10
1.1121758804438002
 20
112.46808553962799
 11
1.141935862099956
 21
112.47841730431929
  0
LINE
  8
_0-1_作画層１
  6
CONTINUOUS
 62
    7
 10
1.141935862099956
 20
112.47841730431929
 11
1.2022210268650042
 21
112.49399403614814
  0
LINE
  8
_0-1_作画層１
  6
CONTINUOUS
 62
    7
 10
1.2022210268650042
 20
112.49399403614814
 11
1.2353170452459494
 21
112.50012958009796
  0
LINE
  8
_0-1_作画層１
  6
CONTINUOUS
 62
    7
 10
1.2353170452459494
 20
112.50012958009796
 11
1.2701853121297972
 21
112.50521449943741
  0
LINE
  8
_0-1_作画層１
  6
CONTINUOUS
 62
    7
 10
1.2701853121297972
 20
112.50521449943741
 11
1.3066782958944714
 21
112.50928723669099
  0
LINE
  8
_0-1_作画層１
  6
CONTINUOUS
 62
    7
 10
1.3066782958944714
 20
112.50928723669099
 11
1.3446484649180093
 21
112.5123862343832
  0
LINE
  8
_0-1_作画層１
  6
CONTINUOUS
 62
    7
 10
1.3446484649180093
 20
112.5123862343832
 11
1.3839482875782778
 21
112.51454993503853
  0
LINE
  8
_0-1_作画層１
  6
CONTINUOUS
 62
    7
 10
1.3839482875782778
 20
112.51454993503853
 11
1.4244302322533144
 21
112.51581678118168
  0
LINE
  8
_0-1_作画層１
  6
CONTINUOUS
 62
    7
 10
1.4244302322533144
 20
112.51581678118168
 11
1.4659467673210145
 21
112.51622521533693
  0
LINE
  8
_0-1_作画層１
  6
CONTINUOUS
 62
    7
 10
1.4659467673210145
 20
112.51622521533693
 11
1.5083503611594438
 21
112.515813680029
  0
LINE
  8
_0-1_作画層１
  6
CONTINUOUS
 62
    7
 10
1.5083503611594438
 20
112.515813680029
 11
1.5514934821464124
 21
112.51462061778221
  0
LINE
  8
_0-1_作画層１
  6
CONTINUOUS
 62
    7
 10
1.5514934821464124
 20
112.51462061778221
 11
1.5952285986600145
 21
112.51268447112125
  0
LINE
  8
_0-1_作画層１
  6
CONTINUOUS
 62
    7
 10
1.5952285986600145
 20
112.51268447112125
 11
1.6394081790781172
 21
112.51004368257054
  0
LINE
  8
_0-1_作画層１
  6
CONTINUOUS
 62
    7
 10
1.6394081790781172
 20
112.51004368257054
 11
1.6838846917787293
 21
112.50673669465465
  0
LINE
  8
_0-1_作画層１
  6
CONTINUOUS
 62
    7
 10
1.6838846917787293
 20
112.50673669465465
 11
1.7285106051398316
 21
112.50280194989807
  0
LINE
  8
_0-1_作画層１
  6
CONTINUOUS
 62
    7
 10
1.7285106051398316
 20
112.50280194989807
 11
1.7731383875393192
 21
112.49827789082531
  0
LINE
  8
_0-1_作画層１
  6
CONTINUOUS
 62
    7
 10
1.7731383875393192
 20
112.49827789082531
 11
1.8176205073551728
 21
112.49320295996091
  0
LINE
  8
_0-1_作画層１
  6
CONTINUOUS
 62
    7
 10
1.8176205073551728
 20
112.49320295996091
 11
1.8618094329654014
 21
112.48761559982938
  0
LINE
  8
_0-1_作画層１
  6
CONTINUOUS
 62
    7
 10
1.8618094329654014
 20
112.48761559982938
 11
1.9055576327479002
 21
112.48155425295522
  0
LINE
  8
_0-1_作画層１
  6
CONTINUOUS
 62
    7
 10
1.9055576327479002
 20
112.48155425295522
 11
1.9487175750807069
 21
112.47505736186298
  0
LINE
  8
_0-1_作画層１
  6
CONTINUOUS
 62
    7
 10
1.9487175750807069
 20
112.47505736186298
 11
1.9911417283416597
 21
112.4681633690771
  0
LINE
  8
_0-1_作画層１
  6
CONTINUOUS
 62
    7
 10
1.9911417283416597
 20
112.4681633690771
 11
2.0326825609088246
 21
112.46091071712223
  0
LINE
  8
_0-1_作画層１
  6
CONTINUOUS
 62
    7
 10
2.0326825609088246
 20
112.46091071712223
 11
2.0731925411601537
 21
112.45333784852284
  0
LINE
  8
_0-1_作画層１
  6
CONTINUOUS
 62
    7
 10
2.0731925411601537
 20
112.45333784852284
 11
2.1125241374735424
 21
112.44548320580336
  0
LINE
  8
_0-1_作画層１
  6
CONTINUOUS
 62
    7
 10
2.1125241374735424
 20
112.44548320580336
 11
2.150529818227028
 21
112.43738523148841
  0
LINE
  8
_0-1_作画層１
  6
CONTINUOUS
 62
    7
 10
2.150529818227028
 20
112.43738523148841
 11
2.187062051798506
 21
112.42908236810243
  0
LINE
  8
_0-1_作画層１
  6
CONTINUOUS
 62
    7
 10
2.187062051798506
 20
112.42908236810243
 11
2.2219733065659852
 21
112.42061305816998
  0
LINE
  8
_0-1_作画層１
  6
CONTINUOUS
 62
    7
 10
2.2219733065659852
 20
112.42061305816998
 11
2.2551160509073611
 21
112.41201574421561
  0
LINE
  8
_0-1_作画層１
  6
CONTINUOUS
 62
    7
 10
2.2551160509073611
 20
112.41201574421561
 11
2.286342753200671
 21
112.40332886876377
  0
LINE
  8
_0-1_作画層１
  6
CONTINUOUS
 62
    7
 10
2.286342753200671
 20
112.40332886876377
 11
2.3155058818238388
 21
112.39459087433903
  0
LINE
  8
_0-1_作画層１
  6
CONTINUOUS
 62
    7
 10
2.3155058818238388
 20
112.39459087433903
 11
2.4078923604085674
 21
112.36283857083063
  0
LINE
  8
_0-1_作画層１
  6
CONTINUOUS
 62
    7
 10
2.4078923604085674
 20
112.36283857083063
 11
2.4553879117389101
 21
112.34440970058304
  0
LINE
  8
_0-1_作画層１
  6
CONTINUOUS
 62
    7
 10
2.4553879117389101
 20
112.34440970058304
 11
2.5037108142463183
 21
112.32435910329264
  0
LINE
  8
_0-1_作画層１
  6
CONTINUOUS
 62
    7
 10
2.5037108142463183
 20
112.32435910329264
 11
2.5528304252946157
 21
112.30274684292385
  0
LINE
  8
_0-1_作画層１
  6
CONTINUOUS
 62
    7
 10
2.5528304252946157
 20
112.30274684292385
 11
2.602716102247598
 21
112.27963298344142
  0
LINE
  8
_0-1_作画層１
  6
CONTINUOUS
 62
    7
 10
2.602716102247598
 20
112.27963298344142
 11
2.6533372024690891
 21
112.25507758880966
  0
LINE
  8
_0-1_作画層１
  6
CONTINUOUS
 62
    7
 10
2.6533372024690891
 20
112.25507758880966
 11
2.7046630833229131
 21
112.22914072299335
  0
LINE
  8
_0-1_作画層１
  6
CONTINUOUS
 62
    7
 10
2.7046630833229131
 20
112.22914072299335
 11
2.7566631021728369
 21
112.20188244995683
  0
LINE
  8
_0-1_作画層１
  6
CONTINUOUS
 62
    7
 10
2.7566631021728369
 20
112.20188244995683
 11
2.8093066163827416
 21
112.1733628336649
  0
LINE
  8
_0-1_作画層１
  6
CONTINUOUS
 62
    7
 10
2.8093066163827416
 20
112.1733628336649
 11
2.8625629833163657
 21
112.14364193808183
  0
LINE
  8
_0-1_作画層１
  6
CONTINUOUS
 62
    7
 10
2.8625629833163657
 20
112.14364193808183
 11
2.9164015603375901
 21
112.1127798271724
  0
LINE
  8
_0-1_作画層１
  6
CONTINUOUS
 62
    7
 10
2.9164015603375901
 20
112.1127798271724
 11
2.9707917048101535
 21
112.08083656490103
  0
LINE
  8
_0-1_作画層１
  6
CONTINUOUS
 62
    7
 10
2.9707917048101535
 20
112.08083656490103
 11
3.0257027740979368
 21
112.0478722152323
  0
LINE
  8
_0-1_作画層１
  6
CONTINUOUS
 62
    7
 10
3.0257027740979368
 20
112.0478722152323
 11
3.0811041255647069
 21
112.01394684213079
  0
LINE
  8
_0-1_作画層１
  6
CONTINUOUS
 62
    7
 10
3.0811041255647069
 20
112.01394684213079
 11
3.1369651165743164
 21
111.97912050956103
  0
LINE
  8
_0-1_作画層１
  6
CONTINUOUS
 62
    7
 10
3.1369651165743164
 20
111.97912050956103
 11
3.1932551044905324
 21
111.94345328148754
  0
LINE
  8
_0-1_作画層１
  6
CONTINUOUS
 62
    7
 10
3.1932551044905324
 20
111.94345328148754
 11
3.2499434466772072
 21
111.90700522187493
  0
LINE
  8
_0-1_作画層１
  6
CONTINUOUS
 62
    7
 10
3.2499434466772072
 20
111.90700522187493
 11
3.3069995004981365
 21
111.8698363946877
  0
LINE
  8
_0-1_作画層１
  6
CONTINUOUS
 62
    7
 10
3.3069995004981365
 20
111.8698363946877
 11
3.3643926233171157
 21
111.83200686389046
  0
LINE
  8
_0-1_作画層１
  6
CONTINUOUS
 62
    7
 10
3.3643926233171157
 20
111.83200686389046
 11
3.4220921724979689
 21
111.79357669344765
  0
LINE
  8
_0-1_作画層１
  6
CONTINUOUS
 62
    7
 10
3.4220921724979689
 20
111.79357669344765
 11
3.48006750540452
 21
111.75460594732391
  0
LINE
  8
_0-1_作画層１
  6
CONTINUOUS
 62
    7
 10
3.48006750540452
 20
111.75460594732391
 11
3.5382879794005646
 21
111.7151546894838
  0
LINE
  8
_0-1_作画層１
  6
CONTINUOUS
 62
    7
 10
3.5382879794005646
 20
111.7151546894838
 11
3.5967229518499266
 21
111.6752829838918
  0
LINE
  8
_0-1_作画層１
  6
CONTINUOUS
 62
    7
 10
3.5967229518499266
 20
111.6752829838918
 11
3.6553417801164301
 21
111.63505089451255
  0
LINE
  8
_0-1_作画層１
  6
CONTINUOUS
 62
    7
 10
3.6553417801164301
 20
111.63505089451255
 11
3.7141138215638421
 21
111.59451848531052
  0
LINE
  8
_0-1_作画層１
  6
CONTINUOUS
 62
    7
 10
3.7141138215638421
 20
111.59451848531052
 11
3.7730084335560434
 21
111.55374582025027
  0
LINE
  8
_0-1_作画層１
  6
CONTINUOUS
 62
    7
 10
3.7730084335560434
 20
111.55374582025027
 11
3.8319949734568013
 21
111.51279296329639
  0
LINE
  8
_0-1_作画層１
  6
CONTINUOUS
 62
    7
 10
3.8319949734568013
 20
111.51279296329639
 11
3.8910427986298828
 21
111.47171997841338
  0
LINE
  8
_0-1_作画層１
  6
CONTINUOUS
 62
    7
 10
3.8910427986298828
 20
111.47171997841338
 11
3.9501212664392256
 21
111.43058692956586
  0
LINE
  8
_0-1_作画層１
  6
CONTINUOUS
 62
    7
 10
5.4170837910940577
 20
109.12536010510826
 11
5.4278444137360111
 21
109.1159219054995
  0
LINE
  8
_0-1_作画層１
  6
CONTINUOUS
 62
    7
 10
5.4278444137360111
 20
109.1159219054995
 11
5.4368716106505701
 21
109.10837575091946
  0
LINE
  8
_0-1_作画層１
  6
CONTINUOUS
 62
    7
 10
5.4368716106505701
 20
109.10837575091946
 11
5.4481347069270214
 21
109.0991114197752
  0
LINE
  8
_0-1_作画層１
  6
CONTINUOUS
 62
    7
 10
5.4481347069270214
 20
109.0991114197752
 11
5.461487184289922
 21
109.08825380703132
  0
LINE
  8
_0-1_作画層１
  6
CONTINUOUS
 62
    7
 10
5.461487184289922
 20
109.08825380703132
 11
5.4767825244639425
 21
109.07592780765259
  0
LINE
  8
_0-1_作画層１
  6
CONTINUOUS
 62
    7
 10
5.4767825244639425
 20
109.07592780765259
 11
5.4938742091736117
 21
109.0622583166035
  0
LINE
  8
_0-1_作画層１
  6
CONTINUOUS
 62
    7
 10
5.4938742091736117
 20
109.0622583166035
 11
5.5126157201436286
 21
109.04737022884899
  0
LINE
  8
_0-1_作画層１
  6
CONTINUOUS
 62
    7
 10
5.5126157201436286
 20
109.04737022884899
 11
5.5328605390985217
 21
109.03138843935344
  0
LINE
  8
_0-1_作画層１
  6
CONTINUOUS
 62
    7
 10
5.5328605390985217
 20
109.03138843935344
 11
5.5544621477629903
 21
109.01443784308177
  0
LINE
  8
_0-1_作画層１
  6
CONTINUOUS
 62
    7
 10
5.5544621477629903
 20
109.01443784308177
 11
5.5772740278615345
 21
108.99664333499837
  0
LINE
  8
_0-1_作画層１
  6
CONTINUOUS
 62
    7
 10
5.5772740278615345
 20
108.99664333499837
 11
5.601149661118825
 21
108.97812981006817
  0
LINE
  8
_0-1_作画層１
  6
CONTINUOUS
 62
    7
 10
5.601149661118825
 20
108.97812981006817
 11
5.6259425292594756
 21
108.95902216325564
  0
LINE
  8
_0-1_作画層１
  6
CONTINUOUS
 62
    7
 10
5.6259425292594756
 20
108.95902216325564
 11
5.6515061140080434
 21
108.93944528952554
  0
LINE
  8
_0-1_作画層１
  6
CONTINUOUS
 62
    7
 10
5.6515061140080434
 20
108.93944528952554
 11
5.677693897089199
 21
108.9195240838425
  0
LINE
  8
_0-1_作画層１
  6
CONTINUOUS
 62
    7
 10
5.677693897089199
 20
108.9195240838425
 11
5.7043593602274996
 21
108.89938344117121
  0
LINE
  8
_0-1_作画層１
  6
CONTINUOUS
 62
    7
 10
5.7043593602274996
 20
108.89938344117121
 11
5.7313559851475588
 21
108.8791482564763
  0
LINE
  8
_0-1_作画層１
  6
CONTINUOUS
 62
    7
 10
5.7313559851475588
 20
108.8791482564763
 11
5.7585372535740476
 21
108.85894342472247
  0
LINE
  8
_0-1_作画層１
  6
CONTINUOUS
 62
    7
 10
5.7585372535740476
 20
108.85894342472247
 11
5.7857566472314659
 21
108.83889384087433
  0
LINE
  8
_0-1_作画層１
  6
CONTINUOUS
 62
    7
 10
5.7857566472314659
 20
108.83889384087433
 11
5.8128676478444845
 21
108.81912439989665
  0
LINE
  8
_0-1_作画層１
  6
CONTINUOUS
 62
    7
 10
5.8128676478444845
 20
108.81912439989665
 11
5.8397237371377173
 21
108.79975999675395
  0
LINE
  8
_0-1_作画層１
  6
CONTINUOUS
 62
    7
 10
5.8397237371377173
 20
108.79975999675395
 11
5.8661783968357781
 21
108.78092552641098
  0
LINE
  8
_0-1_作画層１
  6
CONTINUOUS
 62
    7
 10
5.8661783968357781
 20
108.78092552641098
 11
5.8920851086632524
 21
108.76274588383242
  0
LINE
  8
_0-1_作画層１
  6
CONTINUOUS
 62
    7
 10
5.8920851086632524
 20
108.76274588383242
 11
5.9172973543447256
 21
108.74534596398288
  0
LINE
  8
_0-1_作画層１
  6
CONTINUOUS
 62
    7
 10
5.9172973543447256
 20
108.74534596398288
 11
5.9416686156048399
 21
108.72885066182704
  0
LINE
  8
_0-1_作画層１
  6
CONTINUOUS
 62
    7
 10
5.9416686156048399
 20
108.72885066182704
 11
5.9650523741681809
 21
108.71338487232958
  0
LINE
  8
_0-1_作画層１
  6
CONTINUOUS
 62
    7
 10
5.9650523741681809
 20
108.71338487232958
 11
5.9873021117593908
 21
108.69907349045513
  0
LINE
  8
_0-1_作画層１
  6
CONTINUOUS
 62
    7
 10
5.9873021117593908
 20
108.69907349045513
 11
6.0082713101030549
 21
108.68604141116842
  0
LINE
  8
_0-1_作画層１
  6
CONTINUOUS
 62
    7
 10
6.0082713101030549
 20
108.68604141116842
 11
6.0278134509237589
 21
108.67441352943405
  0
LINE
  8
_0-1_作画層１
  6
CONTINUOUS
 62
    7
 10
6.0278134509237589
 20
108.67441352943405
 11
6.0457820159461448
 21
108.66431474021672
  0
LINE
  8
_0-1_作画層１
  6
CONTINUOUS
 62
    7
 10
6.0457820159461448
 20
108.66431474021672
 11
6.0933449646841495
 21
108.63957736504162
  0
LINE
  8
_0-1_作画層１
  6
CONTINUOUS
 62
    7
 10
6.0933449646841495
 20
108.63957736504162
 11
6.1194059908197573
 21
108.62673751624337
  0
LINE
  8
_0-1_作画層１
  6
CONTINUOUS
 62
    7
 10
6.1194059908197573
 20
108.62673751624337
 11
6.1468425659678587
 21
108.61363531427085
  0
LINE
  8
_0-1_作画層１
  6
CONTINUOUS
 62
    7
 10
6.1468425659678587
 20
108.61363531427085
 11
6.175546576004507
 21
108.60030957484869
  0
LINE
  8
_0-1_作画層１
  6
CONTINUOUS
 62
    7
 10
6.175546576004507
 20
108.60030957484869
 11
6.2054099068058122
 21
108.58679911370163
  0
LINE
  8
_0-1_作画層１
  6
CONTINUOUS
 62
    7
 10
6.2054099068058122
 20
108.58679911370163
 11
6.2363244442477708
 21
108.5731427465542
  0
LINE
  8
_0-1_作画層１
  6
CONTINUOUS
 62
    7
 10
6.2363244442477708
 20
108.5731427465542
 11
6.2681820742066066
 21
108.55937928913121
  0
LINE
  8
_0-1_作画層１
  6
CONTINUOUS
 62
    7
 10
6.2681820742066066
 20
108.55937928913121
 11
6.3008746825582307
 21
108.54554755715719
  0
LINE
  8
_0-1_作画層１
  6
CONTINUOUS
 62
    7
 10
6.3008746825582307
 20
108.54554755715719
 11
6.334294155178867
 21
108.53168636635698
  0
LINE
  8
_0-1_作画層１
  6
CONTINUOUS
 62
    7
 10
6.334294155178867
 20
108.53168636635698
 11
6.3683323779444549
 21
108.51783453245494
  0
LINE
  8
_0-1_作画層１
  6
CONTINUOUS
 62
    7
 10
6.3683323779444549
 20
108.51783453245494
 11
6.4028812367311616
 21
108.50403087117604
  0
LINE
  8
_0-1_作画層１
  6
CONTINUOUS
 62
    7
 10
6.4028812367311616
 20
108.50403087117604
 11
6.4378326174150402
 21
108.49031419824476
  0
LINE
  8
_0-1_作画層１
  6
CONTINUOUS
 62
    7
 10
6.4378326174150402
 20
108.49031419824476
 11
6.4730784058721724
 21
108.47672332938583
  0
LINE
  8
_0-1_作画層１
  6
CONTINUOUS
 62
    7
 10
6.4730784058721724
 20
108.47672332938583
 11
6.5085104879785831
 21
108.46329708032388
  0
LINE
  8
_0-1_作画層１
  6
CONTINUOUS
 62
    7
 10
6.5085104879785831
 20
108.46329708032388
 11
6.5440207496104108
 21
108.45007426678356
  0
LINE
  8
_0-1_作画層１
  6
CONTINUOUS
 62
    7
 10
6.5440207496104108
 20
108.45007426678356
 11
6.5795010766437088
 21
108.43709370448951
  0
LINE
  8
_0-1_作画層１
  6
CONTINUOUS
 62
    7
 10
6.5795010766437088
 20
108.43709370448951
 11
6.6148433549545587
 21
108.42439420916645
  0
LINE
  8
_0-1_作画層１
  6
CONTINUOUS
 62
    7
 10
6.6148433549545587
 20
108.42439420916645
 11
6.6499394704189854
 21
108.412014596539
  0
LINE
  8
_0-1_作画層１
  6
CONTINUOUS
 62
    7
 10
6.6499394704189854
 20
108.412014596539
 11
6.6846813089131558
 21
108.39999368233188
  0
LINE
  8
_0-1_作画層１
  6
CONTINUOUS
 62
    7
 10
6.6846813089131558
 20
108.39999368233188
 11
6.718960756313038
 21
108.38837028226959
  0
LINE
  8
_0-1_作画層１
  6
CONTINUOUS
 62
    7
 10
6.718960756313038
 20
108.38837028226959
 11
6.7526696984947989
 21
108.377183212077
  0
LINE
  8
_0-1_作画層１
  6
CONTINUOUS
 62
    7
 10
6.7526696984947989
 20
108.377183212077
 11
6.7857000213344918
 21
108.36647128747865
  0
LINE
  8
_0-1_作画層１
  6
CONTINUOUS
 62
    7
 10
6.7857000213344918
 20
108.36647128747865
 11
6.8179436107081415
 21
108.35627332419921
  0
LINE
  8
_0-1_作画層１
  6
CONTINUOUS
 62
    7
 10
6.8179436107081415
 20
108.35627332419921
 11
6.8492923524918865
 21
108.34662813796331
  0
LINE
  8
_0-1_作画層１
  6
CONTINUOUS
 62
    7
 10
6.8492923524918865
 20
108.34662813796331
 11
6.8796381325617517
 21
108.33757454449562
  0
LINE
  8
_0-1_作画層１
  6
CONTINUOUS
 62
    7
 10
6.8796381325617517
 20
108.33757454449562
 11
6.9088728367938756
 21
108.32915135952089
  0
LINE
  8
_0-1_作画層１
  6
CONTINUOUS
 62
    7
 10
6.9088728367938756
 20
108.32915135952089
 11
6.9368883510642547
 21
108.32139739876368
  0
LINE
  8
_0-1_作画層１
  6
CONTINUOUS
 62
    7
 10
6.9368883510642547
 20
108.32139739876368
 11
6.9635765612490275
 21
108.31435147794866
  0
LINE
  8
_0-1_作画層１
  6
CONTINUOUS
 62
    7
 10
6.9635765612490275
 20
108.31435147794866
 11
6.9888293532242187
 21
108.30805241280055
  0
LINE
  8
_0-1_作画層１
  6
CONTINUOUS
 62
    7
 10
6.9888293532242187
 20
108.30805241280055
 11
7.056717322244566
 21
108.29225586593995
  0
LINE
  8
_0-1_作画層１
  6
CONTINUOUS
 62
    7
 10
7.056717322244566
 20
108.29225586593995
 11
7.0936874072341993
 21
108.28408048592868
  0
LINE
  8
_0-1_作画層１
  6
CONTINUOUS
 62
    7
 10
7.0936874072341993
 20
108.28408048592868
 11
7.1324751331061123
 21
108.27577957165107
  0
LINE
  8
_0-1_作画層１
  6
CONTINUOUS
 62
    7
 10
7.1324751331061123
 20
108.27577957165107
 11
7.1729306802823203
 21
108.26739752569799
  0
LINE
  8
_0-1_作画層１
  6
CONTINUOUS
 62
    7
 10
7.1729306802823203
 20
108.26739752569799
 11
7.2149042291848104
 21
108.25897875066013
  0
LINE
  8
_0-1_作画層１
  6
CONTINUOUS
 62
    7
 10
7.2149042291848104
 20
108.25897875066013
 11
7.2582459602355698
 21
108.25056764912824
  0
LINE
  8
_0-1_作画層１
  6
CONTINUOUS
 62
    7
 10
7.2582459602355698
 20
108.25056764912824
 11
7.3028060538566422
 21
108.24220862369324
  0
LINE
  8
_0-1_作画層１
  6
CONTINUOUS
 62
    7
 10
7.3028060538566422
 20
108.24220862369324
 11
7.3484346904699294
 21
108.23394607694567
  0
LINE
  8
_0-1_作画層１
  6
CONTINUOUS
 62
    7
 10
7.3484346904699294
 20
108.23394607694567
 11
7.3949820504975605
 21
108.22582441147662
  0
LINE
  8
_0-1_作画層１
  6
CONTINUOUS
 62
    7
 10
7.3949820504975605
 20
108.22582441147662
 11
7.4422983143613806
 21
108.21788802987652
  0
LINE
  8
_0-1_作画層１
  6
CONTINUOUS
 62
    7
 10
7.4422983143613806
 20
108.21788802987652
 11
7.4902336624835186
 21
108.2101813347364
  0
LINE
  8
_0-1_作画層１
  6
CONTINUOUS
 62
    7
 10
7.4902336624835186
 20
108.2101813347364
 11
7.5386382752858765
 21
108.2027487286469
  0
LINE
  8
_0-1_作画層１
  6
CONTINUOUS
 62
    7
 10
7.5386382752858765
 20
108.2027487286469
 11
7.587362333190498
 21
108.19563461419884
  0
LINE
  8
_0-1_作画層１
  6
CONTINUOUS
 62
    7
 10
7.587362333190498
 20
108.19563461419884
 11
7.6362560166193703
 21
108.18888339398299
  0
LINE
  8
_0-1_作画層１
  6
CONTINUOUS
 62
    7
 10
7.6362560166193703
 20
108.18888339398299
 11
7.6851695059944518
 21
108.18253947059011
  0
LINE
  8
_0-1_作画層１
  6
CONTINUOUS
 62
    7
 10
7.6851695059944518
 20
108.18253947059011
 11
7.7339529817377866
 21
108.17664724661097
  0
LINE
  8
_0-1_作画層１
  6
CONTINUOUS
 62
    7
 10
7.7339529817377866
 20
108.17664724661097
 11
7.78245662427139
 21
108.17125112463637
  0
LINE
  8
_0-1_作画層１
  6
CONTINUOUS
 62
    7
 10
7.78245662427139
 20
108.17125112463637
 11
7.8305306140171638
 21
108.16639550725705
  0
LINE
  8
_0-1_作画層１
  6
CONTINUOUS
 62
    7
 10
7.8305306140171638
 20
108.16639550725705
 11
7.8780251313971803
 21
108.16212479706383
  0
LINE
  8
_0-1_作画層１
  6
CONTINUOUS
 62
    7
 10
7.8780251313971803
 20
108.16212479706383
 11
7.9247903568334266
 21
108.1584833966474
  0
LINE
  8
_0-1_作画層１
  6
CONTINUOUS
 62
    7
 10
7.9247903568334266
 20
108.1584833966474
 11
7.9706764707478612
 21
108.15551570859859
  0
LINE
  8
_0-1_作画層１
  6
CONTINUOUS
 62
    7
 10
7.9706764707478612
 20
108.15551570859859
 11
8.0155336535625281
 21
108.1532661355082
  0
LINE
  8
_0-1_作画層１
  6
CONTINUOUS
 62
    7
 10
8.0155336535625281
 20
108.1532661355082
 11
8.0592120856993859
 21
108.15177907996696
  0
LINE
  8
_0-1_作画層１
  6
CONTINUOUS
 62
    7
 10
8.0592120856993859
 20
108.15177907996696
 11
8.1015619475804499
 21
108.15109894456566
  0
LINE
  8
_0-1_作画層１
  6
CONTINUOUS
 62
    7
 10
8.1015619475804499
 20
108.15109894456566
 11
8.1424334196276789
 21
108.15127013189505
  0
LINE
  8
_0-1_作画層１
  6
CONTINUOUS
 62
    7
 10
8.1424334196276789
 20
108.15127013189505
 11
8.1816766822631166
 21
108.1523370445459
  0
LINE
  8
_0-1_作画層１
  6
CONTINUOUS
 62
    7
 10
8.1816766822631166
 20
108.1523370445459
 11
8.2191419159087502
 21
108.15434408510902
  0
LINE
  8
_0-1_作画層１
  6
CONTINUOUS
 62
    7
 10
8.2191419159087502
 20
108.15434408510902
 11
8.2546793009865382
 21
108.15733565617515
  0
LINE
  8
_0-1_作画層１
  6
CONTINUOUS
 62
    7
 10
8.2546793009865382
 20
108.15733565617515
 11
8.2881390179185246
 21
108.16135616033509
  0
LINE
  8
_0-1_作画層１
  6
CONTINUOUS
 62
    7
 10
8.2881390179185246
 20
108.16135616033509
 11
8.3427277714743582
 21
108.17092205774921
  0
LINE
  8
_0-1_作画層１
  6
CONTINUOUS
 62
    7
 10
8.3427277714743582
 20
108.17092205774921
 11
8.37206280587219
 21
108.17735353261483
  0
LINE
  8
_0-1_作画層１
  6
CONTINUOUS
 62
    7
 10
8.37206280587219
 20
108.17735353261483
 11
8.4026079395325723
 21
108.18481104423401
  0
LINE
  8
_0-1_作画層１
  6
CONTINUOUS
 62
    7
 10
8.4026079395325723
 20
108.18481104423401
 11
8.4342504180926028
 21
108.19323985709283
  0
LINE
  8
_0-1_作画層１
  6
CONTINUOUS
 62
    7
 10
8.4342504180926028
 20
108.19323985709283
 11
8.4668774871892083
 21
108.20258523567705
  0
LINE
  8
_0-1_作画層１
  6
CONTINUOUS
 62
    7
 10
8.4668774871892083
 20
108.20258523567705
 11
8.5003763924594011
 21
108.21279244447257
  0
LINE
  8
_0-1_作画層１
  6
CONTINUOUS
 62
    7
 10
8.5003763924594011
 20
108.21279244447257
 11
8.534634379540222
 21
108.22380674796554
  0
LINE
  8
_0-1_作画層１
  6
CONTINUOUS
 62
    7
 10
8.534634379540222
 20
108.22380674796554
 11
8.5695386940686262
 21
108.23557341064162
  0
LINE
  8
_0-1_作画層１
  6
CONTINUOUS
 62
    7
 10
8.5695386940686262
 20
108.23557341064162
 11
8.604976581681683
 21
108.24803769698698
  0
LINE
  8
_0-1_作画層１
  6
CONTINUOUS
 62
    7
 10
8.604976581681683
 20
108.24803769698698
 11
8.6408352880162624
 21
108.26114487148735
  0
LINE
  8
_0-1_作画層１
  6
CONTINUOUS
 62
    7
 10
8.6408352880162624
 20
108.26114487148735
 11
8.6770020587095189
 21
108.27484019862874
  0
LINE
  8
_0-1_作画層１
  6
CONTINUOUS
 62
    7
 10
8.6770020587095189
 20
108.27484019862874
 11
8.7133641393983794
 21
108.28906894289707
  0
LINE
  8
_0-1_作画層１
  6
CONTINUOUS
 62
    7
 10
8.7133641393983794
 20
108.28906894289707
 11
8.7498087757198277
 21
108.3037763687783
  0
LINE
  8
_0-1_作画層１
  6
CONTINUOUS
 62
    7
 10
8.7498087757198277
 20
108.3037763687783
 11
8.7862232133109046
 21
108.31890774075828
  0
LINE
  8
_0-1_作画層１
  6
CONTINUOUS
 62
    7
 10
8.7862232133109046
 20
108.31890774075828
 11
8.8224946978085939
 21
108.33440832332298
  0
LINE
  8
_0-1_作画層１
  6
CONTINUOUS
 62
    7
 10
8.8224946978085939
 20
108.33440832332298
 11
8.8585104748499077
 21
108.35022338095831
  0
LINE
  8
_0-1_作画層１
  6
CONTINUOUS
 62
    7
 10
8.8585104748499077
 20
108.35022338095831
 11
8.89415779007183
 21
108.3662981781502
  0
LINE
  8
_0-1_作画層１
  6
CONTINUOUS
 62
    7
 10
8.89415779007183
 20
108.3662981781502
 11
8.9293238891114015
 21
108.38257797938456
  0
LINE
  8
_0-1_作画層１
  6
CONTINUOUS
 62
    7
 10
8.9293238891114015
 20
108.38257797938456
 11
8.9638960176055491
 21
108.39900804914737
  0
LINE
  8
_0-1_作画層１
  6
CONTINUOUS
 62
    7
 10
8.9638960176055491
 20
108.39900804914737
 11
8.9977614211913419
 21
108.41553365192448
  0
LINE
  8
_0-1_作画層１
  6
CONTINUOUS
 62
    7
 10
8.9977614211913419
 20
108.41553365192448
 11
9.0308073455057354
 21
108.43210005220186
  0
LINE
  8
_0-1_作画層１
  6
CONTINUOUS
 62
    7
 10
9.0308073455057354
 20
108.43210005220186
 11
9.0629210361857986
 21
108.44865251446546
  0
LINE
  8
_0-1_作画層１
  6
CONTINUOUS
 62
    7
 10
9.0629210361857986
 20
108.44865251446546
 11
9.0939897388684585
 21
108.46513630320115
  0
LINE
  8
_0-1_作画層１
  6
CONTINUOUS
 62
    7
 10
9.0939897388684585
 20
108.46513630320115
 11
9.1239006991907559
 21
108.48149668289486
  0
LINE
  8
_0-1_作画層１
  6
CONTINUOUS
 62
    7
 10
9.1239006991907559
 20
108.48149668289486
 11
9.152541162789646
 21
108.49767891803253
  0
LINE
  8
_0-1_作画層１
  6
CONTINUOUS
 62
    7
 10
9.152541162789646
 20
108.49767891803253
 11
9.1797983753021981
 21
108.5136282731001
  0
LINE
  8
_0-1_作画層１
  6
CONTINUOUS
 62
    7
 10
9.1797983753021981
 20
108.5136282731001
 11
9.205559582365396
 21
108.52929001258349
  0
LINE
  8
_0-1_作画層１
  6
CONTINUOUS
 62
    7
 10
9.205559582365396
 20
108.52929001258349
 11
9.2297120296162234
 21
108.5446094009686
  0
LINE
  8
_0-1_作画層１
  6
CONTINUOUS
 62
    7
 10
9.2297120296162234
 20
108.5446094009686
 11
9.2521429626916643
 21
108.5595317027414
  0
LINE
  8
_0-1_作画層１
  6
CONTINUOUS
 62
    7
 10
9.2521429626916643
 20
108.5595317027414
 11
9.2812361314598775
 21
108.58053343535454
  0
LINE
  8
_0-1_作画層１
  6
CONTINUOUS
 62
    7
 10
9.2812361314598775
 20
108.58053343535454
 11
9.2960214090381896
 21
108.59201793898919
  0
LINE
  8
_0-1_作画層１
  6
CONTINUOUS
 62
    7
 10
9.2960214090381896
 20
108.59201793898919
 11
9.310958326998616
 21
108.60412734163225
  0
LINE
  8
_0-1_作画層１
  6
CONTINUOUS
 62
    7
 10
9.310958326998616
 20
108.60412734163225
 11
9.3260412690308101
 21
108.61683849887609
  0
LINE
  8
_0-1_作画層１
  6
CONTINUOUS
 62
    7
 10
9.3260412690308101
 20
108.61683849887609
 11
9.3412646188243116
 21
108.63012826631288
  0
LINE
  8
_0-1_作画層１
  6
CONTINUOUS
 62
    7
 10
9.3412646188243116
 20
108.63012826631288
 11
9.356622760068575
 21
108.64397349953489
  0
LINE
  8
_0-1_作画層１
  6
CONTINUOUS
 62
    7
 10
9.356622760068575
 20
108.64397349953489
 11
9.3721100764532821
 21
108.65835105413456
  0
LINE
  8
_0-1_作画層１
  6
CONTINUOUS
 62
    7
 10
9.3721100764532821
 20
108.65835105413456
 11
9.387720951667859
 21
108.67323778570398
  0
LINE
  8
_0-1_作画層１
  6
CONTINUOUS
 62
    7
 10
9.387720951667859
 20
108.67323778570398
 11
9.4034497694019592
 21
108.6886105498356
  0
LINE
  8
_0-1_作画層１
  6
CONTINUOUS
 62
    7
 10
9.4034497694019592
 20
108.6886105498356
 11
9.4192909133450087
 21
108.70444620212152
  0
LINE
  8
_0-1_作画層１
  6
CONTINUOUS
 62
    7
 10
9.4192909133450087
 20
108.70444620212152
 11
9.4352387671866893
 21
108.7207215981542
  0
LINE
  8
_0-1_作画層１
  6
CONTINUOUS
 62
    7
 10
9.4352387671866893
 20
108.7207215981542
 11
9.451287714616484
 21
108.73741359352582
  0
LINE
  8
_0-1_作画層１
  6
CONTINUOUS
 62
    7
 10
9.451287714616484
 20
108.73741359352582
 11
9.4674321393239609
 21
108.75449904382867
  0
LINE
  8
_0-1_作画層１
  6
CONTINUOUS
 62
    7
 10
9.4674321393239609
 20
108.75449904382867
 11
9.4836664249986313
 21
108.77195480465502
  0
LINE
  8
_0-1_作画層１
  6
CONTINUOUS
 62
    7
 10
9.4836664249986313
 20
108.77195480465502
 11
9.4999849553300919
 21
108.78975773159721
  0
LINE
  8
_0-1_作画層１
  6
CONTINUOUS
 62
    7
 10
9.4999849553300919
 20
108.78975773159721
 11
9.5163821140078539
 21
108.80788468024741
  0
LINE
  8
_0-1_作画層１
  6
CONTINUOUS
 62
    7
 10
9.5163821140078539
 20
108.80788468024741
 11
9.5328522847214572
 21
108.82631250619804
  0
LINE
  8
_0-1_作画層１
  6
CONTINUOUS
 62
    7
 10
9.5328522847214572
 20
108.82631250619804
 11
9.5493898511605266
 21
108.84501806504124
  0
LINE
  8
_0-1_作画層１
  6
CONTINUOUS
 62
    7
 10
9.5493898511605266
 20
108.84501806504124
 11
9.5659891970145168
 21
108.86397821236943
  0
LINE
  8
_0-1_作画層１
  6
CONTINUOUS
 62
    7
 10
9.5659891970145168
 20
108.86397821236943
 11
9.5826447059730242
 21
108.88316980377473
  0
LINE
  8
_0-1_作画層１
  6
CONTINUOUS
 62
    7
 10
9.5826447059730242
 20
108.88316980377473
 11
9.5993507617256171
 21
108.90256969484957
  0
LINE
  8
_0-1_作画層１
  6
CONTINUOUS
 62
    7
 10
9.5993507617256171
 20
108.90256969484957
 11
9.6161017479618067
 21
108.92215474118618
  0
LINE
  8
_0-1_作画層１
  6
CONTINUOUS
 62
    7
 10
9.6161017479618067
 20
108.92215474118618
 11
9.6328920483711613
 21
108.94190179837682
  0
LINE
  8
_0-1_作画層１
  6
CONTINUOUS
 62
    7
 10
9.6328920483711613
 20
108.94190179837682
 11
9.6497160466432206
 21
108.96178772201375
  0
LINE
  8
_0-1_作画層１
  6
CONTINUOUS
 62
    7
 10
9.6497160466432206
 20
108.96178772201375
 11
9.6665681264674959
 21
108.98178936768929
  0
LINE
  8
_0-1_作画層１
  6
CONTINUOUS
 62
    7
 10
9.6665681264674959
 20
108.98178936768929
 11
9.6834426715336122
 21
109.00188359099573
  0
LINE
  8
_0-1_作画層１
  6
CONTINUOUS
 62
    7
 10
9.6834426715336122
 20
109.00188359099573
 11
9.7003340655310808
 21
109.02204724752531
  0
LINE
  8
_0-1_作画層１
  6
CONTINUOUS
 62
    7
 10
9.7003340655310808
 20
109.02204724752531
 11
9.7172366921494699
 21
109.0422571928703
  0
LINE
  8
_0-1_作画層１
  6
CONTINUOUS
 62
    7
 10
9.7172366921494699
 20
109.0422571928703
 11
9.7341449350782909
 21
109.06249028262306
  0
TEXT
  8
_0-7_注記層１
 62
    7
 10
1.6325670258080436
 20
108.76170132798794
 40
2.5
 41
1
 50
0
  1
SUNAO
  0
TEXT
  8
_0-7_注記層１
 62
    7
 10
22.457567025808061
 20
109.01170132798794
 40
2
 41
1.2
 50
0
  1
SSC-242P
  0
LINE
  8
_0-1_作画層１
  6
CONTINUOUS
 62
    7
 10
93.757567025808072
 20
221.26170132798791
 11
93.757567025808044
 21
101.26170132798796
  0
LINE
  8
_0-1_作画層１
  6
CONTINUOUS
 62
    7
 10
93.757567025808072
 20
221.26170132798791
 11
84.757567025808072
 21
221.26170132798791
  0
ARC
  8
_0-1_作画層１
  6
CONTINUOUS
 62
    7
 10
84.757567025808129
 20
216.26170132798779
 40
5.0000000000000853
 50
90.000000000000668
 51
179.99999999999903
  0
LINE
  8
_0-1_作画層１
  6
CONTINUOUS
 62
    7
 10
79.757567025808072
 20
216.26170132798791
 11
79.757567025808044
 21
106.26170132798796
  0
LINE
  8
_0-1_作画層１
  6
CONTINUOUS
 62
    7
 10
93.757567025808072
 20
101.26170132798796
 11
84.757567025808044
 21
101.26170132798796
  0
ARC
  8
_0-1_作画層１
  6
CONTINUOUS
 62
    7
 10
84.757567025808044
 20
106.26170132798794
 40
5
 50
179.99999999999966
 51
270
  0
LINE
  8
_0-1_作画層１
  6
CONTINUOUS
 62
    7
 10
93.757567025808044
 20
122.26170132798791
 11
118.25756702580804
 21
122.26170132798791
  0
LINE
  8
_0-1_作画層１
  6
CONTINUOUS
 62
    7
 10
126.75756702580807
 20
201.26170132798791
 11
93.757567025808072
 21
201.26170132798791
  0
LINE
  8
_0-1_作画層１
  6
CONTINUOUS
 62
    7
 10
126.75756702580804
 20
142.26170132798791
 11
126.75756702580807
 21
201.26170132798791
  0
LINE
  8
_0-1_作画層１
  6
CONTINUOUS
 62
    7
 10
118.25756702580804
 20
142.26170132798791
 11
118.25756702580804
 21
122.26170132798791
  0
LINE
  8
_0-1_作画層１
  6
CONTINUOUS
 62
    7
 10
118.25756702580804
 20
142.26170132798791
 11
126.75756702580804
 21
142.26170132798791
  0
LINE
  8
_0-1_作画層１
  6
CENTER
 62
    7
 10
14.757567025808044
 20
96.261701327987936
 11
14.757567025808044
 21
226.26170132798796
  0
LINE
  8
_0-1_作画層１
  6
CENTER
 62
    7
 10
-25.242432974191956
 20
161.26170132798794
 11
57.257567025808058
 21
161.26170132798794
  0
ARC
  8
_0-1_作画層１
  6
CONTINUOUS
 62
    7
 10
-10.242432974191956
 20
211.26170132798791
 40
10
 50
90
 51
180
  0
INSERT
  2
-000-_D0
  8
_0-9_寸法線層１
 10
-55.25
 20
-38.75
 41
1
 42
1
 50
0
  0
INSERT
  2
-001-_D1
  8
_0-9_寸法線層１
 10
-55.25
 20
-38.75
 41
1
 42
1
 50
0
  0
INSERT
  2
-002-_D2
  8
_0-9_寸法線層１
 10
-55.25
 20
-38.75
 41
1
 42
1
 50
0
  0
LINE
  8
_0-1_作画層１
  6
CONTINUOUS
 62
    7
 10
86.811621888812368
 20
101.26170132798796
 11
86.811621888812397
 21
221.26170132798791
  0
LINE
  8
_0-1_作画層１
  6
CONTINUOUS
 62
    7
 10
40.757567025808044
 20
46.761701327987936
 11
-11.242432974191956
 21
46.761701327987936
  0
LINE
  8
_0-1_作画層１
  6
CONTINUOUS
 62
    7
 10
40.757567025808044
 20
38.261701327987936
 11
-11.242432974191956
 21
38.261701327987936
  0
LINE
  8
_0-1_作画層１
  6
CONTINUOUS
 62
    7
 10
49.757567025808072
 20
71.261701327987964
 11
-20.242432974191956
 21
71.261701327987964
  0
LINE
  8
_0-1_作画層１
  6
CONTINUOUS
 62
    7
 10
40.757567025808044
 20
71.261701327987964
 11
40.757567025808044
 21
38.261701327987936
  0
LINE
  8
_0-1_作画層１
  6
CONTINUOUS
 62
    7
 10
-11.242432974191956
 20
71.261701327987964
 11
-11.242432974191956
 21
38.261701327987936
  0
LINE
  8
_0-1_作画層１
  6
CENTER
 62
    7
 10
14.757567025808044
 20
28.76170132798795
 11
14.757567025808044
 21
93.761701327987964
  0
LINE
  8
_0-1_作画層１
  6
CONTINUOUS
 62
    7
 10
-20.242432974191956
 20
71.261701327987964
 11
-20.242432974191956
 21
80.261701327987964
  0
ARC
  8
_0-1_作画層１
  6
CONTINUOUS
 62
    7
 10
-15.242432974191956
 20
80.261701327987979
 40
4.9999999999999858
 50
89.999999999999929
 51
180.00000000000014
  0
LINE
  8
_0-1_作画層１
  6
CONTINUOUS
 62
    7
 10
-15.242432974191956
 20
85.261701327987964
 11
44.757567025808058
 21
85.261701327987964
  0
LINE
  8
_0-1_作画層１
  6
CONTINUOUS
 62
    7
 10
49.757567025808058
 20
71.26170132798795
 11
49.757567025808058
 21
80.261701327987964
  0
ARC
  8
_0-1_作画層１
  6
CONTINUOUS
 62
    7
 10
44.757567025808058
 20
80.261701327987964
 40
5
 50
0
 51
90
  0
LINE
  8
_0-1_作画層１
  6
CONTINUOUS
 62
    7
 10
49.757567025808072
 20
78.261701327987964
 11
-20.242432974191956
 21
78.261701327987964
  0
INSERT
  2
-003-_D3
  8
_0-9_寸法線層１
 10
-55.25
 20
-38.75
 41
1
 42
1
 50
0
  0
TEXT
  8
_0-7_注記層１
 62
    7
 10
96.257567025808072
 20
-5.4882986720120499
 40
3.5
 41
1
 50
0
  1
電源
  0
TEXT
  8
_0-7_注記層１
 62
    7
 10
94.507567025808072
 20
-8.9882986720120499
 40
3.5
 41
1
 50
0
  1
AC100V
  0
LINE
  8
_0-1_作画層１
  6
CONTINUOUS
 62
    7
 10
152.25756702580807
 20
33.76170132798795
 11
152.25756702580807
 21
18.76170132798795
  0
LINE
  8
_0-1_作画層１
  6
CONTINUOUS
 62
    7
 10
152.25756702580807
 20
33.76170132798795
 11
119.75756702580807
 21
33.76170132798795
  0
LINE
  8
_0-1_作画層１
  6
CONTINUOUS
 62
    7
 10
152.25756702580807
 20
18.76170132798795
 11
84.757567025808072
 21
18.76170132798795
  0
LINE
  8
_0-1_作画層１
  6
CONTINUOUS
 62
    7
 10
87.25
 20
88.75
 11
112.25
 21
88.75
  0
TEXT
  8
_0-7_注記層１
 62
    7
 10
89.75
 20
88.75
 40
5
 41
1
 50
0
  1
端子接続
  0
CIRCLE
  8
_0-1_作画層１
  6
CONTINUOUS
 62
    7
 10
131.00756702580807
 20
68.76170132798795
 40
1.25
  0
CIRCLE
  8
_0-1_作画層１
  6
CONTINUOUS
 62
    7
 10
141.00756702580807
 20
68.76170132798795
 40
1.25
  0
LINE
  8
_0-1_作画層１
  6
CONTINUOUS
 62
    7
 10
129.75756702580807
 20
68.76170132798795
 11
127.25756702580807
 21
68.76170132798795
  0
LINE
  8
_0-1_作画層１
  6
CONTINUOUS
 62
    7
 10
142.25756702580807
 20
68.76170132798795
 11
144.75756702580807
 21
68.76170132798795
  0
TEXT
  8
_0-7_注記層１
 62
    7
 10
94.007567025808072
 20
67.01170132798795
 40
3.5
 41
1
 50
0
  1
内部回路
  0
LINE
  8
_0-1_作画層１
  6
CONTINUOUS
 62
    7
 10
89.757567025808072
 20
66.26170132798795
 11
112.25756702580807
 21
66.26170132798795
  0
LINE
  8
_0-1_作画層１
  6
CONTINUOUS
 62
    7
 10
112.25756702580807
 20
66.26170132798795
 11
112.25756702580807
 21
71.26170132798795
  0
LINE
  8
_0-1_作画層１
  6
CONTINUOUS
 62
    7
 10
112.25756702580807
 20
71.26170132798795
 11
89.757567025808072
 21
71.26170132798795
  0
LINE
  8
_0-1_作画層１
  6
CONTINUOUS
 62
    7
 10
89.757567025808072
 20
71.26170132798795
 11
89.757567025808072
 21
66.26170132798795
  0
LINE
  8
_0-1_作画層１
  6
CONTINUOUS
 62
    7
 10
127.25756702580807
 20
53.76170132798795
 11
127.25756702580807
 21
68.76170132798795
  0
LINE
  8
_0-1_作画層１
  6
CONTINUOUS
 62
    7
 10
131.75756702580807
 20
69.76170132798795
 11
139.75756702580807
 21
73.76170132798795
  0
LINE
  8
_0-1_作画層１
  6
CONTINUOUS
 62
    7
 10
92.257567025808072
 20
33.76170132798795
 11
92.257567025808072
 21
66.26170132798795
  0
LINE
  8
_0-1_作画層１
  6
CONTINUOUS
 62
    7
 10
109.75756702580807
 20
33.76170132798795
 11
109.75756702580807
 21
66.26170132798795
  0
LINE
  8
_0-1_作画層１
  6
CONTINUOUS
 62
    7
 10
92.257567025808072
 20
53.76170132798795
 11
127.25756702580807
 21
53.76170132798795
  0
LINE
  8
_0-1_作画層１
  6
CONTINUOUS
 62
    7
 10
109.75756702580807
 20
41.26170132798795
 11
144.75756702580807
 21
41.26170132798795
  0
LINE
  8
_0-1_作画層１
  6
CONTINUOUS
 62
    7
 10
144.75756702580807
 20
33.76170132798795
 11
144.75756702580807
 21
41.26170132798795
  0
LINE
  8
_0-1_作画層１
  6
CONTINUOUS
 62
    7
 10
127.25756702580807
 20
33.76170132798795
 11
127.25756702580807
 21
46.26170132798795
  0
LINE
  8
_0-1_作画層１
  6
CONTINUOUS
 62
    7
 10
127.25756702580807
 20
46.26170132798795
 11
144.75756702580807
 21
46.26170132798795
  0
LINE
  8
_0-1_作画層１
  6
CONTINUOUS
 62
    7
 10
144.75756702580807
 20
46.26170132798795
 11
144.75756702580807
 21
68.76170132798795
  0
CIRCLE
  8
_0-1_作画層１
  6
CONTINUOUS
 62
    7
 10
92.257567025808072
 20
53.76170132798795
 40
1.25
  0
CIRCLE
  8
_0-1_作画層１
  6
CONTINUOUS
 62
    7
 10
109.75756702580807
 20
41.26170132798795
 40
1.25
  0
LINE
  8
_0-1_作画層１
  6
CONTINUOUS
 62
    7
 10
93.277382685452352
 20
54.484526355463004
 11
92.98039205328314
 21
54.781516987632216
  0
LINE
  8
_0-1_作画層１
  6
CONTINUOUS
 62
    7
 10
93.432708617261312
 20
54.187779067416727
 11
92.683644765236863
 21
54.93684291944119
  0
LINE
  8
_0-1_作画層１
  6
CONTINUOUS
 62
    7
 10
93.485961217024908
 20
53.993105111415858
 11
92.48897080923598
 21
54.990095519204772
  0
LINE
  8
_0-1_作画層１
  6
CONTINUOUS
 62
    7
 10
93.505585338501021
 20
53.832059633702414
 11
92.32792533152255
 21
55.009719640680913
  0
LINE
  8
_0-1_作画層１
  6
CONTINUOUS
 62
    7
 10
92.186541754918835
 20
55.009681861047298
 11
93.50554755886742
 21
53.690676057098727
  0
LINE
  8
_0-1_作画層１
  6
CONTINUOUS
 62
    7
 10
93.491691000388613
 20
53.563111259340218
 11
92.058976957160354
 21
54.995825302568505
  0
LINE
  8
_0-1_作画層１
  6
CONTINUOUS
 62
    7
 10
91.942133505891832
 20
54.971247397599711
 11
93.467113095419819
 21
53.446267808071724
  0
LINE
  8
_0-1_作画層１
  6
CONTINUOUS
 62
    7
 10
93.433671331037829
 20
53.338288216216426
 11
91.834153914036534
 21
54.937805633217693
  0
LINE
  8
_0-1_作画層１
  6
CONTINUOUS
 62
    7
 10
93.39256151452426
 20
53.237976676492664
 11
91.733842374312786
 21
54.896695816704153
  0
LINE
  8
_0-1_作画層１
  6
CONTINUOUS
 62
    7
 10
93.344583163473743
 20
53.144533671305894
 11
91.640399369126015
 21
54.848717465653621
  0
LINE
  8
_0-1_作画層１
  6
CONTINUOUS
 62
    7
 10
93.290275784444702
 20
53.057419694097632
 11
91.553285391917768
 21
54.794410086624566
  0
LINE
  8
_0-1_作画層１
  6
CONTINUOUS
 62
    7
 10
93.229993803602895
 20
52.976280318702123
 11
91.47214601652226
 21
54.734128105782787
  0
LINE
  8
_0-1_作画層１
  6
CONTINUOUS
 62
    7
 10
93.163948794659262
 20
52.900903971408482
 11
91.396769669228604
 21
54.668083096839126
  0
LINE
  8
_0-1_作画層１
  6
CONTINUOUS
 62
    7
 10
93.092232158954459
 20
52.831199250875969
 11
91.327064948696091
 21
54.596366461134338
  0
LINE
  8
_0-1_作画層１
  6
CONTINUOUS
 62
    7
 10
91.263051396334902
 20
54.518958657258239
 11
93.01482435507836
 21
52.767185698514766
  0
LINE
  8
_0-1_作画層１
  6
CONTINUOUS
 62
    7
 10
92.931592954060619
 20
52.708995743295205
 11
91.204861441115327
 21
54.435727256240497
  0
LINE
  8
_0-1_作画層１
  6
CONTINUOUS
 62
    7
 10
92.842279050689172
 20
52.65688829042935
 11
91.152753988249486
 21
54.34641335286905
  0
LINE
  8
_0-1_作画層１
  6
CONTINUOUS
 62
    7
 10
91.107143082128118
 20
54.250602902753116
 11
92.746468600573223
 21
52.611277384307996
  0
LINE
  8
_0-1_作画層１
  6
CONTINUOUS
 62
    7
 10
92.643540617571375
 20
52.572784011072542
 11
91.06864970889265
 21
54.147674919751253
  0
LINE
  8
_0-1_作画層１
  6
CONTINUOUS
 62
    7
 10
92.53257498844107
 20
52.542328283965546
 11
91.038193981785668
 21
54.036709290620948
  0
LINE
  8
_0-1_作画層１
  6
CONTINUOUS
 62
    7
 10
92.412181479329917
 20
52.521300436839397
 11
91.017166134659504
 21
53.916315781509795
  0
LINE
  8
_0-1_作画層１
  6
CONTINUOUS
 62
    7
 10
92.280155126365713
 20
52.511905433566298
 11
91.00777113138642
 21
53.784289428545591
  0
LINE
  8
_0-1_作画層１
  6
CONTINUOUS
 62
    7
 10
92.132683914274821
 20
52.517955289419874
 11
91.013820987239995
 21
53.636818216454714
  0
LINE
  8
_0-1_作画層１
  6
CONTINUOUS
 62
    7
 10
91.962092495711431
 20
52.547125351745962
 11
91.042991049566098
 21
53.466226797891323
  0
LINE
  8
_0-1_作画層１
  6
CONTINUOUS
 62
    7
 10
91.747124880979669
 20
52.620671610240422
 11
91.116537308060543
 21
53.251259183159561
  0
LINE
  8
_0-1_作画層１
  6
CONTINUOUS
 62
    7
 10
110.77738268545235
 20
41.984526355463004
 11
110.48039205328314
 21
42.281516987632216
  0
LINE
  8
_0-1_作画層１
  6
CONTINUOUS
 62
    7
 10
110.93270861726131
 20
41.687779067416727
 11
110.18364476523686
 21
42.43684291944119
  0
LINE
  8
_0-1_作画層１
  6
CONTINUOUS
 62
    7
 10
110.98596121702491
 20
41.493105111415858
 11
109.98897080923598
 21
42.490095519204772
  0
LINE
  8
_0-1_作画層１
  6
CONTINUOUS
 62
    7
 10
111.00558533850102
 20
41.332059633702414
 11
109.82792533152255
 21
42.509719640680913
  0
LINE
  8
_0-1_作画層１
  6
CONTINUOUS
 62
    7
 10
109.68654175491884
 20
42.509681861047298
 11
111.00554755886742
 21
41.190676057098727
  0
LINE
  8
_0-1_作画層１
  6
CONTINUOUS
 62
    7
 10
110.99169100038861
 20
41.063111259340218
 11
109.55897695716035
 21
42.495825302568505
  0
LINE
  8
_0-1_作画層１
  6
CONTINUOUS
 62
    7
 10
109.44213350589183
 20
42.471247397599711
 11
110.96711309541982
 21
40.946267808071724
  0
LINE
  8
_0-1_作画層１
  6
CONTINUOUS
 62
    7
 10
110.93367133103783
 20
40.838288216216426
 11
109.33415391403653
 21
42.437805633217693
  0
LINE
  8
_0-1_作画層１
  6
CONTINUOUS
 62
    7
 10
110.89256151452426
 20
40.737976676492664
 11
109.23384237431279
 21
42.396695816704153
  0
LINE
  8
_0-1_作画層１
  6
CONTINUOUS
 62
    7
 10
110.84458316347374
 20
40.644533671305894
 11
109.14039936912602
 21
42.348717465653621
  0
LINE
  8
_0-1_作画層１
  6
CONTINUOUS
 62
    7
 10
110.7902757844447
 20
40.557419694097632
 11
109.05328539191777
 21
42.294410086624566
  0
LINE
  8
_0-1_作画層１
  6
CONTINUOUS
 62
    7
 10
110.72999380360289
 20
40.476280318702123
 11
108.97214601652226
 21
42.234128105782787
  0
LINE
  8
_0-1_作画層１
  6
CONTINUOUS
 62
    7
 10
110.66394879465926
 20
40.400903971408482
 11
108.8967696692286
 21
42.168083096839126
  0
LINE
  8
_0-1_作画層１
  6
CONTINUOUS
 62
    7
 10
110.59223215895446
 20
40.331199250875969
 11
108.82706494869609
 21
42.096366461134338
  0
LINE
  8
_0-1_作画層１
  6
CONTINUOUS
 62
    7
 10
108.7630513963349
 20
42.018958657258239
 11
110.51482435507836
 21
40.267185698514766
  0
LINE
  8
_0-1_作画層１
  6
CONTINUOUS
 62
    7
 10
110.43159295406062
 20
40.208995743295205
 11
108.70486144111533
 21
41.935727256240497
  0
LINE
  8
_0-1_作画層１
  6
CONTINUOUS
 62
    7
 10
110.34227905068917
 20
40.15688829042935
 11
108.65275398824949
 21
41.84641335286905
  0
LINE
  8
_0-1_作画層１
  6
CONTINUOUS
 62
    7
 10
108.60714308212812
 20
41.750602902753116
 11
110.24646860057322
 21
40.111277384307996
  0
LINE
  8
_0-1_作画層１
  6
CONTINUOUS
 62
    7
 10
110.14354061757138
 20
40.072784011072542
 11
108.56864970889265
 21
41.647674919751253
  0
LINE
  8
_0-1_作画層１
  6
CONTINUOUS
 62
    7
 10
110.03257498844107
 20
40.042328283965546
 11
108.53819398178567
 21
41.536709290620948
  0
LINE
  8
_0-1_作画層１
  6
CONTINUOUS
 62
    7
 10
109.91218147932992
 20
40.021300436839397
 11
108.5171661346595
 21
41.416315781509795
  0
LINE
  8
_0-1_作画層１
  6
CONTINUOUS
 62
    7
 10
109.78015512636571
 20
40.011905433566298
 11
108.50777113138642
 21
41.284289428545591
  0
LINE
  8
_0-1_作画層１
  6
CONTINUOUS
 62
    7
 10
109.63268391427482
 20
40.017955289419874
 11
108.51382098724
 21
41.136818216454714
  0
LINE
  8
_0-1_作画層１
  6
CONTINUOUS
 62
    7
 10
109.46209249571143
 20
40.047125351745962
 11
108.5429910495661
 21
40.966226797891323
  0
LINE
  8
_0-1_作画層１
  6
CONTINUOUS
 62
    7
 10
109.24712488097967
 20
40.120671610240422
 11
108.61653730806054
 21
40.751259183159561
  0
LINE
  8
_0-1_作画層１
  6
DASHED
 62
    7
 10
164.75756702580807
 20
58.76170132798795
 11
164.75756702580807
 21
26.26170132798795
  0
LINE
  8
_0-1_作画層１
  6
DASHED
 62
    7
 10
164.75756702580807
 20
26.26170132798795
 11
152.25756702580807
 21
26.26170132798795
  0
LINE
  8
_0-1_作画層１
  6
CONTINUOUS
 62
    7
 10
194.75756702580804
 20
121.26170132798791
 11
244.75756702580804
 21
121.26170132798791
  0
ARC
  8
_0-1_作画層１
  6
CONTINUOUS
 62
    7
 10
244.75756702580816
 20
111.26170132798799
 40
9.9999999999999147
 50
359.99999999999949
 51
90.000000000000639
  0
LINE
  8
_0-1_作画層１
  6
CONTINUOUS
 62
    7
 10
254.75756702580804
 20
111.26170132798791
 11
254.75756702580804
 21
11.261701327987979
  0
ARC
  8
_0-1_作画層１
  6
CONTINUOUS
 62
    7
 10
244.75756702580816
 20
11.261701327987879
 40
9.9999999999998863
 50
269.99999999999932
 51
0.0000000000006361
  0
LINE
  8
_0-1_作画層１
  6
CONTINUOUS
 62
    7
 10
244.75756702580804
 20
1.2617013279879785
 11
194.75756702580804
 21
1.2617013279879785
  0
LINE
  8
_0-1_作画層１
  6
CONTINUOUS
 62
    7
 10
184.75756702580804
 20
111.26170132798791
 11
184.75756702580804
 21
11.261701327987979
  0
ARC
  8
_0-1_作画層１
  6
CONTINUOUS
 62
    7
 10
194.75756702580793
 20
11.261701327987879
 40
9.9999999999999005
 50
179.99999999999943
 51
270.00000000000051
  0
LINE
  8
_0-1_作画層１
  6
CENTER
 62
    7
 10
219.75756702580804
 20
-3.7382986720120499
 11
219.75756702580804
 21
126.26170132798796
  0
LINE
  8
_0-1_作画層１
  6
CENTER
 62
    7
 10
179.75756702580804
 20
61.26170132798795
 11
262.25756702580804
 21
61.26170132798795
  0
ARC
  8
_0-1_作画層１
  6
CONTINUOUS
 62
    7
 10
194.75756702580816
 20
111.26170132798782
 40
10.000000000000085
 50
90.000000000000497
 51
179.99999999999955
  0
ARC
  8
_0-1_作画層１
  6
CONTINUOUS
 62
    7
 10
195.75756702580804
 20
98.761701327987993
 40
1.9999999999999716
 50
89.99999999999919
 51
180.0000000000008
  0
LINE
  8
_0-1_作画層１
  6
CONTINUOUS
 62
    7
 10
195.75756702580804
 20
100.76170132798796
 11
243.75756702580804
 21
100.76170132798796
  0
ARC
  8
_0-1_作画層１
  6
CONTINUOUS
 62
    7
 10
243.7575670258081
 20
98.761701327987993
 40
1.9999999999999716
 50
359.9999999999992
 51
90.000000000001634
  0
LINE
  8
_0-1_作画層１
  6
CONTINUOUS
 62
    7
 10
245.75756702580804
 20
98.761701327987964
 11
245.75756702580804
 21
23.761701327987964
  0
ARC
  8
_0-1_作画層１
  6
CONTINUOUS
 62
    7
 10
243.75756702580804
 20
23.76170132798795
 40
2
 50
270
 51
0.0000000000003943
  0
LINE
  8
_0-1_作画層１
  6
CONTINUOUS
 62
    7
 10
243.75756702580804
 20
21.761701327987964
 11
195.75756702580804
 21
21.761701327987964
  0
LINE
  8
_0-1_作画層１
  6
CONTINUOUS
 62
    7
 10
193.75756702580804
 20
98.761701327987964
 11
193.75756702580804
 21
23.761701327987964
  0
ARC
  8
_0-1_作画層１
  6
CONTINUOUS
 62
    7
 10
195.75756702580804
 20
23.76170132798795
 40
1.9999999999999858
 50
179.9999999999996
 51
270.0000000000008
  0
LINE
  8
_0-1_作画層１
  6
CONTINUOUS
 62
    7
 10
190.75756702580804
 20
103.26170132798791
 11
190.75756702580804
 21
113.26170132798791
  0
LINE
  8
_0-1_作画層１
  6
CONTINUOUS
 62
    7
 10
192.75756702580804
 20
103.26170132798791
 11
192.75756702580804
 21
113.26170132798791
  0
LINE
  8
_0-1_作画層１
  6
CONTINUOUS
 62
    7
 10
192.75756702580804
 20
113.26170132798791
 11
190.75756702580804
 21
113.26170132798791
  0
LINE
  8
_0-1_作画層１
  6
CONTINUOUS
 62
    7
 10
192.75756702580804
 20
103.26170132798791
 11
190.75756702580804
 21
103.26170132798791
  0
LINE
  8
_0-1_作画層１
  6
CONTINUOUS
 62
    7
 10
248.75756702580804
 20
103.26170132798791
 11
248.75756702580804
 21
113.26170132798791
  0
LINE
  8
_0-1_作画層１
  6
CONTINUOUS
 62
    7
 10
246.75756702580804
 20
103.26170132798791
 11
246.75756702580804
 21
113.26170132798791
  0
LINE
  8
_0-1_作画層１
  6
CONTINUOUS
 62
    7
 10
246.75756702580804
 20
113.26170132798791
 11
248.75756702580804
 21
113.26170132798791
  0
LINE
  8
_0-1_作画層１
  6
CONTINUOUS
 62
    7
 10
246.75756702580804
 20
103.26170132798791
 11
248.75756702580804
 21
103.26170132798791
  0
LINE
  8
_0-1_作画層１
  6
CONTINUOUS
 62
    7
 10
190.75756702580804
 20
19.261701327987993
 11
190.75756702580804
 21
9.2617013279879927
  0
LINE
  8
_0-1_作画層１
  6
CONTINUOUS
 62
    7
 10
192.75756702580804
 20
19.261701327987993
 11
192.75756702580804
 21
9.2617013279879927
  0
LINE
  8
_0-1_作画層１
  6
CONTINUOUS
 62
    7
 10
192.75756702580804
 20
9.2617013279879927
 11
190.75756702580804
 21
9.2617013279879927
  0
LINE
  8
_0-1_作画層１
  6
CONTINUOUS
 62
    7
 10
192.75756702580804
 20
19.261701327987993
 11
190.75756702580804
 21
19.261701327987993
  0
LINE
  8
_0-1_作画層１
  6
CONTINUOUS
 62
    7
 10
248.75756702580804
 20
19.261701327987993
 11
248.75756702580804
 21
9.2617013279879927
  0
LINE
  8
_0-1_作画層１
  6
CONTINUOUS
 62
    7
 10
246.75756702580804
 20
19.261701327987993
 11
246.75756702580804
 21
9.2617013279879927
  0
LINE
  8
_0-1_作画層１
  6
CONTINUOUS
 62
    7
 10
246.75756702580804
 20
9.2617013279879927
 11
248.75756702580804
 21
9.2617013279879927
  0
LINE
  8
_0-1_作画層１
  6
CONTINUOUS
 62
    7
 10
246.75756702580804
 20
19.261701327987993
 11
248.75756702580804
 21
19.261701327987993
  0
LINE
  8
_0-1_作画層１
  6
CONTINUOUS
 62
    7
 10
235.25756702580804
 20
100.76170132798796
 11
235.25756702580804
 21
107.26170132798796
  0
ARC
  8
_0-1_作画層１
  6
CONTINUOUS
 62
    7
 10
238.75756702580804
 20
107.26170132798796
 40
3.5
 50
90
 51
180
  0
LINE
  8
_0-1_作画層１
  6
CONTINUOUS
 62
    7
 10
242.25756702580804
 20
100.76170132798796
 11
242.25756702580804
 21
107.26170132798796
  0
ARC
  8
_0-1_作画層１
  6
CONTINUOUS
 62
    7
 10
238.75756702580804
 20
107.26170132798796
 40
3.5
 50
0
 51
90
  0
CIRCLE
  8
_0-1_作画層１
  6
CONTINUOUS
 62
    7
 10
238.75756702580804
 20
107.26170132798794
 40
3
  0
LINE
  8
_0-1_作画層１
  6
CONTINUOUS
 62
    7
 10
238.00756702580804
 20
109.88670132798794
 11
239.50756702580804
 21
109.88670132798794
  0
LINE
  8
_0-1_作画層１
  6
CONTINUOUS
 62
    7
 10
239.50756702580804
 20
104.63670132798794
 11
238.00756702580804
 21
104.63670132798794
  0
LINE
  8
_0-1_作画層１
  6
CONTINUOUS
 62
    7
 10
241.38256702580804
 20
108.01170132798794
 11
241.38256702580804
 21
106.51170132798794
  0
LINE
  8
_0-1_作画層１
  6
CONTINUOUS
 62
    7
 10
236.13256702580804
 20
106.51170132798794
 11
236.13256702580804
 21
108.01170132798794
  0
ARC
  8
_0-1_作画層１
  6
CONTINUOUS
 62
    7
 10
237.40756702580808
 20
108.6117013279879
 40
0.5999999999999656
 50
270
 51
0.0000000000027352
  0
LINE
  8
_0-1_作画層１
  6
CONTINUOUS
 62
    7
 10
236.13256702580804
 20
106.51170132798794
 11
237.40756702580808
 21
106.51170132798794
  0
ARC
  8
_0-1_作画層１
  6
CONTINUOUS
 62
    7
 10
237.40756702580813
 20
105.91170132798797
 40
0.5999999999999656
 50
359.99999999999733
 51
90.000000000005386
  0
LINE
  8
_0-1_作画層１
  6
CONTINUOUS
 62
    7
 10
241.38256702580804
 20
108.01170132798794
 11
240.10756702580807
 21
108.01170132798794
  0
ARC
  8
_0-1_作画層１
  6
CONTINUOUS
 62
    7
 10
240.10756702580812
 20
108.61170132798802
 40
0.6000000000000793
 50
180.00000000000816
 51
269.99999999999454
  0
LINE
  8
_0-1_作画層１
  6
CONTINUOUS
 62
    7
 10
237.40756710210206
 20
108.01170132798794
 11
236.13256702580804
 21
108.01170132798794
  0
LINE
  8
_0-1_作画層１
  6
CONTINUOUS
 62
    7
 10
241.38256702580804
 20
106.51170132798794
 11
240.10756702580807
 21
106.51170132798794
  0
LINE
  8
_0-1_作画層１
  6
CONTINUOUS
 62
    7
 10
239.50756702580804
 20
104.63670132798794
 11
239.50756702580804
 21
105.91170132798794
  0
ARC
  8
_0-1_作画層１
  6
CONTINUOUS
 62
    7
 10
240.10756702580812
 20
105.91170132798786
 40
0.6000000000000793
 50
90.000000000005429
 51
179.99999999999184
  0
LINE
  8
_0-1_作画層１
  6
CONTINUOUS
 62
    7
 10
238.00756702580804
 20
108.61170132798793
 11
238.00756702580804
 21
109.88670132798794
  0
LINE
  8
_0-1_作画層１
  6
CONTINUOUS
 62
    7
 10
238.00756702580804
 20
105.91170132798794
 11
238.00756702580804
 21
104.63670132798794
  0
LINE
  8
_0-1_作画層１
  6
CONTINUOUS
 62
    7
 10
239.50756702580804
 20
108.61170132798793
 11
239.50756702580804
 21
109.88670132798794
  0
LINE
  8
_0-1_作画層１
  6
CONTINUOUS
 62
    7
 10
241.75756702580804
 20
102.76170132798796
 11
241.75756702580804
 21
100.76170132798796
  0
LINE
  8
_0-1_作画層１
  6
CONTINUOUS
 62
    7
 10
235.75756702580804
 20
102.76170132798796
 11
235.75756702580804
 21
100.76170132798796
  0
LINE
  8
_0-1_作画層１
  6
CONTINUOUS
 62
    7
 10
235.75756702580804
 20
102.76170132798796
 11
241.75756702580804
 21
102.76170132798796
  0
LINE
  8
_0-1_作画層１
  6
CONTINUOUS
 62
    7
 10
204.25756702580804
 20
100.76170132798799
 11
204.25756702580804
 21
107.26170132798799
  0
ARC
  8
_0-1_作画層１
  6
CONTINUOUS
 62
    7
 10
200.75756702580804
 20
107.26170132798802
 40
3.4999999999999716
 50
359.9999999999996
 51
89.999999999999986
  0
LINE
  8
_0-1_作画層１
  6
CONTINUOUS
 62
    7
 10
197.25756702580804
 20
100.76170132798799
 11
197.25756702580804
 21
107.26170132798799
  0
ARC
  8
_0-1_作画層１
  6
CONTINUOUS
 62
    7
 10
200.75756702580804
 20
107.26170132798802
 40
3.4999999999999716
 50
90
 51
180.00000000000048
  0
CIRCLE
  8
_0-1_作画層１
  6
CONTINUOUS
 62
    7
 10
200.75756702580804
 20
107.26170132798796
 40
3
  0
LINE
  8
_0-1_作画層１
  6
CONTINUOUS
 62
    7
 10
201.50756702580804
 20
109.88670132798796
 11
200.00756702580804
 21
109.88670132798796
  0
LINE
  8
_0-1_作画層１
  6
CONTINUOUS
 62
    7
 10
200.00756702580804
 20
104.63670132798796
 11
201.50756702580804
 21
104.63670132798796
  0
LINE
  8
_0-1_作画層１
  6
CONTINUOUS
 62
    7
 10
198.13256702580804
 20
108.01170132798796
 11
198.13256702580804
 21
106.51170132798796
  0
LINE
  8
_0-1_作画層１
  6
CONTINUOUS
 62
    7
 10
203.38256702580804
 20
106.51170132798796
 11
203.38256702580804
 21
108.01170132798796
  0
ARC
  8
_0-1_作画層１
  6
CONTINUOUS
 62
    7
 10
202.10756702580801
 20
108.61170132798793
 40
0.5999999999999656
 50
179.9999999999973
 51
270
  0
LINE
  8
_0-1_作画層１
  6
CONTINUOUS
 62
    7
 10
203.38256702580804
 20
106.51170132798796
 11
202.10756702580801
 21
106.51170132798796
  0
ARC
  8
_0-1_作画層１
  6
CONTINUOUS
 62
    7
 10
202.10756702580795
 20
105.91170132798803
 40
0.5999999999999372
 50
89.999999999994586
 51
180.00000000000546
  0
LINE
  8
_0-1_作画層１
  6
CONTINUOUS
 62
    7
 10
198.13256702580804
 20
108.01170132798796
 11
199.40756702580802
 21
108.01170132798796
  0
ARC
  8
_0-1_作画層１
  6
CONTINUOUS
 62
    7
 10
199.40756702580802
 20
108.61170132798802
 40
0.600000000000051
 50
270.00000000000273
 51
359.99999999999454
  0
LINE
  8
_0-1_作画層１
  6
CONTINUOUS
 62
    7
 10
202.10756694951402
 20
108.01170132798796
 11
203.38256702580804
 21
108.01170132798796
  0
LINE
  8
_0-1_作画層１
  6
CONTINUOUS
 62
    7
 10
198.13256702580804
 20
106.51170132798796
 11
199.40756702580802
 21
106.51170132798796
  0
LINE
  8
_0-1_作画層１
  6
CONTINUOUS
 62
    7
 10
200.00756702580804
 20
104.63670132798796
 11
200.00756702580804
 21
105.91170132798797
  0
ARC
  8
_0-1_作画層１
  6
CONTINUOUS
 62
    7
 10
199.40756702580802
 20
105.91170132798791
 40
0.600000000000051
 50
0.0000000000054281
 51
89.999999999997286
  0
LINE
  8
_0-1_作画層１
  6
CONTINUOUS
 62
    7
 10
201.50756702580804
 20
108.61170132798796
 11
201.50756702580804
 21
109.88670132798796
  0
LINE
  8
_0-1_作画層１
  6
CONTINUOUS
 62
    7
 10
201.50756702580804
 20
105.91170132798797
 11
201.50756702580804
 21
104.63670132798796
  0
LINE
  8
_0-1_作画層１
  6
CONTINUOUS
 62
    7
 10
200.00756702580804
 20
108.61170132798796
 11
200.00756702580804
 21
109.88670132798796
  0
LINE
  8
_0-1_作画層１
  6
CONTINUOUS
 62
    7
 10
197.75756702580804
 20
102.76170132798799
 11
197.75756702580804
 21
100.76170132798799
  0
LINE
  8
_0-1_作画層１
  6
CONTINUOUS
 62
    7
 10
203.75756702580804
 20
102.76170132798799
 11
203.75756702580804
 21
100.76170132798799
  0
LINE
  8
_0-1_作画層１
  6
CONTINUOUS
 62
    7
 10
203.75756702580804
 20
102.76170132798799
 11
197.75756702580804
 21
102.76170132798799
  0
LINE
  8
_0-1_作画層１
  6
CONTINUOUS
 62
    7
 10
235.25756702580804
 20
21.761701327987936
 11
235.25756702580804
 21
15.261701327987936
  0
ARC
  8
_0-1_作画層１
  6
CONTINUOUS
 62
    7
 10
238.75756702580804
 20
15.261701327987907
 40
3.4999999999999787
 50
179.99999999999966
 51
270
  0
LINE
  8
_0-1_作画層１
  6
CONTINUOUS
 62
    7
 10
242.25756702580804
 20
21.761701327987936
 11
242.25756702580804
 21
15.261701327987936
  0
ARC
  8
_0-1_作画層１
  6
CONTINUOUS
 62
    7
 10
238.75756702580804
 20
15.261701327987907
 40
3.4999999999999787
 50
270
 51
0.0000000000003434
  0
CIRCLE
  8
_0-1_作画層１
  6
CONTINUOUS
 62
    7
 10
238.75756702580804
 20
15.261701327987964
 40
3
  0
LINE
  8
_0-1_作画層１
  6
CONTINUOUS
 62
    7
 10
238.00756702580804
 20
12.636701327987964
 11
239.50756702580804
 21
12.636701327987964
  0
LINE
  8
_0-1_作画層１
  6
CONTINUOUS
 62
    7
 10
239.50756702580804
 20
17.886701327987964
 11
238.00756702580804
 21
17.886701327987964
  0
LINE
  8
_0-1_作画層１
  6
CONTINUOUS
 62
    7
 10
241.38256702580804
 20
14.511701327987964
 11
241.38256702580804
 21
16.011701327987964
  0
LINE
  8
_0-1_作画層１
  6
CONTINUOUS
 62
    7
 10
236.13256702580804
 20
16.011701327987964
 11
236.13256702580804
 21
14.511701327987964
  0
ARC
  8
_0-1_作画層１
  6
CONTINUOUS
 62
    7
 10
237.40756702580808
 20
13.911701327987998
 40
0.5999999999999656
 50
359.99999999999659
 51
90.000000000000014
  0
LINE
  8
_0-1_作画層１
  6
CONTINUOUS
 62
    7
 10
236.13256702580804
 20
16.011701327987964
 11
237.40756702580808
 21
16.011701327987964
  0
ARC
  8
_0-1_作画層１
  6
CONTINUOUS
 62
    7
 10
237.40756702580813
 20
16.61170132798793
 40
0.5999999999999585
 50
269.99999999999449
 51
0.0000000000033713
  0
LINE
  8
_0-1_作画層１
  6
CONTINUOUS
 62
    7
 10
241.38256702580804
 20
14.511701327987964
 11
240.10756702580807
 21
14.511701327987964
  0
ARC
  8
_0-1_作画層１
  6
CONTINUOUS
 62
    7
 10
240.10756702580812
 20
13.911701327987913
 40
0.6000000000000581
 50
90.000000000005429
 51
179.99999999999389
  0
LINE
  8
_0-1_作画層１
  6
CONTINUOUS
 62
    7
 10
237.40756710210206
 20
14.511701327987964
 11
236.13256702580804
 21
14.511701327987964
  0
LINE
  8
_0-1_作画層１
  6
CONTINUOUS
 62
    7
 10
241.38256702580804
 20
16.011701327987964
 11
240.10756702580807
 21
16.011701327987964
  0
LINE
  8
_0-1_作画層１
  6
CONTINUOUS
 62
    7
 10
239.50756702580804
 20
17.886701327987964
 11
239.50756702580804
 21
16.611701327987959
  0
ARC
  8
_0-1_作画層１
  6
CONTINUOUS
 62
    7
 10
240.10756702580812
 20
16.611701327988015
 40
0.6000000000000581
 50
180.00000000000611
 51
269.99999999999454
  0
LINE
  8
_0-1_作画層１
  6
CONTINUOUS
 62
    7
 10
238.00756702580804
 20
13.91170132798797
 11
238.00756702580804
 21
12.636701327987964
  0
LINE
  8
_0-1_作画層１
  6
CONTINUOUS
 62
    7
 10
238.00756702580804
 20
16.611701327987959
 11
238.00756702580804
 21
17.886701327987964
  0
LINE
  8
_0-1_作画層１
  6
CONTINUOUS
 62
    7
 10
239.50756702580804
 20
13.91170132798797
 11
239.50756702580804
 21
12.636701327987964
  0
LINE
  8
_0-1_作画層１
  6
CONTINUOUS
 62
    7
 10
241.75756702580804
 20
19.761701327987936
 11
241.75756702580804
 21
21.761701327987936
  0
LINE
  8
_0-1_作画層１
  6
CONTINUOUS
 62
    7
 10
235.75756702580804
 20
19.761701327987936
 11
235.75756702580804
 21
21.761701327987936
  0
LINE
  8
_0-1_作画層１
  6
CONTINUOUS
 62
    7
 10
235.75756702580804
 20
19.761701327987936
 11
241.75756702580804
 21
19.761701327987936
  0
LINE
  8
_0-1_作画層１
  6
CONTINUOUS
 62
    7
 10
204.25756702580804
 20
21.761701327987907
 11
204.25756702580804
 21
15.261701327987907
  0
ARC
  8
_0-1_作画層１
  6
CONTINUOUS
 62
    7
 10
200.75756702580804
 20
15.261701327987879
 40
3.4999999999999787
 50
270
 51
0.0000000000003434
  0
LINE
  8
_0-1_作画層１
  6
CONTINUOUS
 62
    7
 10
197.25756702580804
 20
21.761701327987907
 11
197.25756702580804
 21
15.261701327987907
  0
ARC
  8
_0-1_作画層１
  6
CONTINUOUS
 62
    7
 10
200.75756702580804
 20
15.261701327987879
 40
3.4999999999999787
 50
179.99999999999966
 51
270
  0
CIRCLE
  8
_0-1_作画層１
  6
CONTINUOUS
 62
    7
 10
200.75756702580804
 20
15.261701327987936
 40
3
  0
LINE
  8
_0-1_作画層１
  6
CONTINUOUS
 62
    7
 10
201.50756702580804
 20
12.636701327987936
 11
200.00756702580804
 21
12.636701327987936
  0
LINE
  8
_0-1_作画層１
  6
CONTINUOUS
 62
    7
 10
200.00756702580804
 20
17.886701327987936
 11
201.50756702580804
 21
17.886701327987936
  0
LINE
  8
_0-1_作画層１
  6
CONTINUOUS
 62
    7
 10
198.13256702580804
 20
14.511701327987936
 11
198.13256702580804
 21
16.011701327987936
  0
LINE
  8
_0-1_作画層１
  6
CONTINUOUS
 62
    7
 10
203.38256702580804
 20
16.011701327987936
 11
203.38256702580804
 21
14.511701327987936
  0
ARC
  8
_0-1_作画層１
  6
CONTINUOUS
 62
    7
 10
202.10756702580801
 20
13.91170132798797
 40
0.5999999999999656
 50
90
 51
180.00000000000335
  0
LINE
  8
_0-1_作画層１
  6
CONTINUOUS
 62
    7
 10
203.38256702580804
 20
16.011701327987936
 11
202.10756702580801
 21
16.011701327987936
  0
ARC
  8
_0-1_作画層１
  6
CONTINUOUS
 62
    7
 10
202.10756702580795
 20
16.611701327987902
 40
0.5999999999999585
 50
179.99999999999659
 51
270.0000000000054
  0
LINE
  8
_0-1_作画層１
  6
CONTINUOUS
 62
    7
 10
198.13256702580804
 20
14.511701327987936
 11
199.40756702580802
 21
14.511701327987936
  0
ARC
  8
_0-1_作画層１
  6
CONTINUOUS
 62
    7
 10
199.40756702580802
 20
13.911701327987885
 40
0.6000000000000581
 50
0.0000000000061067
 51
89.999999999997257
  0
LINE
  8
_0-1_作画層１
  6
CONTINUOUS
 62
    7
 10
202.10756694951402
 20
14.511701327987936
 11
203.38256702580804
 21
14.511701327987936
  0
LINE
  8
_0-1_作画層１
  6
CONTINUOUS
 62
    7
 10
198.13256702580804
 20
16.011701327987936
 11
199.40756702580802
 21
16.011701327987936
  0
LINE
  8
_0-1_作画層１
  6
CONTINUOUS
 62
    7
 10
200.00756702580804
 20
17.886701327987936
 11
200.00756702580804
 21
16.61170132798793
  0
ARC
  8
_0-1_作画層１
  6
CONTINUOUS
 62
    7
 10
199.40756702580802
 20
16.611701327987987
 40
0.6000000000000581
 50
270.00000000000273
 51
359.9999999999938
  0
LINE
  8
_0-1_作画層１
  6
CONTINUOUS
 62
    7
 10
201.50756702580804
 20
13.911701327987942
 11
201.50756702580804
 21
12.636701327987936
  0
LINE
  8
_0-1_作画層１
  6
CONTINUOUS
 62
    7
 10
201.50756702580804
 20
16.61170132798793
 11
201.50756702580804
 21
17.886701327987936
  0
LINE
  8
_0-1_作画層１
  6
CONTINUOUS
 62
    7
 10
200.00756702580804
 20
13.911701327987942
 11
200.00756702580804
 21
12.636701327987936
  0
LINE
  8
_0-1_作画層１
  6
CONTINUOUS
 62
    7
 10
197.75756702580804
 20
19.761701327987907
 11
197.75756702580804
 21
21.761701327987907
  0
LINE
  8
_0-1_作画層１
  6
CONTINUOUS
 62
    7
 10
203.75756702580804
 20
19.761701327987907
 11
203.75756702580804
 21
21.761701327987907
  0
LINE
  8
_0-1_作画層１
  6
CONTINUOUS
 62
    7
 10
203.75756702580804
 20
19.761701327987907
 11
197.75756702580804
 21
19.761701327987907
  0
LINE
  8
_0-1_作画層１
  6
CONTINUOUS
 62
    7
 10
245.75756702580804
 20
54.825281178692521
 11
193.33986070216093
 21
54.825281178692521
  0
LINE
  8
_0-1_作画層１
  6
CONTINUOUS
 62
    7
 10
222.75756702580804
 20
51.261701327987964
 11
222.75756702580804
 21
41.761701327987964
  0
LINE
  8
_0-1_作画層１
  6
CONTINUOUS
 62
    7
 10
242.75756702580804
 20
51.261701327987964
 11
222.75756702580804
 21
51.261701327987964
  0
LINE
  8
_0-1_作画層１
  6
CONTINUOUS
 62
    7
 10
242.75756702580804
 20
41.761701327987964
 11
242.75756702580804
 21
51.261701327987964
  0
ARC
  8
_0-1_作画層１
  6
CONTINUOUS
 62
    7
 10
224.82006702580804
 20
48.836701327987967
 40
0.9999999999999855
 50
90
 51
180.00000000000082
  0
LINE
  8
_0-1_作画層１
  6
CONTINUOUS
 62
    7
 10
223.82006702580804
 20
48.836701327987953
 11
223.82006702580804
 21
44.13670132798795
  0
ARC
  8
_0-1_作画層１
  6
CONTINUOUS
 62
    7
 10
224.82006702580804
 20
44.136701327987936
 40
1
 50
179.99999999999918
 51
270
  0
LINE
  8
_0-1_作画層１
  6
CONTINUOUS
 62
    7
 10
224.82006702580804
 20
43.13670132798795
 11
229.52006702580803
 21
43.13670132798795
  0
ARC
  8
_0-1_作画層１
  6
CONTINUOUS
 62
    7
 10
229.52006702580803
 20
44.136701327987936
 40
0.9999999999999855
 50
270
 51
0.0000000000008014
  0
LINE
  8
_0-1_作画層１
  6
CONTINUOUS
 62
    7
 10
230.52006702580803
 20
44.13670132798795
 11
230.52006702580803
 21
48.836701327987953
  0
LINE
  8
_0-1_作画層１
  6
CONTINUOUS
 62
    7
 10
224.82006702580804
 20
49.836701327987953
 11
229.52006702580803
 21
49.836701327987953
  0
ARC
  8
_0-1_作画層１
  6
CONTINUOUS
 62
    7
 10
229.52006702580803
 20
48.836701327987967
 40
1
 50
359.9999999999992
 51
89.999999999999986
  0
CIRCLE
  8
_0-1_作画層１
  6
CONTINUOUS
 62
    7
 10
227.25756702580804
 20
46.57420132798795
 40
2.5194555463432966
  0
ARC
  8
_0-1_作画層１
  6
CONTINUOUS
 62
    7
 10
236.07006702580804
 20
48.836701327987967
 40
0.9999999999999855
 50
90
 51
180.00000000000082
  0
LINE
  8
_0-1_作画層１
  6
CONTINUOUS
 62
    7
 10
235.07006702580804
 20
48.836701327987953
 11
235.07006702580804
 21
44.13670132798795
  0
ARC
  8
_0-1_作画層１
  6
CONTINUOUS
 62
    7
 10
236.07006702580804
 20
44.136701327987936
 40
1
 50
179.99999999999918
 51
270
  0
LINE
  8
_0-1_作画層１
  6
CONTINUOUS
 62
    7
 10
236.07006702580804
 20
43.13670132798795
 11
240.77006702580803
 21
43.13670132798795
  0
ARC
  8
_0-1_作画層１
  6
CONTINUOUS
 62
    7
 10
240.77006702580803
 20
44.136701327987936
 40
0.9999999999999855
 50
270
 51
0.0000000000008014
  0
LINE
  8
_0-1_作画層１
  6
CONTINUOUS
 62
    7
 10
241.77006702580803
 20
44.13670132798795
 11
241.77006702580803
 21
48.836701327987953
  0
LINE
  8
_0-1_作画層１
  6
CONTINUOUS
 62
    7
 10
236.07006702580804
 20
49.836701327987953
 11
240.77006702580803
 21
49.836701327987953
  0
ARC
  8
_0-1_作画層１
  6
CONTINUOUS
 62
    7
 10
240.77006702580803
 20
48.836701327987967
 40
1
 50
359.9999999999992
 51
89.999999999999986
  0
CIRCLE
  8
_0-1_作画層１
  6
CONTINUOUS
 62
    7
 10
238.50756702580804
 20
46.57420132798795
 40
2.5194555463432966
  0
ARC
  8
_0-1_作画層１
  6
CONTINUOUS
 62
    7
 10
217.75756702580799
 20
113.26170132798799
 40
1.9999999999999716
 50
89.99999999999838
 51
180.00000000000082
  0
ARC
  8
_0-1_作画層１
  6
CONTINUOUS
 62
    7
 10
217.75756702580799
 20
113.26170132798794
 40
1.9999999999999432
 50
179.99999999999918
 51
270.00000000000171
  0
LINE
  8
_0-1_作画層１
  6
CONTINUOUS
 62
    7
 10
217.75756702580804
 20
111.26170132798796
 11
221.75756702580804
 21
111.26170132798796
  0
ARC
  8
_0-1_作画層１
  6
CONTINUOUS
 62
    7
 10
221.7575670258081
 20
113.26170132798794
 40
1.9999999999999716
 50
269.99999999999835
 51
0.0000000000008142
  0
LINE
  8
_0-1_作画層１
  6
CONTINUOUS
 62
    7
 10
217.75756702580804
 20
115.26170132798796
 11
221.75756702580804
 21
115.26170132798796
  0
ARC
  8
_0-1_作画層１
  6
CONTINUOUS
 62
    7
 10
221.7575670258081
 20
113.26170132798799
 40
1.9999999999999432
 50
359.9999999999992
 51
90.000000000001634
  0
ARC
  8
_0-1_作画層１
  6
CONTINUOUS
 62
    7
 10
217.75756702580799
 20
9.2617013279878933
 40
1.9999999999999574
 50
179.99999999999878
 51
270.00000000000159
  0
ARC
  8
_0-1_作画層１
  6
CONTINUOUS
 62
    7
 10
217.75756702580799
 20
9.2617013279879785
 40
1.9999999999999432
 50
89.99999999999838
 51
180.00000000000122
  0
LINE
  8
_0-1_作画層１
  6
CONTINUOUS
 62
    7
 10
217.75756702580804
 20
11.261701327987936
 11
221.75756702580804
 21
11.261701327987936
  0
ARC
  8
_0-1_作画層１
  6
CONTINUOUS
 62
    7
 10
221.7575670258081
 20
9.2617013279879785
 40
1.9999999999999574
 50
359.99999999999881
 51
90.00000000000162
  0
LINE
  8
_0-1_作画層１
  6
CONTINUOUS
 62
    7
 10
217.75756702580804
 20
7.2617013279879359
 11
221.75756702580804
 21
7.2617013279879359
  0
ARC
  8
_0-1_作画層１
  6
CONTINUOUS
 62
    7
 10
221.7575670258081
 20
9.2617013279878933
 40
1.9999999999999432
 50
269.99999999999835
 51
0.0000000000012086
  0
LINE
  8
_0-1_作画層１
  6
CONTINUOUS
 62
    7
 10
231.75756702580804
 20
48.761701327987964
 11
233.75756702580804
 21
48.761701327987964
  0
LINE
  8
_0-1_作画層１
  6
CONTINUOUS
 62
    7
 10
231.75756702580804
 20
48.761701327987964
 11
231.75756702580804
 21
45.32420132798795
  0
LINE
  8
_0-1_作画層１
  6
CONTINUOUS
 62
    7
 10
231.75756702580804
 20
42.82420132798795
 11
231.75756702580804
 21
41.761701327987964
  0
LINE
  8
_0-1_作画層１
  6
CONTINUOUS
 62
    7
 10
233.75756702580804
 20
48.761701327987964
 11
233.75756702580804
 21
45.32420132798795
  0
LINE
  8
_0-1_作画層１
  6
CONTINUOUS
 62
    7
 10
233.75756702580804
 20
42.82420132798795
 11
233.75756702580804
 21
41.761701327987964
  0
ARC
  8
_0-1_作画層１
  6
CONTINUOUS
 62
    7
 10
232.75756702580816
 20
44.074201327989257
 40
1.5625000000013116
 50
128.65980825412299
 51
231.34019174593561
  0
ARC
  8
_0-1_作画層１
  6
CONTINUOUS
 62
    7
 10
232.75756702580816
 20
44.074201327989272
 40
1.5625000000012561
 50
308.65980825405785
 51
51.340191745883217
  0
ARC
  8
_0-1_作画層１
  6
CONTINUOUS
 62
    7
 10
232.7575670258081
 20
41.886701327987964
 40
1.007782218537375
 50
187.12501634890137
 51
359.9999999999992
  0
LINE
  8
_0-1_作画層１
  6
CONTINUOUS
 62
    7
 10
231.75756702580804
 20
41.761701327987964
 11
222.75756702580804
 21
41.761701327987964
  0
LINE
  8
_0-1_作画層１
  6
CONTINUOUS
 62
    7
 10
216.75756702580804
 20
51.261701327987964
 11
216.75756702580804
 21
41.761701327987964
  0
LINE
  8
_0-1_作画層１
  6
CONTINUOUS
 62
    7
 10
196.75756702580804
 20
51.261701327987964
 11
216.75756702580804
 21
51.261701327987964
  0
LINE
  8
_0-1_作画層１
  6
CONTINUOUS
 62
    7
 10
196.75756702580804
 20
41.761701327987964
 11
196.75756702580804
 21
51.261701327987964
  0
ARC
  8
_0-1_作画層１
  6
CONTINUOUS
 62
    7
 10
214.69506702580804
 20
48.836701327987967
 40
0.9999999999999855
 50
359.9999999999992
 51
89.999999999999986
  0
LINE
  8
_0-1_作画層１
  6
CONTINUOUS
 62
    7
 10
215.69506702580804
 20
48.836701327987953
 11
215.69506702580804
 21
44.13670132798795
  0
ARC
  8
_0-1_作画層１
  6
CONTINUOUS
 62
    7
 10
214.69506702580804
 20
44.136701327987936
 40
1
 50
270
 51
0.0000000000008014
  0
LINE
  8
_0-1_作画層１
  6
CONTINUOUS
 62
    7
 10
214.69506702580804
 20
43.13670132798795
 11
209.99506702580805
 21
43.13670132798795
  0
ARC
  8
_0-1_作画層１
  6
CONTINUOUS
 62
    7
 10
209.99506702580805
 20
44.136701327987936
 40
0.9999999999999855
 50
179.99999999999918
 51
270
  0
LINE
  8
_0-1_作画層１
  6
CONTINUOUS
 62
    7
 10
208.99506702580805
 20
44.13670132798795
 11
208.99506702580805
 21
48.836701327987953
  0
LINE
  8
_0-1_作画層１
  6
CONTINUOUS
 62
    7
 10
214.69506702580804
 20
49.836701327987953
 11
209.99506702580805
 21
49.836701327987953
  0
ARC
  8
_0-1_作画層１
  6
CONTINUOUS
 62
    7
 10
209.99506702580805
 20
48.836701327987967
 40
1
 50
90
 51
180.00000000000082
  0
CIRCLE
  8
_0-1_作画層１
  6
CONTINUOUS
 62
    7
 10
212.25756702580804
 20
46.57420132798795
 40
2.5194555463432966
  0
ARC
  8
_0-1_作画層１
  6
CONTINUOUS
 62
    7
 10
203.44506702580804
 20
48.836701327987967
 40
0.9999999999999855
 50
359.9999999999992
 51
89.999999999999986
  0
LINE
  8
_0-1_作画層１
  6
CONTINUOUS
 62
    7
 10
204.44506702580804
 20
48.836701327987953
 11
204.44506702580804
 21
44.13670132798795
  0
ARC
  8
_0-1_作画層１
  6
CONTINUOUS
 62
    7
 10
203.44506702580804
 20
44.136701327987936
 40
1
 50
270
 51
0.0000000000008014
  0
LINE
  8
_0-1_作画層１
  6
CONTINUOUS
 62
    7
 10
203.44506702580804
 20
43.13670132798795
 11
198.74506702580805
 21
43.13670132798795
  0
ARC
  8
_0-1_作画層１
  6
CONTINUOUS
 62
    7
 10
198.745067025808
 20
44.136701327987936
 40
0.9999999999999855
 50
179.99999999999918
 51
270.00000000000171
  0
LINE
  8
_0-1_作画層１
  6
CONTINUOUS
 62
    7
 10
197.74506702580805
 20
44.13670132798795
 11
197.74506702580805
 21
48.836701327987953
  0
LINE
  8
_0-1_作画層１
  6
CONTINUOUS
 62
    7
 10
203.44506702580804
 20
49.836701327987953
 11
198.74506702580805
 21
49.836701327987953
  0
ARC
  8
_0-1_作画層１
  6
CONTINUOUS
 62
    7
 10
198.745067025808
 20
48.836701327987967
 40
0.9999999999999713
 50
89.99999999999838
 51
180.00000000000082
  0
CIRCLE
  8
_0-1_作画層１
  6
CONTINUOUS
 62
    7
 10
201.00756702580804
 20
46.57420132798795
 40
2.5194555463432966
  0
LINE
  8
_0-1_作画層１
  6
CONTINUOUS
 62
    7
 10
207.75756702580804
 20
48.761701327987964
 11
205.75756702580804
 21
48.761701327987964
  0
LINE
  8
_0-1_作画層１
  6
CONTINUOUS
 62
    7
 10
207.75756702580804
 20
48.761701327987964
 11
207.75756702580804
 21
45.32420132798795
  0
LINE
  8
_0-1_作画層１
  6
CONTINUOUS
 62
    7
 10
207.75756702580804
 20
42.82420132798795
 11
207.75756702580804
 21
41.761701327987964
  0
LINE
  8
_0-1_作画層１
  6
CONTINUOUS
 62
    7
 10
205.75756702580804
 20
48.761701327987964
 11
205.75756702580804
 21
45.32420132798795
  0
LINE
  8
_0-1_作画層１
  6
CONTINUOUS
 62
    7
 10
205.75756702580804
 20
42.82420132798795
 11
205.75756702580804
 21
41.761701327987964
  0
ARC
  8
_0-1_作画層１
  6
CONTINUOUS
 62
    7
 10
206.75756702580793
 20
44.074201327989257
 40
1.5625000000013116
 50
308.65980825406439
 51
51.340191745877064
  0
ARC
  8
_0-1_作画層１
  6
CONTINUOUS
 62
    7
 10
206.75756702580793
 20
44.074201327989272
 40
1.5625000000012561
 50
128.6598082541168
 51
231.34019174594212
  0
ARC
  8
_0-1_作画層１
  6
CONTINUOUS
 62
    7
 10
206.75756702580799
 20
41.886701327987964
 40
1.007782218537375
 50
180.0000000000008
 51
352.8749836510986
  0
LINE
  8
_0-1_作画層１
  6
CONTINUOUS
 62
    7
 10
222.75756702580804
 20
41.761701327987964
 11
207.75756702580804
 21
41.761701327987964
  0
LINE
  8
_0-1_作画層１
  6
CONTINUOUS
 62
    7
 10
194.75756702580804
 20
41.761701327987964
 11
205.75756702580804
 21
41.761701327987964
  0
LINE
  8
_0-1_作画層１
  6
CONTINUOUS
 62
    7
 10
244.75756702580804
 20
41.761701327987964
 11
233.75756702580804
 21
41.761701327987964
  0
LINE
  8
_0-1_作画層１
  6
CONTINUOUS
 62
    7
 10
194.75756702580804
 20
41.761701327987964
 11
194.75756702580804
 21
23.761701327987964
  0
ARC
  8
_0-1_作画層１
  6
CONTINUOUS
 62
    7
 10
195.75756702580804
 20
23.76170132798795
 40
1
 50
179.99999999999918
 51
270
  0
LINE
  8
_0-1_作画層１
  6
CONTINUOUS
 62
    7
 10
244.75756702580804
 20
41.761701327987964
 11
244.75756702580804
 21
23.761701327987964
  0
LINE
  8
_0-1_作画層１
  6
CONTINUOUS
 62
    7
 10
195.75756702580804
 20
22.761701327987964
 11
243.75756702580804
 21
22.761701327987964
  0
ARC
  8
_0-1_作画層１
  6
CONTINUOUS
 62
    7
 10
243.75756702580804
 20
23.76170132798795
 40
1
 50
270
 51
0.0000000000008014
  0
TEXT
  8
_0-7_注記層１
 62
    7
 10
203.75756702580804
 20
34.51170132798795
 40
3.5
 41
1
 50
0
  1
電源
  0
LINE
  8
_0-1_作画層１
  6
CONTINUOUS
 62
    7
 10
202.25756702580804
 20
33.76170132798795
 11
212.25756702580804
 21
33.76170132798795
  0
LINE
  8
_0-1_作画層１
  6
CONTINUOUS
 62
    7
 10
212.25756702580804
 20
33.76170132798795
 11
212.25756702580804
 21
38.76170132798795
  0
LINE
  8
_0-1_作画層１
  6
CONTINUOUS
 62
    7
 10
212.25756702580804
 20
38.76170132798795
 11
202.25756702580804
 21
38.76170132798795
  0
LINE
  8
_0-1_作画層１
  6
CONTINUOUS
 62
    7
 10
202.25756702580804
 20
38.76170132798795
 11
202.25756702580804
 21
33.76170132798795
  0
LINE
  8
_0-1_作画層１
  6
CONTINUOUS
 62
    7
 10
227.25756702580804
 20
33.76170132798795
 11
237.25756702580804
 21
33.76170132798795
  0
LINE
  8
_0-1_作画層１
  6
CONTINUOUS
 62
    7
 10
237.25756702580804
 20
33.76170132798795
 11
237.25756702580804
 21
38.76170132798795
  0
LINE
  8
_0-1_作画層１
  6
CONTINUOUS
 62
    7
 10
237.25756702580804
 20
38.76170132798795
 11
227.25756702580804
 21
38.76170132798795
  0
LINE
  8
_0-1_作画層１
  6
CONTINUOUS
 62
    7
 10
227.25756702580804
 20
38.76170132798795
 11
227.25756702580804
 21
33.76170132798795
  0
TEXT
  8
_0-7_注記層１
 62
    7
 10
228.75756702580804
 20
34.51170132798795
 40
3.5
 41
1
 50
0
  1
負荷
  0
LINE
  8
_0-1_作画層１
  6
CONTINUOUS
 62
    7
 10
197.25756702580804
 20
76.26170132798795
 11
242.25756702580804
 21
76.26170132798795
  0
LINE
  8
_0-1_作画層１
  6
CONTINUOUS
 62
    7
 10
242.25756702580804
 20
76.26170132798795
 11
242.25756702580804
 21
90.261701327987964
  0
LINE
  8
_0-1_作画層１
  6
CONTINUOUS
 62
    7
 10
242.25756702580804
 20
90.261701327987964
 11
197.25756702580804
 21
90.261701327987964
  0
LINE
  8
_0-1_作画層１
  6
CONTINUOUS
 62
    7
 10
197.25756702580804
 20
90.261701327987964
 11
197.25756702580804
 21
76.26170132798795
  0
LINE
  8
_0-1_作画層１
  6
CONTINUOUS
 62
    7
 10
202.33719165273544
 20
86.353144575294436
 11
204.98884208218499
 21
89.004795004743983
  0
LINE
  8
_0-1_作画層１
  6
CONTINUOUS
 62
    7
 10
204.98884208218499
 20
89.004795004743983
 11
207.64049251163453
 21
86.353144575294436
  0
LINE
  8
_0-1_作画層１
  6
CONTINUOUS
 62
    7
 10
207.64049251163453
 20
86.353144575294436
 11
204.98884208218499
 21
83.70149414584489
  0
LINE
  8
_0-1_作画層１
  6
CONTINUOUS
 62
    7
 10
204.98884208218499
 20
83.70149414584489
 11
202.33719165273544
 21
86.353144575294436
  0
TEXT
  8
_0-7_注記層１
 62
    7
 10
204.038842082185
 20
86.028144575294448
 40
1.8999999999999999
 41
1
 50
0
  1
PS
  0
TEXT
  8
_0-7_注記層１
 62
    7
 10
204.51384208218496
 20
84.128144575294456
 40
1.8999999999999999
 41
1
 50
0
  1
E
  0
TEXT
  8
_0-7_注記層１
 62
    7
 10
201.23884208218499
 20
86.353144575294436
 40
2.5
 41
1
 50
0
  1
       JET
  0
TEXT
  8
_0-7_注記層１
 62
    7
 10
201.23884208218499
 20
83.853144575294436
 40
2.5
 41
1
 50
0
  1
       スナオ電気株式会社
  0
TEXT
  8
_0-7_注記層１
 62
    7
 10
201.23884208218499
 20
78.853144575294436
 40
2.5
 41
1
 50
0
  1
   AC100V  10A  50/60Hz
  0
TEXT
  8
_0-7_注記層１
 62
    7
 10
198.73884208218499
 20
70.828144575294431
 40
2.2999999999999998
 41
1
 50
0
  1
製造年月
  0
TEXT
  8
_0-7_注記層１
 62
    7
 10
208.58884208218501
 20
95.828144575294431
 40
2.2999999999999998
 41
1
 50
0
  1
２４時間タイムスイッチ
  0
TEXT
  8
_0-7_注記層１
 62
    7
 10
212.038842082185
 20
93.528144575294419
 40
2.2999999999999998
 41
1
 50
0
  1
ＳＳＣ－２４２Ｐ
  0
INSERT
  2
-004-_D4
  8
_0-9_寸法線層１
 10
-55.25
 20
-38.75
 41
1
 42
1
 50
0
  0
INSERT
  2
-005-_D5
  8
_0-9_寸法線層１
 10
-55.25
 20
-38.75
 41
1
 42
1
 50
0
  0
INSERT
  2
-006-_D6
  8
_0-9_寸法線層１
 10
-55.25
 20
-38.75
 41
1
 42
1
 50
0
  0
TEXT
  8
_0-7_注記層１
 62
    7
 10
252.75756702580804
 20
-2.9882986720120641
 40
3.5
 41
1
 50
0
  1
取付ビス
  0
LINE
  8
_0-7_注記層１
  6
CONTINUOUS
 62
    7
 10
222.25756702580804
 20
6.2617013279879359
 11
247.25756702580804
 21
-3.7382986720120641
  0
LINE
  8
_0-7_注記層１
  6
CONTINUOUS
 62
    7
 10
247.25756702580804
 20
-3.7382986720120641
 11
272.25756702580804
 21
-3.7382986720120641
  0
LINE
  8
_0-7_注記層１
  6
CONTINUOUS
 62
    7
 10
222.25756702580804
 20
6.2617013279879359
 11
225.34382354631066
 21
5.8995954185427024
  0
LINE
  8
_0-7_注記層１
  6
CONTINUOUS
 62
    7
 10
222.25756702580804
 20
6.2617013279879359
 11
224.74217065061697
 21
4.3954631793085639
  0
LINE
  8
_0-1_作画層１
  6
CONTINUOUS
 62
    7
 10
337.25756702580804
 20
16.261701327987964
 11
337.25756702580804
 21
97.261701327987964
  0
LINE
  8
_0-1_作画層１
  6
CONTINUOUS
 62
    7
 10
337.25756702580804
 20
97.261701327987964
 11
283.25756702580804
 21
97.261701327987964
  0
LINE
  8
_0-1_作画層１
  6
CONTINUOUS
 62
    7
 10
283.25756702580804
 20
97.261701327987964
 11
283.25756702580804
 21
16.261701327987964
  0
LINE
  8
_0-1_作画層１
  6
CONTINUOUS
 62
    7
 10
283.25756702580804
 20
16.261701327987964
 11
337.25756702580804
 21
16.261701327987964
  0
LINE
  8
_0-1_作画層１
  6
CONTINUOUS
 62
    7
 10
337.25756702580804
 20
90.403836951718802
 11
330.39970264953888
 21
97.261701327987964
  0
LINE
  8
_0-1_作画層１
  6
CONTINUOUS
 62
    7
 10
337.25756702580804
 20
83.332769139853212
 11
323.32863483767335
 21
97.261701327987964
  0
LINE
  8
_0-1_作画層１
  6
CONTINUOUS
 62
    7
 10
337.25756702580804
 20
76.261701327987794
 11
316.25756702580787
 21
97.261701327987964
  0
LINE
  8
_0-1_作画層１
  6
CONTINUOUS
 62
    7
 10
337.25756702580804
 20
69.190633516122261
 11
309.1864992139424
 21
97.261701327987964
  0
LINE
  8
_0-1_作画層１
  6
CONTINUOUS
 62
    7
 10
337.25756702580804
 20
62.119565704256729
 11
302.11543140207681
 21
97.261701327987964
  0
LINE
  8
_0-1_作画層１
  6
CONTINUOUS
 62
    7
 10
337.25756702580804
 20
55.048497892391254
 11
295.04436359021133
 21
97.261701327987964
  0
LINE
  8
_0-1_作画層１
  6
CONTINUOUS
 62
    7
 10
337.25756702580804
 20
47.977430080525778
 11
287.97329577834586
 21
97.261701327987964
  0
LINE
  8
_0-1_作画層１
  6
CONTINUOUS
 62
    7
 10
337.25756702580804
 20
40.906362268660246
 11
283.25756702580804
 21
94.906362268660246
  0
LINE
  8
_0-1_作画層１
  6
CONTINUOUS
 62
    7
 10
337.25756702580804
 20
33.835294456794713
 11
283.25756702580804
 21
87.835294456794713
  0
LINE
  8
_0-1_作画層１
  6
CONTINUOUS
 62
    7
 10
337.25756702580804
 20
26.764226644929238
 11
283.25756702580804
 21
80.764226644929238
  0
LINE
  8
_0-1_作画層１
  6
CONTINUOUS
 62
    7
 10
337.25756702580804
 20
19.693158833063706
 11
283.25756702580804
 21
73.693158833063762
  0
LINE
  8
_0-1_作画層１
  6
CONTINUOUS
 62
    7
 10
333.61795671901831
 20
16.261701327987964
 11
283.25756702580804
 21
66.622091021198287
  0
LINE
  8
_0-1_作画層１
  6
CONTINUOUS
 62
    7
 10
326.54688890715278
 20
16.261701327987964
 11
283.25756702580804
 21
59.551023209332698
  0
LINE
  8
_0-1_作画層１
  6
CONTINUOUS
 62
    7
 10
319.4758210952873
 20
16.261701327987964
 11
283.25756702580804
 21
52.479955397467222
  0
LINE
  8
_0-1_作画層１
  6
CONTINUOUS
 62
    7
 10
312.40475328342183
 20
16.261701327987964
 11
283.25756702580804
 21
45.408887585601747
  0
LINE
  8
_0-1_作画層１
  6
CONTINUOUS
 62
    7
 10
305.33368547155624
 20
16.261701327987964
 11
283.25756702580804
 21
38.337819773736157
  0
LINE
  8
_0-1_作画層１
  6
CONTINUOUS
 62
    7
 10
298.26261765969082
 20
16.261701327987964
 11
283.25756702580804
 21
31.266751961870739
  0
LINE
  8
_0-1_作画層１
  6
CONTINUOUS
 62
    7
 10
291.19154984782529
 20
16.261701327987964
 11
283.25756702580804
 21
24.195684150005206
  0
LINE
  8
_0-1_作画層１
  6
CONTINUOUS
 62
    7
 10
284.12048203595975
 20
16.261701327987964
 11
283.25756702580804
 21
17.124616338139674
  0
INSERT
  2
-007-_D7
  8
_0-9_寸法線層１
 10
-55.25
 20
-38.75
 41
1
 42
1
 50
0
  0
INSERT
  2
-008-_D8
  8
_0-9_寸法線層１
 10
-55.25
 20
-38.75
 41
1
 42
1
 50
0
  0
TEXT
  8
_0-7_注記層１
 62
    7
 10
289.75756702580804
 20
6.2617013279879359
 40
5
 41
1
 50
0
  1
パネルカット寸法
  0
LINE
  8
_0-1_作画層１
  6
CONTINUOUS
 62
    7
 10
287.25756702580804
 20
6.2617013279879359
 11
332.25756702580804
 21
6.2617013279879359
  0
TEXT
  8
_0-7_注記層１
 62
    7
 10
302.25
 20
-15.5
 40
3.5
 41
1
 50
0
  1
２４時間タイムスイッチ
  0
TEXT
  8
_0-7_注記層１
 62
    7
 10
244.75
 20
209.5
 40
3.5
 41
1
 50
0
  1
AC85V～AC115V
  0
TEXT
  8
_0-7_注記層１
 62
    7
 10
244.75
 20
184.5
 40
3.5
 41
1
 50
0
  1
35%RH～85％RH
  0
TEXT
  8
_0-7_注記層１
 62
    7
 10
244.75
 20
169.5
 40
3.5
 41
1
 50
0
  1
4回　ON-OFF動作
  0
TEXT
  8
_0-7_注記層１
 62
    7
 10
244.75
 20
144.5
 40
3.5
 41
1
 50
0
  1
H120×W70×D47mm
  0
TEXT
  8
_0-7_注記層１
 62
    7
 10
244.75
 20
204.5
 40
3.5
 41
1
 50
0
  1
50Hz/60Hz共用
  0
TEXT
  8
_0-7_注記層１
 62
    7
 10
211
 20
-15.5
 40
3.5
 41
1
 50
0
  1
2020.04.22
  0
TEXT
  8
_0-7_注記層１
 62
    7
 10
129.40909090909091
 20
-25.743801652892557
 40
3.5
 41
1
 50
0
  1
2020.04.22：端子接続図変更
  0
LINE
  8
_0-1_作画層１
  6
CONTINUOUS
 62
    7
 10
144.75756702580807
 20
18.76170132798795
 11
144.75756702580807
 21
-11.23829867201205
  0
LINE
  8
_0-1_作画層１
  6
CONTINUOUS
 62
    7
 10
139.75756702580807
 20
-11.23829867201205
 11
144.75756702580807
 21
-11.23829867201205
  0
TEXT
  8
_0-7_注記層１
 62
    7
 10
133.45867768595045
 20
77.52066115702479
 40
3.5
 41
1
 50
0
  1
出力
  0
TEXT
  8
_0-7_注記層１
 62
    7
 10
302.25
 20
-26.25
 40
5
 41
1
 50
0
  1
SSC-242P-001-03
  0
ENDSEC
  0
EOF
