  0
SECTION
  2
HEADER
  9
$ACADVER
  1
AC1009
  9
$INSBASE
 10
0
 20
0
 30
0
  9
$EXTMIN
 10
0
 20
0
  9
$EXTMAX
 10
420
 20
297
  9
$LIMMIN
 10
0
 20
0
  9
$LIMMAX
 10
420
 20
297
  9
$LTSCALE
 40
1
  0
ENDSEC
  0
SECTION
  2
TABLES
  0
TABLE
  2
LTYPE
 70
     9
  0
LTYPE
  2
CONTINUOUS
 70
    64
  3
実線
 72
    65
 73
     0
 40
0.0
  0
LTYPE
  2
DASHED1
 70
    64
  3
--  --  --  --  --  --  --  --  
 72
    65
 73
     2
 40
2.5
 49
1.25
 49
-1.25
  0
LTYPE
  2
DASHED2
 70
    64
  3
----    ----    ----    ----    
 72
    65
 73
     2
 40
5.0
 49
2.5
 49
-2.5
  0
LTYPE
  2
DASHED3
 70
    64
  3
------  ------  ------  ------  
 72
    65
 73
     2
 40
5.0
 49
3.75
 49
-1.25
  0
LTYPE
  2
CENTER1
 70
    64
  3
----- - ----- - ----- - ----- - 
 72
    65
 73
     4
 40
10.0
 49
6.25
 49
-1.25
 49
1.25
 49
-1.25
  0
LTYPE
  2
CENTER2
 70
    64
  3
----------  --  ----------  --  
 72
    65
 73
     4
 40
20.0
 49
12.5
 49
-2.5
 49
2.5
 49
-2.5
  0
LTYPE
  2
PHANTOM1
 70
    64
  3
--- - - --- - - --- - - --- - - 
 72
    65
 73
     6
 40
10.0
 49
3.25
 49
-1.25
 49
1.25
 49
-1.25
 49
1.25
 49
-1.25
  0
LTYPE
  2
PHANTOM2
 70
    64
  3
--------  -  -  --------  -  -  
 72
    65
 73
     6
 40
20.0
 49
10.0
 49
-2.5
 49
1.25
 49
-2.5
 49
1.25
 49
-2.5
  0
LTYPE
  2
DOT
 70
    64
  3
-   -   -   -   -   -   -   -   
 72
    65
 73
     2
 40
2.5
 49
0.625
 49
-1.875
  0
LTYPE
  2
DUMMY
 70
    64
  3
ダミー
 72
    65
 73
     0
 40
0.0
  0
LTYPE
  2
RAND1
 70
    64
  3
ランダム線1
 72
    65
 73
     4
 40
10.0
 49
1.0
 49
-2.0
 49
3.0
 49
-4.0
  0
LTYPE
  2
RAND2
 70
    64
  3
ランダム線2
 72
    65
 73
     4
 40
14.0
 49
2.0
 49
-3.0
 49
4.0
 49
-5.0
  0
LTYPE
  2
RAND3
 70
    64
  3
ランダム線3
 72
    65
 73
     4
 40
18.0
 49
3.0
 49
-4.0
 49
5.0
 49
-6.0
  0
LTYPE
  2
RAND4
 70
    64
  3
ランダム線4
 72
    65
 73
     4
 40
22.0
 49
4.0
 49
-5.0
 49
6.0
 49
-7.0
  0
LTYPE
  2
RAND5
 70
    64
  3
ランダム線5
 72
    65
 73
     4
 40
26.0
 49
5.0
 49
-6.0
 49
7.0
 49
-8.0
  0
LTYPE
  2
LONG1
 70
    64
  3
----------  --  ----------  --  
 72
    65
 73
     4
 40
40.0
 49
32.5
 49
-2.5
 49
2.5
 49
-2.5
  0
LTYPE
  2
LONG2
 70
    64
  3
--------  -  -  --------  -  -  
 72
    65
 73
     6
 40
40.0
 49
30.0
 49
-2.5
 49
1.25
 49
-2.5
 49
1.25
 49
-2.5
  0
LTYPE
  2
LONG3
 70
    64
  3
+++++++++++++++..+++++++++++++++
 72
    65
 73
     2
 40
40.0
 49
37.5
 49
-2.5
  0
LTYPE
  2
LONG4
 70
    64
  3
+++++++++++++++..+++++++++++++++
 72
    65
 73
     2
 40
80.0
 49
75.0
 49
-5.0
  0
LTYPE
  2
LONG5
 70
    64
  3
----------  --  ----------  --  
 72
    65
 73
     4
 40
60.0
 49
37.5
 49
-7.5
 49
7.5
 49
-7.5
  0
LTYPE
  2
dashed
 70
   64
  3
-------   -------------   ------
 72
   65
 73
    2
 40
7.5
 49
6
 49
-1.5
  0
LTYPE
  2
dashed_spaced
 70
   64
  3
----        --------        ----
 72
   65
 73
    2
 40
12
 49
6
 49
-6
  0
LTYPE
  2
long_dashed_dotted
 70
   64
  3
------------- --- --------------
 72
   65
 73
    4
 40
15.25
 49
12
 49
-1.5
 49
0.25
 49
-1.5
  0
LTYPE
  2
long_dashed_double-dotted
 70
   64
  3
----------- --- --- ------------
 72
   65
 73
    6
 40
17
 49
12
 49
-1.5
 49
0.25
 49
-1.5
 49
0.25
 49
-1.5
  0
LTYPE
  2
long_dashed_triplicate-dotted
 70
   64
  3
--------- --- --- --- ----------
 72
   65
 73
    8
 40
18.75
 49
12
 49
-1.5
 49
0.25
 49
-1.5
 49
0.25
 49
-1.5
 49
0.25
 49
-1.5
  0
LTYPE
  2
dotted
 70
   64
  3
   -       -       -       -    
 72
   65
 73
    2
 40
1.75
 49
0.25
 49
-1.5
  0
LTYPE
  2
chain
 70
   64
  3
-------------- -- --------------
 72
   65
 73
    4
 40
18.5
 49
12
 49
-1.5
 49
3.5
 49
-1.5
  0
LTYPE
  2
chain_double_dash
 70
   64
  3
------------ -- -- -------------
 72
   65
 73
    6
 40
23.5
 49
12
 49
-1.5
 49
3.5
 49
-1.5
 49
3.5
 49
-1.5
  0
LTYPE
  2
dashed_dotted
 70
   64
  3
-----------     -     ----------
 72
   65
 73
    4
 40
9.25
 49
6
 49
-1.5
 49
0.25
 49
-1.5
  0
LTYPE
  2
double-dashed_dotted
 70
   64
  3
------   -----------   -   -----
 72
   65
 73
    6
 40
16.75
 49
6
 49
-1.5
 49
6
 49
-1.5
 49
0.25
 49
-1.5
  0
LTYPE
  2
dashed_double-dotted
 70
   64
  3
---------    -    -    ---------
 72
   65
 73
    6
 40
11
 49
6
 49
-1.5
 49
0.25
 49
-1.5
 49
0.25
 49
-1.5
  0
LTYPE
  2
double-dashed_double-dotted
 70
   64
  3
-----   ---------   -   -   ----
 72
   65
 73
    8
 40
18.5
 49
6
 49
-1.5
 49
6
 49
-1.5
 49
0.25
 49
-1.5
 49
0.25
 49
-1.5
  0
LTYPE
  2
dashed_triplicate-dotted
 70
   64
  3
-------    -    -    -    ------
 72
   65
 73
    8
 40
12.75
 49
6
 49
-1.5
 49
0.25
 49
-1.5
 49
0.25
 49
-1.5
 49
0.25
 49
-1.5
  0
LTYPE
  2
double-dashed_triplicate-dotted
 70
   64
  3
-----  ---------  -  -  -  -----
 72
   65
 73
   10
 40
20.25
 49
6
 49
-1.5
 49
6
 49
-1.5
 49
0.25
 49
-1.5
 49
0.25
 49
-1.5
 49
0.25
 49
-1.5
  0
LTYPE
  2
undefined
 70
   64
  3
--------------------------------
 72
   65
 73
    0
 40
0
  0
LTYPE
  2
DASHED
 70
   64
  3
----        --------        ----
 72
   65
 73
    2
 40
4
 49
2
 49
-2
  0
LTYPE
  2
DOT_18
 70
   64
  3
---           -----           --
 72
   65
 73
    2
 40
3
 49
1
 49
-2
  0
LTYPE
  2
DASHDOT
 70
   64
  3
---------    ------    ---------
 72
   65
 73
    4
 40
17
 49
10
 49
-2
 49
3
 49
-2
  0
LTYPE
  2
DIVIDE
 70
   64
  3
-----------  --  --  -----------
 72
   65
 73
    6
 40
30
 49
20
 49
-2
 49
2
 49
-2
 49
2
 49
-2
  0
LTYPE
  2
CENTER
 70
   64
  3
-------------  --  -------------
 72
   65
 73
    4
 40
13
 49
10
 49
-1
 49
1
 49
-1
  0
LTYPE
  2
_
 70
   64
  3
                                
 72
   65
 73
    0
 40
0
  0
LTYPE
  2
__23
 70
   64
  3
                                
 72
   65
 73
    0
 40
0
  0
LTYPE
  2
__24
 70
   64
  3
                                
 72
   65
 73
    0
 40
0
  0
LTYPE
  2
__25
 70
   64
  3
                                
 72
   65
 73
    0
 40
0
  0
LTYPE
  2
__26
 70
   64
  3
                                
 72
   65
 73
    0
 40
0
  0
LTYPE
  2
__27
 70
   64
  3
                                
 72
   65
 73
    0
 40
0
  0
LTYPE
  2
__28
 70
   64
  3
                                
 72
   65
 73
    0
 40
0
  0
LTYPE
  2
__29
 70
   64
  3
                                
 72
   65
 73
    0
 40
0
  0
LTYPE
  2
__30
 70
   64
  3
                                
 72
   65
 73
    0
 40
0
  0
LTYPE
  2
__31
 70
   64
  3
                                
 72
   65
 73
    0
 40
0
  0
LTYPE
  2
__32
 70
   64
  3
                                
 72
   65
 73
    0
 40
0
  0
ENDTAB
  0
TABLE
  2
STYLE
  5
3
100
AcDbSymbolTable
 70
     1
  0
STYLE
  5
10
100
AcDbSymbolTableRecord
100
AcDbTextStyleTableRecord
  2
STANDARD
 70
     0
 40
0.0
 41
1.0
 50
0.0
 71
     0
 42
0.2
  3
txt
  4
bigfont.shx
  0
STYLE
  5
26
100
AcDbSymbolTableRecord
100
AcDbTextStyleTableRecord
  2
TATEGAKI
 70
    68
 40
0.0
 41
1.0
 50
0.0
 71
     0
 42
1.0
  3
txt
  4
bigfont.shx
  0
ENDTAB
  0
TABLE
  2
LAYER
 70
    5
  0
LAYER
  2
_0-1_作画層１
 70
   64
 62
    7
  6
CONTINUOUS
  0
LAYER
  2
_0-7_注記層１
 70
   64
 62
    7
  6
CONTINUOUS
  0
LAYER
  2
_0-9_寸法線層１
 70
   64
 62
    7
  6
CONTINUOUS
  0
LAYER
  2
_0-d_0_1
 70
   64
 62
    7
  6
CONTINUOUS
  0
LAYER
  2
ADD_LINE
 70
   64
 62
    7
  6
CONTINUOUS
  0
ENDTAB
  0
ENDSEC
  0
SECTION
  2
BLOCKS
  0
BLOCK
  2
-000-_D4
 70
   64
 10
0
 20
0
 30
0
  0
LINE
  8
_0-9_寸法線層１
  6
CONTINUOUS
 62
    7
 10
326.79112377850163
 20
54.617976384364852
 11
326.79112377850163
 21
117.11797638436485
  0
TEXT
  8
_0-9_寸法線層１
 62
    7
 10
325.79112377850163
 20
83.979747816711068
 40
3
 41
1
 50
90
  1
64
  0
LINE
  8
_0-9_寸法線層１
  6
CONTINUOUS
 62
    7
 10
277.29112377850163
 20
54.617976384364852
 11
328.79112377850163
 21
54.617976384364852
  0
LINE
  8
_0-9_寸法線層１
  6
CONTINUOUS
 62
    7
 10
277.29112377850163
 20
117.11797638436485
 11
328.79112377850163
 21
117.11797638436485
  0
ENDBLK
  0
ENDSEC
  0
SECTION
  2
ENTITIES
  0
TEXT
  8
_0-7_注記層１
 62
    7
 10
271.25
 20
263
 40
3.5
 41
1
 50
0
  1
型　　 　番
  0
TEXT
  8
_0-7_注記層１
 62
    7
 10
271.25
 20
253
 40
3.5
 41
1
 50
0
  1
許容電圧変動範囲
  0
TEXT
  8
_0-7_注記層１
 62
    7
 10
271.25
 20
248
 40
3.5
 41
1
 50
0
  1
周　　波　　数
  0
TEXT
  8
_0-7_注記層１
 62
    7
 10
271.25
 20
243
 40
3.5
 41
1
 50
0
  1
停　電　補　償
  0
TEXT
  8
_0-7_注記層１
 62
    7
 10
271.25
 20
258
 40
3.5
 41
1
 50
0
  1
電  源  電  圧
  0
TEXT
  8
_0-7_注記層１
 62
    7
 10
268.75
 20
272.25
 40
5
 41
1
 50
0
  1
規　格
  0
LINE
  8
_0-1_作画層１
  6
CONTINUOUS
 62
    7
 10
266.25
 20
272.25
 11
286.25
 21
272.25
  0
TEXT
  8
_0-7_注記層１
 62
    7
 10
301.125
 20
28
 40
3.5
 41
1
 50
0
  1
1/1
  0
TEXT
  8
_0-7_注記層１
 62
    7
 10
335.25
 20
30.5
 40
3.5
 41
1
 50
0
  1
承認
  0
TEXT
  8
_0-7_注記層１
 62
    7
 10
273.75
 20
17.25
 40
5
 41
1
 50
0
  1
スナオ電気株式会社
  0
LINE
  8
_0-1_作画層１
  6
CONTINUOUS
 62
    7
 10
268.75
 20
34.75
 11
268.75
 21
14.75
  0
LINE
  8
_0-1_作画層１
  6
CONTINUOUS
 62
    7
 10
293.75
 20
34.75
 11
293.75
 21
24.75
  0
LINE
  8
_0-1_作画層１
  6
CONTINUOUS
 62
    7
 10
313.75
 20
34.75
 11
313.75
 21
24.75
  0
LINE
  8
_0-1_作画層１
  6
CONTINUOUS
 62
    7
 10
333.75
 20
34.75
 11
333.75
 21
24.75
  0
LINE
  8
_0-1_作画層１
  6
CONTINUOUS
 62
    7
 10
358.75
 20
14.75
 11
358.75
 21
34.75
  0
LINE
  8
_0-1_作画層１
  6
CONTINUOUS
 62
    7
 10
413.75
 20
292.25
 11
16.25
 21
292.25
  0
LINE
  8
_0-1_作画層１
  6
CONTINUOUS
 62
    7
 10
16.25
 20
14.75
 11
16.25
 21
292.25
  0
LINE
  8
_0-1_作画層１
  6
CONTINUOUS
 62
    7
 10
413.75
 20
14.75
 11
16.25
 21
14.75
  0
LINE
  8
_0-1_作画層１
  6
CONTINUOUS
 62
    7
 10
413.75
 20
34.75
 11
268.75
 21
34.75
  0
LINE
  8
_0-1_作画層１
  6
CONTINUOUS
 62
    7
 10
413.75
 20
24.75
 11
268.75
 21
24.75
  0
LINE
  8
_0-1_作画層１
  6
CONTINUOUS
 62
    7
 10
413.75
 20
14.75
 11
413.75
 21
292.25
  0
TEXT
  8
_0-7_注記層１
 62
    7
 10
318.5
 20
28
 40
3.5
 41
1
 50
0
  1
ゴトウ
  0
LINE
  8
_0-1_作画層１
  6
CONTINUOUS
 62
    7
 10
381.25
 20
267.25
 11
268.75
 21
267.25
  0
LINE
  8
_0-1_作画層１
  6
CONTINUOUS
 62
    7
 10
381.25
 20
262.25
 11
268.75
 21
262.25
  0
LINE
  8
_0-1_作画層１
  6
CONTINUOUS
 62
    7
 10
381.25
 20
257.25
 11
268.75
 21
257.25
  0
LINE
  8
_0-1_作画層１
  6
CONTINUOUS
 62
    7
 10
381.25
 20
252.25
 11
268.75
 21
252.25
  0
LINE
  8
_0-1_作画層１
  6
CONTINUOUS
 62
    7
 10
381.25
 20
247.25
 11
268.75
 21
247.25
  0
LINE
  8
_0-1_作画層１
  6
CONTINUOUS
 62
    7
 10
381.25
 20
242.25
 11
268.75
 21
242.25
  0
TEXT
  8
_0-7_注記層１
 62
    7
 10
271.25
 20
233
 40
3.5
 41
1
 50
0
  1
使 用 周 囲 温 度
  0
TEXT
  8
_0-7_注記層１
 62
    7
 10
271.25
 20
228
 40
3.5
 41
1
 50
0
  1
使 用 周 囲 湿 度
  0
TEXT
  8
_0-7_注記層１
 62
    7
 10
271.25
 20
223
 40
3.5
 41
1
 50
0
  1
接　点　定　格
  0
TEXT
  8
_0-7_注記層１
 62
    7
 10
271.25
 20
218
 40
3.5
 41
1
 50
0
  1
出　　　　　力
  0
TEXT
  8
_0-7_注記層１
 62
    7
 10
271.25
 20
213
 40
3.5
 41
1
 50
0
  1
設　定　回　数
  0
TEXT
  8
_0-7_注記層１
 62
    7
 10
271.25
 20
208
 40
3.5
 41
1
 50
0
  1
最 小 設 定 時 間
  0
TEXT
  8
_0-7_注記層１
 62
    7
 10
271.25
 20
203
 40
3.5
 41
1
 50
0
  1
時　間　精　度
  0
TEXT
  8
_0-7_注記層１
 62
    7
 10
271.25
 20
198
 40
3.5
 41
1
 50
0
  1
消　費　電　力　
  0
TEXT
  8
_0-7_注記層１
 62
    7
 10
271.25
 20
193
 40
3.5
 41
1
 50
0
  1
重　　　  　量
  0
TEXT
  8
_0-7_注記層１
 62
    7
 10
271.25
 20
188
 40
3.5
 41
1
 50
0
  1
外　形　寸　法
  0
TEXT
  8
_0-7_注記層１
 62
    7
 10
306.25
 20
233
 40
3.5
 41
1
 50
0
  1
-10℃～50℃
  0
TEXT
  8
_0-7_注記層１
 62
    7
 10
306.25
 20
218
 40
3.5
 41
1
 50
0
  1
接点出力（1a）
  0
TEXT
  8
_0-7_注記層１
 62
    7
 10
306.25
 20
223
 40
3.5
 41
1
 50
0
  1
抵抗負荷　AC250V  7A
  0
TEXT
  8
_0-7_注記層１
 62
    7
 10
271.25
 20
183
 40
3.5
 41
1
 50
0
  1
付　　属　　品
  0
LINE
  8
_0-1_作画層１
  6
CONTINUOUS
 62
    7
 10
381.25
 20
232.25
 11
268.75
 21
232.25
  0
LINE
  8
_0-1_作画層１
  6
CONTINUOUS
 62
    7
 10
381.25
 20
232.25
 11
268.75
 21
232.25
  0
LINE
  8
_0-1_作画層１
  6
CONTINUOUS
 62
    7
 10
381.25
 20
227.25
 11
268.75
 21
227.25
  0
LINE
  8
_0-1_作画層１
  6
CONTINUOUS
 62
    7
 10
381.25
 20
222.25
 11
268.75
 21
222.25
  0
LINE
  8
_0-1_作画層１
  6
CONTINUOUS
 62
    7
 10
381.25
 20
217.25
 11
268.75
 21
217.25
  0
LINE
  8
_0-1_作画層１
  6
CONTINUOUS
 62
    7
 10
381.25
 20
212.25
 11
268.75
 21
212.25
  0
LINE
  8
_0-1_作画層１
  6
CONTINUOUS
 62
    7
 10
381.25
 20
207.25
 11
268.75
 21
207.25
  0
LINE
  8
_0-1_作画層１
  6
CONTINUOUS
 62
    7
 10
381.25
 20
202.25
 11
268.75
 21
202.25
  0
LINE
  8
_0-1_作画層１
  6
CONTINUOUS
 62
    7
 10
381.25
 20
197.25
 11
268.75
 21
197.25
  0
LINE
  8
_0-1_作画層１
  6
CONTINUOUS
 62
    7
 10
381.25
 20
192.25
 11
268.75
 21
192.25
  0
LINE
  8
_0-1_作画層１
  6
CONTINUOUS
 62
    7
 10
381.25
 20
187.25
 11
268.75
 21
187.25
  0
LINE
  8
_0-1_作画層１
  6
CONTINUOUS
 62
    7
 10
381.25
 20
178.5
 11
268.75
 21
178.5
  0
LINE
  8
_0-1_作画層１
  6
CONTINUOUS
 62
    7
 10
381.25
 20
237.25
 11
268.75
 21
237.25
  0
LINE
  8
_0-1_作画層１
  6
CONTINUOUS
 62
    7
 10
381.25
 20
237.25
 11
268.75
 21
237.25
  0
TEXT
  8
_0-7_注記層１
 62
    7
 10
271.25
 20
238
 40
3.5
 41
1
 50
0
  1
充　電　時　間
  0
TEXT
  8
_0-7_注記層１
 62
    7
 10
306.25
 20
238
 40
3.5
 41
1
 50
0
  1
50時間（100％充電に対して）
  0
TEXT
  8
_0-7_注記層１
 62
    7
 10
306.25
 20
203
 40
3.5
 41
1
 50
0
  1
±15秒／月（25℃）
  0
LINE
  8
_0-1_作画層１
  6
CONTINUOUS
 62
    7
 10
268.75
 20
267.25
 11
268.75
 21
178.5
  0
LINE
  8
_0-1_作画層１
  6
CONTINUOUS
 62
    7
 10
303.75
 20
267.25
 11
303.75
 21
178.5
  0
LINE
  8
_0-1_作画層１
  6
CONTINUOUS
 62
    7
 10
381.25
 20
267.25
 11
381.25
 21
178.5
  0
TEXT
  8
_0-7_注記層１
 62
    7
 10
306.25
 20
263
 40
3.5
 41
1
 50
0
  1
ST-702S
  0
TEXT
  8
_0-7_注記層１
 62
    7
 10
306.25
 20
253
 40
3.5
 41
1
 50
0
  1
AC85V～AC230V
  0
TEXT
  8
_0-7_注記層１
 62
    7
 10
306.25
 20
208
 40
3.5
 41
1
 50
0
  1
30分
  0
TEXT
  8
_0-7_注記層１
 62
    7
 10
306.25
 20
198
 40
3.5
 41
1
 50
0
  1
約10VA
  0
TEXT
  8
_0-7_注記層１
 62
    7
 10
306.25
 20
193
 40
3.5
 41
1
 50
0
  1
160g
  0
TEXT
  8
_0-7_注記層１
 62
    7
 10
306.25
 20
183
 40
3.5
 41
1
 50
0
  1
前面カバー、取付けビス２本、
  0
TEXT
  8
_0-7_注記層１
 62
    7
 10
306.25
 20
179.5
 40
3.5
 41
1
 50
0
  1
端子台カバー（赤）（白）色設定子各３個
  0
CIRCLE
  8
_0-1_作画層１
  6
CONTINUOUS
 62
    7
 10
156.25
 20
77.25
 40
5
  0
LINE
  8
_0-1_作画層１
  6
CONTINUOUS
 62
    7
 10
155
 20
81.625
 11
157.5
 21
81.625
  0
LINE
  8
_0-1_作画層１
  6
CONTINUOUS
 62
    7
 10
157.5
 20
72.875
 11
155
 21
72.875
  0
LINE
  8
_0-1_作画層１
  6
CONTINUOUS
 62
    7
 10
160.625
 20
78.5
 11
160.625
 21
76
  0
LINE
  8
_0-1_作画層１
  6
CONTINUOUS
 62
    7
 10
151.875
 20
76
 11
151.875
 21
78.5
  0
ARC
  8
_0-1_作画層１
  6
CONTINUOUS
 62
    7
 10
154.00000000000003
 20
79.499999999999986
 40
0.9999999999999713
 50
269.99999999999835
 51
0.0000000000008142
  0
LINE
  8
_0-1_作画層１
  6
CONTINUOUS
 62
    7
 10
151.875
 20
76
 11
154
 21
76
  0
ARC
  8
_0-1_作画層１
  6
CONTINUOUS
 62
    7
 10
154.00000000000003
 20
75.000000000000014
 40
0.9999999999999855
 50
359.9999999999992
 51
90.000000000001634
  0
LINE
  8
_0-1_作画層１
  6
CONTINUOUS
 62
    7
 10
160.625
 20
78.5
 11
158.5
 21
78.5
  0
ARC
  8
_0-1_作画層１
  6
CONTINUOUS
 62
    7
 10
158.49999999999997
 20
79.499999999999986
 40
0.9999999999999855
 50
179.99999999999918
 51
270.00000000000171
  0
LINE
  8
_0-1_作画層１
  6
CONTINUOUS
 62
    7
 10
154.0000001271566
 20
78.5
 11
151.875
 21
78.5
  0
LINE
  8
_0-1_作画層１
  6
CONTINUOUS
 62
    7
 10
160.625
 20
76
 11
158.5
 21
76
  0
LINE
  8
_0-1_作画層１
  6
CONTINUOUS
 62
    7
 10
157.5
 20
72.875
 11
157.5
 21
75
  0
ARC
  8
_0-1_作画層１
  6
CONTINUOUS
 62
    7
 10
158.49999999999997
 20
75.000000000000014
 40
0.9999999999999855
 50
89.99999999999838
 51
180.00000000000082
  0
LINE
  8
_0-1_作画層１
  6
CONTINUOUS
 62
    7
 10
155
 20
79.499999999999986
 11
155
 21
81.625
  0
LINE
  8
_0-1_作画層１
  6
CONTINUOUS
 62
    7
 10
155
 20
75.000000000000014
 11
155
 21
72.875
  0
LINE
  8
_0-1_作画層１
  6
CONTINUOUS
 62
    7
 10
157.5
 20
79.499999999999986
 11
157.5
 21
81.625
  0
CIRCLE
  8
_0-1_作画層１
  6
CONTINUOUS
 62
    7
 10
173.75
 20
77.25
 40
5
  0
LINE
  8
_0-1_作画層１
  6
CONTINUOUS
 62
    7
 10
172.5
 20
81.625
 11
175
 21
81.625
  0
LINE
  8
_0-1_作画層１
  6
CONTINUOUS
 62
    7
 10
175
 20
72.875
 11
172.5
 21
72.875
  0
LINE
  8
_0-1_作画層１
  6
CONTINUOUS
 62
    7
 10
178.125
 20
78.5
 11
178.125
 21
76
  0
LINE
  8
_0-1_作画層１
  6
CONTINUOUS
 62
    7
 10
169.375
 20
76
 11
169.375
 21
78.5
  0
ARC
  8
_0-1_作画層１
  6
CONTINUOUS
 62
    7
 10
171.50000000000003
 20
79.499999999999986
 40
0.9999999999999713
 50
269.99999999999835
 51
0.0000000000008142
  0
LINE
  8
_0-1_作画層１
  6
CONTINUOUS
 62
    7
 10
169.375
 20
76
 11
171.5
 21
76
  0
ARC
  8
_0-1_作画層１
  6
CONTINUOUS
 62
    7
 10
171.50000000000003
 20
75.000000000000014
 40
0.9999999999999855
 50
359.9999999999992
 51
90.000000000001634
  0
LINE
  8
_0-1_作画層１
  6
CONTINUOUS
 62
    7
 10
178.125
 20
78.5
 11
176
 21
78.5
  0
ARC
  8
_0-1_作画層１
  6
CONTINUOUS
 62
    7
 10
175.99999999999997
 20
79.499999999999986
 40
0.9999999999999855
 50
179.99999999999918
 51
270.00000000000171
  0
LINE
  8
_0-1_作画層１
  6
CONTINUOUS
 62
    7
 10
171.5000001271566
 20
78.5
 11
169.375
 21
78.5
  0
LINE
  8
_0-1_作画層１
  6
CONTINUOUS
 62
    7
 10
178.125
 20
76
 11
176
 21
76
  0
LINE
  8
_0-1_作画層１
  6
CONTINUOUS
 62
    7
 10
175
 20
72.875
 11
175
 21
75
  0
ARC
  8
_0-1_作画層１
  6
CONTINUOUS
 62
    7
 10
175.99999999999997
 20
75.000000000000014
 40
0.9999999999999855
 50
89.99999999999838
 51
180.00000000000082
  0
LINE
  8
_0-1_作画層１
  6
CONTINUOUS
 62
    7
 10
172.5
 20
79.499999999999986
 11
172.5
 21
81.625
  0
LINE
  8
_0-1_作画層１
  6
CONTINUOUS
 62
    7
 10
172.5
 20
75.000000000000014
 11
172.5
 21
72.875
  0
LINE
  8
_0-1_作画層１
  6
CONTINUOUS
 62
    7
 10
175
 20
79.499999999999986
 11
175
 21
81.625
  0
CIRCLE
  8
_0-1_作画層１
  6
CONTINUOUS
 62
    7
 10
191.25
 20
77.25
 40
5
  0
LINE
  8
_0-1_作画層１
  6
CONTINUOUS
 62
    7
 10
190
 20
81.625
 11
192.5
 21
81.625
  0
LINE
  8
_0-1_作画層１
  6
CONTINUOUS
 62
    7
 10
192.5
 20
72.875
 11
190
 21
72.875
  0
LINE
  8
_0-1_作画層１
  6
CONTINUOUS
 62
    7
 10
195.625
 20
78.5
 11
195.625
 21
76
  0
LINE
  8
_0-1_作画層１
  6
CONTINUOUS
 62
    7
 10
186.875
 20
76
 11
186.875
 21
78.5
  0
ARC
  8
_0-1_作画層１
  6
CONTINUOUS
 62
    7
 10
189.00000000000003
 20
79.499999999999986
 40
0.9999999999999713
 50
269.99999999999835
 51
0.0000000000008142
  0
LINE
  8
_0-1_作画層１
  6
CONTINUOUS
 62
    7
 10
186.875
 20
76
 11
189
 21
76
  0
ARC
  8
_0-1_作画層１
  6
CONTINUOUS
 62
    7
 10
189.00000000000003
 20
75.000000000000014
 40
0.9999999999999855
 50
359.9999999999992
 51
90.000000000001634
  0
LINE
  8
_0-1_作画層１
  6
CONTINUOUS
 62
    7
 10
195.625
 20
78.5
 11
193.5
 21
78.5
  0
ARC
  8
_0-1_作画層１
  6
CONTINUOUS
 62
    7
 10
193.49999999999997
 20
79.499999999999986
 40
0.9999999999999855
 50
179.99999999999918
 51
270.00000000000171
  0
LINE
  8
_0-1_作画層１
  6
CONTINUOUS
 62
    7
 10
189.0000001271566
 20
78.5
 11
186.875
 21
78.5
  0
LINE
  8
_0-1_作画層１
  6
CONTINUOUS
 62
    7
 10
195.625
 20
76
 11
193.5
 21
76
  0
LINE
  8
_0-1_作画層１
  6
CONTINUOUS
 62
    7
 10
192.5
 20
72.875
 11
192.5
 21
75
  0
ARC
  8
_0-1_作画層１
  6
CONTINUOUS
 62
    7
 10
193.49999999999997
 20
75.000000000000014
 40
0.9999999999999855
 50
89.99999999999838
 51
180.00000000000082
  0
LINE
  8
_0-1_作画層１
  6
CONTINUOUS
 62
    7
 10
190
 20
79.499999999999986
 11
190
 21
81.625
  0
LINE
  8
_0-1_作画層１
  6
CONTINUOUS
 62
    7
 10
190
 20
75.000000000000014
 11
190
 21
72.875
  0
LINE
  8
_0-1_作画層１
  6
CONTINUOUS
 62
    7
 10
192.5
 20
79.499999999999986
 11
192.5
 21
81.625
  0
CIRCLE
  8
_0-1_作画層１
  6
CONTINUOUS
 62
    7
 10
208.75
 20
77.25
 40
5
  0
LINE
  8
_0-1_作画層１
  6
CONTINUOUS
 62
    7
 10
207.5
 20
81.625
 11
210
 21
81.625
  0
LINE
  8
_0-1_作画層１
  6
CONTINUOUS
 62
    7
 10
210
 20
72.875
 11
207.5
 21
72.875
  0
LINE
  8
_0-1_作画層１
  6
CONTINUOUS
 62
    7
 10
213.125
 20
78.5
 11
213.125
 21
76
  0
LINE
  8
_0-1_作画層１
  6
CONTINUOUS
 62
    7
 10
204.375
 20
76
 11
204.375
 21
78.5
  0
ARC
  8
_0-1_作画層１
  6
CONTINUOUS
 62
    7
 10
206.50000000000003
 20
79.499999999999986
 40
0.9999999999999713
 50
269.99999999999835
 51
0.0000000000008142
  0
LINE
  8
_0-1_作画層１
  6
CONTINUOUS
 62
    7
 10
204.375
 20
76
 11
206.5
 21
76
  0
ARC
  8
_0-1_作画層１
  6
CONTINUOUS
 62
    7
 10
206.50000000000003
 20
75.000000000000014
 40
0.9999999999999855
 50
359.9999999999992
 51
90.000000000001634
  0
LINE
  8
_0-1_作画層１
  6
CONTINUOUS
 62
    7
 10
213.125
 20
78.5
 11
211
 21
78.5
  0
ARC
  8
_0-1_作画層１
  6
CONTINUOUS
 62
    7
 10
210.99999999999997
 20
79.499999999999986
 40
0.9999999999999855
 50
179.99999999999918
 51
270.00000000000171
  0
LINE
  8
_0-1_作画層１
  6
CONTINUOUS
 62
    7
 10
206.5000001271566
 20
78.5
 11
204.375
 21
78.5
  0
LINE
  8
_0-1_作画層１
  6
CONTINUOUS
 62
    7
 10
213.125
 20
76
 11
211
 21
76
  0
LINE
  8
_0-1_作画層１
  6
CONTINUOUS
 62
    7
 10
210
 20
72.875
 11
210
 21
75
  0
ARC
  8
_0-1_作画層１
  6
CONTINUOUS
 62
    7
 10
210.99999999999997
 20
75.000000000000014
 40
0.9999999999999855
 50
89.99999999999838
 51
180.00000000000082
  0
LINE
  8
_0-1_作画層１
  6
CONTINUOUS
 62
    7
 10
207.5
 20
79.499999999999986
 11
207.5
 21
81.625
  0
LINE
  8
_0-1_作画層１
  6
CONTINUOUS
 62
    7
 10
207.5
 20
75.000000000000014
 11
207.5
 21
72.875
  0
LINE
  8
_0-1_作画層１
  6
CONTINUOUS
 62
    7
 10
210
 20
79.499999999999986
 11
210
 21
81.625
  0
LINE
  8
_0-1_作画層１
  6
CONTINUOUS
 62
    7
 10
148.75
 20
84.75
 11
216.25
 21
84.75
  0
LINE
  8
_0-1_作画層１
  6
CONTINUOUS
 62
    7
 10
216.25
 20
84.75
 11
216.25
 21
69.75
  0
LINE
  8
_0-1_作画層１
  6
CONTINUOUS
 62
    7
 10
216.25
 20
69.75
 11
148.75
 21
69.75
  0
LINE
  8
_0-1_作画層１
  6
CONTINUOUS
 62
    7
 10
148.75
 20
69.75
 11
148.75
 21
84.75
  0
LINE
  8
_0-1_作画層１
  6
CONTINUOUS
 62
    7
 10
208.75
 20
62.25
 11
221.25
 21
62.25
  0
CIRCLE
  8
_0-1_作画層１
  6
CONTINUOUS
 62
    7
 10
165
 20
54.75
 40
5
  0
ARC
  8
_0-1_作画層１
  6
CONTINUOUS
 62
    7
 10
163.4375
 20
54.909974466828913
 40
1.5706680362308238
 50
185.84578235473452
 51
354.15421764526542
  0
ARC
  8
_0-1_作画層１
  6
CONTINUOUS
 62
    7
 10
166.5625
 20
54.590025533171058
 40
1.5706680362308283
 50
5.8457823547360706
 51
174.15421764526394
  0
LINE
  8
_0-1_作画層１
  6
CONTINUOUS
 62
    7
 10
160
 20
54.75
 11
156.25
 21
54.75
  0
LINE
  8
_0-1_作画層１
  6
CONTINUOUS
 62
    7
 10
173.75
 20
54.75
 11
170
 21
54.75
  0
LINE
  8
_0-1_作画層１
  6
CONTINUOUS
 62
    7
 10
193.75
 20
54.75
 11
191.25
 21
54.75
  0
TEXT
  8
_0-7_注記層１
 62
    7
 10
160.25
 20
45.5
 40
3.5
 41
1
 50
0
  1
電源
  0
TEXT
  8
_0-7_注記層１
 62
    7
 10
154.125
 20
42
 40
3.5
 41
1
 50
0
  1
AC100V-200V
  0
TEXT
  8
_0-7_注記層１
 62
    7
 10
195.25
 20
53
 40
3.5
 41
1
 50
0
  1
負荷
  0
LINE
  8
_0-1_作画層１
  6
CONTINUOUS
 62
    7
 10
193.75
 20
52.25
 11
203.75
 21
52.25
  0
LINE
  8
_0-1_作画層１
  6
CONTINUOUS
 62
    7
 10
203.75
 20
52.25
 11
203.75
 21
57.25
  0
LINE
  8
_0-1_作画層１
  6
CONTINUOUS
 62
    7
 10
203.75
 20
57.25
 11
193.75
 21
57.25
  0
LINE
  8
_0-1_作画層１
  6
CONTINUOUS
 62
    7
 10
193.75
 20
57.25
 11
193.75
 21
52.25
  0
LINE
  8
_0-1_作画層１
  6
CONTINUOUS
 62
    7
 10
203.75
 20
54.75
 11
221.25
 21
54.75
  0
CIRCLE
  8
_0-1_作画層１
  6
CONTINUOUS
 62
    7
 10
195
 20
99.75
 40
1.25
  0
CIRCLE
  8
_0-1_作画層１
  6
CONTINUOUS
 62
    7
 10
205
 20
99.75
 40
1.25
  0
LINE
  8
_0-1_作画層１
  6
CONTINUOUS
 62
    7
 10
193.75
 20
99.75
 11
191.25
 21
99.75
  0
LINE
  8
_0-1_作画層１
  6
CONTINUOUS
 62
    7
 10
206.25
 20
99.75
 11
208.75
 21
99.75
  0
TEXT
  8
_0-7_注記層１
 62
    7
 10
158
 20
98
 40
3.5
 41
1
 50
0
  1
内部回路
  0
LINE
  8
_0-1_作画層１
  6
CONTINUOUS
 62
    7
 10
153.75
 20
97.25
 11
176.25
 21
97.25
  0
LINE
  8
_0-1_作画層１
  6
CONTINUOUS
 62
    7
 10
176.25
 20
97.25
 11
176.25
 21
102.25
  0
LINE
  8
_0-1_作画層１
  6
CONTINUOUS
 62
    7
 10
176.25
 20
102.25
 11
153.75
 21
102.25
  0
LINE
  8
_0-1_作画層１
  6
CONTINUOUS
 62
    7
 10
153.75
 20
102.25
 11
153.75
 21
97.25
  0
LINE
  8
_0-1_作画層１
  6
CONTINUOUS
 62
    7
 10
191.25
 20
84.75
 11
191.25
 21
99.75
  0
LINE
  8
_0-1_作画層１
  6
CONTINUOUS
 62
    7
 10
208.75
 20
84.75
 11
208.75
 21
99.75
  0
LINE
  8
_0-1_作画層１
  6
CONTINUOUS
 62
    7
 10
156.25
 20
84.75
 11
156.25
 21
97.25
  0
LINE
  8
_0-1_作画層１
  6
CONTINUOUS
 62
    7
 10
173.75
 20
84.75
 11
173.75
 21
97.25
  0
LINE
  8
_0-1_作画層１
  6
CONTINUOUS
 62
    7
 10
156.25
 20
69.75
 11
156.25
 21
54.75
  0
LINE
  8
_0-1_作画層１
  6
CONTINUOUS
 62
    7
 10
173.75
 20
69.75
 11
173.75
 21
54.75
  0
LINE
  8
_0-1_作画層１
  6
CONTINUOUS
 62
    7
 10
208.75
 20
69.75
 11
208.75
 21
62.25
  0
LINE
  8
_0-1_作画層１
  6
CONTINUOUS
 62
    7
 10
191.25
 20
69.75
 11
191.25
 21
54.75
  0
TEXT
  8
_0-7_注記層１
 62
    7
 10
222.5
 20
57.25
 40
3.5
 41
1
 50
0
  1
負荷用電源
  0
LINE
  8
_0-1_作画層１
  6
CONTINUOUS
 62
    7
 10
195.75
 20
100.75
 11
203.75
 21
104.75
  0
TEXT
  8
_0-7_注記層１
 62
    7
 10
194.25
 20
108
 40
3.5
 41
1
 50
0
  1
接点出力
  0
LINE
  8
_0-1_作画層１
  6
CONTINUOUS
 62
    7
 10
156.25
 20
117.25
 11
181.25
 21
117.25
  0
TEXT
  8
_0-7_注記層１
 62
    7
 10
158.75
 20
117.25
 40
5
 41
1
 50
0
  1
端子接続
  0
LINE
  8
_0-1_作画層１
  6
DASHED
 62
    7
 10
228.75
 20
109.75
 11
228.75
 21
77.25
  0
LINE
  8
_0-1_作画層１
  6
DASHED
 62
    7
 10
228.75
 20
77.25
 11
216.25
 21
77.25
  0
LINE
  8
_0-1_作画層１
  6
DASHED
 62
    7
 10
136.25
 20
109.75
 11
136.25
 21
77.25
  0
LINE
  8
_0-1_作画層１
  6
DASHED
 62
    7
 10
136.25
 20
77.25
 11
148.75
 21
77.25
  0
TEXT
  8
_0-7_注記層１
 62
    7
 10
43.75
 20
277.25
 40
5
 41
1
 50
0
  1
外形寸法
  0
LINE
  8
_0-1_作画層１
  6
CONTINUOUS
 62
    7
 10
41.25
 20
277.25
 11
66.25
 21
277.25
  0
LINE
  8
_0-1_作画層１
  6
CONTINUOUS
 62
    7
 10
76.144435197988628
 20
250.80591698189903
 11
76.504175693670391
 21
245.31765099068809
  0
LINE
  8
_0-1_作画層１
  6
CONTINUOUS
 62
    7
 10
74.255848080793498
 20
250.61986656685997
 11
74.973780543485759
 21
245.16691704293419
  0
LINE
  8
_0-1_作画層１
  6
CONTINUOUS
 62
    7
 10
72.383516223112224
 20
250.31073685189415
 11
73.456490904966472
 21
244.91645737191368
  0
LINE
  8
_0-1_作画層１
  6
CONTINUOUS
 62
    7
 10
70.535348326841472
 20
249.87984200020958
 11
71.958877474943279
 21
244.56724281808067
  0
LINE
  8
_0-1_作画層１
  6
CONTINUOUS
 62
    7
 10
68.719384581724285
 20
249.32893295785118
 11
70.487273604551433
 21
244.12082787057091
  0
LINE
  8
_0-1_作画層１
  6
CONTINUOUS
 62
    7
 10
66.943297774473308
 20
248.66047401925255
 11
69.04804936138737
 21
243.57914848824669
  0
LINE
  8
_0-1_作画層１
  6
CONTINUOUS
 62
    7
 10
65.214768798032878
 20
247.87728615304161
 11
67.647328765073894
 21
242.94451256295372
  0
LINE
  8
_0-1_作画層１
  6
CONTINUOUS
 62
    7
 10
63.541139037290691
 20
246.98274155160118
 11
66.291120917478679
 21
242.21958084603477
  0
LINE
  8
_0-1_作画層１
  6
CONTINUOUS
 62
    7
 10
61.929608733335613
 20
245.98060532113243
 11
64.985219390073894
 21
241.40749474068809
  0
LINE
  8
_0-1_作画層１
  6
CONTINUOUS
 62
    7
 10
63.735221297422527
 20
240.51177902718712
 11
60.387042433897136
 21
244.87521667977501
  0
LINE
  8
_0-1_作画層１
  6
CONTINUOUS
 62
    7
 10
58.920112044492839
 20
243.67133446236778
 11
62.546483428159831
 21
239.5362388660543
  0
LINE
  8
_0-1_作画層１
  6
CONTINUOUS
 62
    7
 10
57.535033614317058
 20
242.37410278817345
 11
61.42411366192448
 21
238.48499603768516
  0
LINE
  8
_0-1_作画層１
  6
CONTINUOUS
 62
    7
 10
56.237792403379558
 20
240.9890148212545
 11
60.372914702573894
 21
237.36259098550011
  0
LINE
  8
_0-1_作画層１
  6
CONTINUOUS
 62
    7
 10
55.033866316953777
 20
239.52203865548302
 11
59.397313506284831
 21
236.17386932870079
  0
LINE
  8
_0-1_作画層１
  6
CONTINUOUS
 62
    7
 10
53.92852154461491
 20
237.97953529854942
 11
58.501595885435222
 21
234.92388077279259
  0
LINE
  8
_0-1_作画層１
  6
CONTINUOUS
 62
    7
 10
52.92638531414616
 20
236.36800499459434
 11
57.689526946226238
 21
233.61798782845665
  0
LINE
  8
_0-1_作画層１
  6
CONTINUOUS
 62
    7
 10
52.031833083311199
 20
234.69436569710899
 11
56.964621932188152
 21
232.2617370655172
  0
LINE
  8
_0-1_作画層１
  6
CONTINUOUS
 62
    7
 10
50.5801672050153
 20
231.18973274727989
 11
55.788237960020183
 21
229.42180033227135
  0
LINE
  8
_0-1_作画層１
  6
CONTINUOUS
 62
    7
 10
51.248626143613933
 20
232.96578522225548
 11
56.329961211362956
 21
230.86104221841026
  0
LINE
  8
_0-1_作画層１
  6
CONTINUOUS
 62
    7
 10
50.029265792051433
 20
229.37375183602501
 11
55.341866881528972
 21
227.95023174782921
  0
LINE
  8
_0-1_作画層１
  6
CONTINUOUS
 62
    7
 10
49.598328978696941
 20
227.52561016579796
 11
54.992686659971355
 21
226.45257444878746
  0
LINE
  8
_0-1_作画層１
  6
CONTINUOUS
 62
    7
 10
49.289233596006511
 20
225.65321703454185
 11
54.742200286069988
 21
224.93536348839928
  0
LINE
  8
_0-1_作画層１
  6
CONTINUOUS
 62
    7
 10
49.103200347105144
 20
223.76464744111229
 11
54.591432006040691
 21
223.40495069523979
  0
LINE
  8
_0-1_作画層１
  6
CONTINUOUS
 62
    7
 10
106.97900334087954
 20
223.76466496487785
 11
101.49078884808169
 21
223.40498574277092
  0
LINE
  8
_0-1_作画層１
  6
CONTINUOUS
 62
    7
 10
106.7929948875104
 20
225.65327830811668
 11
101.34004727093325
 21
224.93532844086815
  0
LINE
  8
_0-1_作画層１
  6
CONTINUOUS
 62
    7
 10
106.48388424603091
 20
227.52558393975426
 11
101.08957043377505
 21
226.45260925790001
  0
LINE
  8
_0-1_作画層１
  6
CONTINUOUS
 62
    7
 10
106.05296459881411
 20
229.37371702691246
 11
100.74037304607974
 21
227.95023174782921
  0
LINE
  8
_0-1_作画層１
  6
CONTINUOUS
 62
    7
 10
105.50209751812564
 20
231.18973274727989
 11
100.29395809856997
 21
229.42183514138389
  0
LINE
  8
_0-1_作画層１
  6
CONTINUOUS
 62
    7
 10
104.83359661785708
 20
232.96581097146202
 11
99.752278716245755
 21
230.86105080147911
  0
LINE
  8
_0-1_作画層１
  6
CONTINUOUS
 62
    7
 10
104.05040684429751
 20
234.6943485309713
 11
99.117625624815091
 21
232.26177139779259
  0
LINE
  8
_0-1_作画層１
  6
CONTINUOUS
 62
    7
 10
103.15585461346255
 20
236.36798687478233
 11
98.392711074033841
 21
233.6179792453878
  0
LINE
  8
_0-1_作画層１
  6
CONTINUOUS
 62
    7
 10
102.1537355491315
 20
237.97950096627403
 11
97.580632598081692
 21
234.9238988926046
  0
LINE
  8
_0-1_作画層１
  6
CONTINUOUS
 62
    7
 10
96.684909255186184
 20
236.17387886544395
 11
101.04835453716861
 21
239.52206535836388
  0
LINE
  8
_0-1_作画層１
  6
CONTINUOUS
 62
    7
 10
99.844464690366848
 20
240.98898811837364
 11
95.709351927915677
 21
237.3626081516378
  0
LINE
  8
_0-1_作画層１
  6
CONTINUOUS
 62
    7
 10
98.547213942686184
 20
242.37408371468712
 11
94.658126265684231
 21
238.484986500942
  0
LINE
  8
_0-1_作画層１
  6
CONTINUOUS
 62
    7
 10
97.162145049253567
 20
243.67132492562462
 11
93.535720259824856
 21
239.53622932931114
  0
LINE
  8
_0-1_作画層１
  6
CONTINUOUS
 62
    7
 10
95.695168883482083
 20
244.87522430916954
 11
92.346999556699856
 21
240.51178665658165
  0
LINE
  8
_0-1_作画層１
  6
CONTINUOUS
 62
    7
 10
94.152648360410794
 20
245.98058815499473
 11
91.096984297910794
 21
241.40748520394493
  0
LINE
  8
_0-1_作画層１
  6
CONTINUOUS
 62
    7
 10
92.541099936643704
 20
246.98270721932579
 11
89.791118056455716
 21
242.21957321664024
  0
LINE
  8
_0-1_作画層１
  6
CONTINUOUS
 62
    7
 10
90.867487342039212
 20
247.87726707955528
 11
88.434893042722805
 21
242.94446869393516
  0
LINE
  8
_0-1_作画層１
  6
CONTINUOUS
 62
    7
 10
87.362871558347805
 20
249.32893295785118
 11
85.594938666502102
 21
244.1208622028463
  0
LINE
  8
_0-1_作画層１
  6
CONTINUOUS
 62
    7
 10
89.138924033323391
 20
248.66047401925255
 11
87.034171492735013
 21
243.57914848824669
  0
LINE
  8
_0-1_作画層１
  6
CONTINUOUS
 62
    7
 10
85.546820552030667
 20
249.8798782398336
 11
84.123370082059964
 21
244.56723328133751
  0
LINE
  8
_0-1_作画層１
  6
CONTINUOUS
 62
    7
 10
83.698748976865872
 20
250.31075401803184
 11
82.625739009061917
 21
244.91640587350059
  0
LINE
  8
_0-1_作画層１
  6
CONTINUOUS
 62
    7
 10
81.82636442867863
 20
250.61986656685997
 11
81.108502061048625
 21
245.16690941353966
  0
LINE
  8
_0-1_作画層１
  6
CONTINUOUS
 62
    7
 10
79.937829763570903
 20
250.80586357613731
 11
79.578080565611003
 21
245.31768532296348
  0
LINE
  8
_0-1_作画層１
  6
CONTINUOUS
 62
    7
 10
79.937812359014629
 20
192.93006248971153
 11
79.578071863332866
 21
198.41832085152794
  0
LINE
  8
_0-1_作画層１
  6
CONTINUOUS
 62
    7
 10
81.826373250166057
 20
193.11608620186973
 11
81.108467013517497
 21
198.56905289193321
  0
LINE
  8
_0-1_作画層１
  6
CONTINUOUS
 62
    7
 10
83.698731333891018
 20
193.42522545357872
 11
82.62575665203677
 21
198.81951256295372
  0
LINE
  8
_0-1_作画層１
  6
CONTINUOUS
 62
    7
 10
85.546882064024075
 20
193.85614510079552
 11
84.123370082059964
 21
199.16872711678673
  0
LINE
  8
_0-1_作画層１
  6
CONTINUOUS
 62
    7
 10
87.362845809141263
 20
194.40701981087852
 11
85.594973952451809
 21
199.61514206429649
  0
LINE
  8
_0-1_作画層１
  6
CONTINUOUS
 62
    7
 10
89.138932616392239
 20
195.07547874947716
 11
87.034198195615872
 21
200.15682144662071
  0
LINE
  8
_0-1_作画層１
  6
CONTINUOUS
 62
    7
 10
90.867478758970364
 20
195.85868568917442
 11
88.434918791929348
 21
200.79145737191368
  0
LINE
  8
_0-1_作画層１
  6
CONTINUOUS
 62
    7
 10
92.541125685850247
 20
196.75326462289024
 11
89.791126639524563
 21
201.51638908883263
  0
LINE
  8
_0-1_作画層１
  6
CONTINUOUS
 62
    7
 10
94.15263882366763
 20
197.75536461373497
 11
91.097028166929348
 21
202.3284751941793
  0
LINE
  8
_0-1_作画層１
  6
CONTINUOUS
 62
    7
 10
92.347026259580716
 20
203.22419090768028
 11
95.695195586362942
 21
198.8607360889547
  0
LINE
  8
_0-1_作画層１
  6
CONTINUOUS
 62
    7
 10
97.162135512510403
 20
200.06463547249962
 11
93.535764128843411
 21
204.19973106881309
  0
LINE
  8
_0-1_作画層１
  6
CONTINUOUS
 62
    7
 10
98.547213942686184
 20
201.36190338631798
 11
94.658133895078763
 21
205.25097389718223
  0
LINE
  8
_0-1_作画層１
  6
CONTINUOUS
 62
    7
 10
99.844455153623684
 20
202.7469551136129
 11
95.709332854429348
 21
206.37337990304161
  0
LINE
  8
_0-1_作画層１
  6
CONTINUOUS
 62
    7
 10
101.0483717033063
 20
204.21393890877891
 11
96.684934050718411
 21
207.56210060616661
  0
LINE
  8
_0-1_作画層１
  6
CONTINUOUS
 62
    7
 10
102.15376988140689
 20
205.75645180245567
 11
97.58065167156802
 21
208.81208916207481
  0
LINE
  8
_0-1_作画層１
  6
CONTINUOUS
 62
    7
 10
103.15581837383853
 20
207.36800022622276
 11
98.392720610777005
 21
210.11798210641075
  0
LINE
  8
_0-1_作画層１
  6
CONTINUOUS
 62
    7
 10
104.05040684429751
 20
209.04161282082725
 11
99.117625624815091
 21
211.47423382302452
  0
LINE
  8
_0-1_作画層１
  6
CONTINUOUS
 62
    7
 10
105.50208988873111
 20
212.54623718758751
 11
100.29400959698306
 21
214.31417007943321
  0
LINE
  8
_0-1_作画層１
  6
CONTINUOUS
 62
    7
 10
104.83362141338931
 20
210.77015896340538
 11
99.752286345640286
 21
212.87492867013145
  0
LINE
  8
_0-1_作画層１
  6
CONTINUOUS
 62
    7
 10
106.05292835919009
 20
214.36223574181724
 11
100.74038067547427
 21
215.78573866387535
  0
LINE
  8
_0-1_作画層１
  6
CONTINUOUS
 62
    7
 10
106.48390141216861
 20
216.21035976906944
 11
101.08956089703189
 21
217.2833959629171
  0
LINE
  8
_0-1_作画層１
  6
CONTINUOUS
 62
    7
 10
106.7929948875104
 20
218.082718091213
 11
101.34004727093325
 21
218.80060692330528
  0
LINE
  8
_0-1_作画層１
  6
CONTINUOUS
 62
    7
 10
106.9790472098981
 20
219.97132285138298
 11
101.49081555096255
 21
220.33101959725548
  0
LINE
  8
_0-1_作画層１
  6
CONTINUOUS
 62
    7
 10
49.103227049986003
 20
219.97131414910484
 11
54.59145870892155
 21
220.33098454972435
  0
LINE
  8
_0-1_作画層１
  6
CONTINUOUS
 62
    7
 10
49.289233596006511
 20
218.08270950814415
 11
54.742200286069988
 21
218.80064173241783
  0
LINE
  8
_0-1_作画層１
  6
CONTINUOUS
 62
    7
 10
49.598372847715495
 20
216.21037741204429
 11
54.992677123228191
 21
217.28336115380455
  0
LINE
  8
_0-1_作画層１
  6
CONTINUOUS
 62
    7
 10
50.029258162656902
 20
214.36223574181724
 11
55.341874510923503
 21
215.78573866387535
  0
LINE
  8
_0-1_作画層１
  6
CONTINUOUS
 62
    7
 10
50.5801672050153
 20
212.54624577065636
 11
55.788289458433269
 21
214.31413527032066
  0
LINE
  8
_0-1_作画層１
  6
CONTINUOUS
 62
    7
 10
51.248633773008464
 20
210.77015038033653
 11
56.329968840757488
 21
212.87491913338829
  0
LINE
  8
_0-1_作画層１
  6
CONTINUOUS
 62
    7
 10
52.03181400982487
 20
209.04158707162071
 11
56.964621932188152
 21
211.47419853707481
  0
LINE
  8
_0-1_作画層１
  6
CONTINUOUS
 62
    7
 10
52.926368148008464
 20
207.36798306008507
 11
57.689536482969402
 21
210.1179906894796
  0
LINE
  8
_0-1_作画層１
  6
CONTINUOUS
 62
    7
 10
53.928512007871745
 20
205.75646896859337
 11
58.50161495892155
 21
208.81207199593712
  0
LINE
  8
_0-1_作画層１
  6
CONTINUOUS
 62
    7
 10
59.397338301817058
 20
207.56209202309776
 11
55.033866316953777
 21
204.21390457650352
  0
LINE
  8
_0-1_作画層１
  6
CONTINUOUS
 62
    7
 10
56.237775237241863
 20
202.74697227975059
 11
60.372895629087566
 21
206.3733617832296
  0
LINE
  8
_0-1_作画層１
  6
CONTINUOUS
 62
    7
 10
57.535006911436199
 20
201.36188622018028
 11
61.424121291319011
 21
205.2509834339254
  0
LINE
  8
_0-1_作画層１
  6
CONTINUOUS
 62
    7
 10
58.920112044492839
 20
200.06461830636192
 11
62.546527297178386
 21
204.19974060555626
  0
LINE
  8
_0-1_作画層１
  6
CONTINUOUS
 62
    7
 10
60.387069136777995
 20
198.8607360889547
 11
63.735248000303386
 21
203.22418327828575
  0
LINE
  8
_0-1_作画層１
  6
CONTINUOUS
 62
    7
 10
61.929599196592449
 20
197.75533791085411
 11
64.985263259092449
 21
202.32848473092247
  0
LINE
  8
_0-1_作画層１
  6
CONTINUOUS
 62
    7
 10
63.541103751340984
 20
196.75324554940391
 11
66.291129500547527
 21
201.51639862557579
  0
LINE
  8
_0-1_作画層１
  6
CONTINUOUS
 62
    7
 10
65.214743048826335
 20
195.85870285531212
 11
67.647354514280437
 21
200.79150124093223
  0
LINE
  8
_0-1_作画層１
  6
CONTINUOUS
 62
    7
 10
68.719375998655437
 20
194.40702934762169
 11
70.48730889050114
 21
199.6151077320211
  0
LINE
  8
_0-1_作画層１
  6
CONTINUOUS
 62
    7
 10
66.943297774473308
 20
195.07547874947716
 11
69.04807606426823
 21
200.15682144662071
  0
LINE
  8
_0-1_作画層１
  6
CONTINUOUS
 62
    7
 10
70.535391719022869
 20
193.85617943307091
 11
71.958877474943279
 21
199.16873665352989
  0
LINE
  8
_0-1_作画層１
  6
CONTINUOUS
 62
    7
 10
72.383524806181072
 20
193.42520638009239
 11
73.456508547941326
 21
198.8195640613668
  0
LINE
  8
_0-1_作画層１
  6
CONTINUOUS
 62
    7
 10
74.255856902280925
 20
193.11608620186973
 11
74.973745495954631
 21
198.56906052132774
  0
LINE
  8
_0-1_作画層１
  6
CONTINUOUS
 62
    7
 10
76.144461543241619
 20
192.93005295296837
 11
76.504166991392253
 21
198.41828461190391
  0
LINE
  8
_0-1_作画層１
  6
CONTINUOUS
 62
    7
 10
54.541127593198894
 20
221.86797638436485
 11
49.041127593198894
 21
221.86797638436485
  0
LINE
  8
_0-1_作画層１
  6
CONTINUOUS
 62
    7
 10
78.041123778501628
 20
245.36798210641075
 11
78.041123778501628
 21
250.86798019906212
  0
LINE
  8
_0-1_作画層１
  6
CONTINUOUS
 62
    7
 10
101.54111996380435
 20
221.86797638436485
 11
107.04111996380435
 21
221.86797638436485
  0
LINE
  8
_0-1_作画層１
  6
CONTINUOUS
 62
    7
 10
78.041123778501628
 20
198.36798782845665
 11
78.041123778501628
 21
192.86798019906212
  0
LINE
  8
_0-1_作画層１
  6
CONTINUOUS
 62
    7
 10
78.041123778501628
 20
234.36797543069054
 11
78.041123778501628
 21
237.86798973580528
  0
LINE
  8
_0-1_作画層１
  6
CONTINUOUS
 62
    7
 10
78.041123778501628
 20
234.36797543069054
 11
78.041123778501628
 21
228.86797733803917
  0
LINE
  8
_0-1_作画層１
  6
CONTINUOUS
 62
    7
 10
43.541146666685222
 20
256.36798019906212
 11
112.54110089031802
 21
256.36801453133751
  0
LINE
  8
_0-1_作画層１
  6
CONTINUOUS
 62
    7
 10
43.541123778501628
 20
187.36801834603477
 11
112.54108181683169
 21
187.36798401375938
  0
LINE
  8
_0-1_作画層１
  6
CONTINUOUS
 62
    7
 10
112.54110089031802
 20
256.36801453133751
 11
112.54108181683169
 21
187.36798401375938
  0
LINE
  8
_0-1_作画層１
  6
CONTINUOUS
 62
    7
 10
73.114379317442058
 20
226.77788849373985
 11
73.131211669126628
 21
226.79472084542442
  0
LINE
  8
_0-1_作画層１
  6
CONTINUOUS
 62
    7
 10
90.550423056760891
 20
231.84382553597618
 11
90.508105666318997
 21
231.81007309456993
  0
LINE
  8
_0-1_作画層１
  6
CONTINUOUS
 62
    7
 10
78.041123778501628
 20
237.64437122842003
 11
78.263202429691432
 21
237.86644096871544
  0
LINE
  8
_0-1_作画層１
  6
CONTINUOUS
 62
    7
 10
93.351401717344388
 20
239.37822647591759
 11
93.723303229490384
 21
239.7501289417379
  0
LINE
  8
_0-1_作画層１
  6
CONTINUOUS
 62
    7
 10
78.041106280971348
 20
187.73919983407188
 11
78.041106280971348
 21
184.29572220345665
  0
LINE
  8
_0-1_作画層１
  6
CONTINUOUS
 62
    7
 10
112.04110089031802
 20
257.86800690194298
 11
44.041142851987956
 21
257.86797256966759
  0
LINE
  8
_0-1_作画層１
  6
CONTINUOUS
 62
    7
 10
114.04108563152896
 20
187.86798401375938
 11
114.04110089031802
 21
255.86800308724571
  0
LINE
  8
_0-1_作画層１
  6
CONTINUOUS
 62
    7
 10
44.041119963804363
 20
185.86801453133751
 11
112.04108181683169
 21
185.86798019906212
  0
CIRCLE
  8
_0-1_作画層１
  6
CONTINUOUS
 62
    7
 10
78.041123778501628
 20
221.86797638436485
 40
7
  0
CIRCLE
  8
_0-1_作画層１
  6
CONTINUOUS
 62
    7
 10
78.041123778501628
 20
221.86797638436485
 40
31.500001907348633
  0
ARC
  8
_0-1_作画層１
  6
CONTINUOUS
 62
    7
 10
78.041123776828158
 20
221.86798513312226
 40
15.999999999999998
 50
90.264892572132311
 51
90.264587396351089
  0
ARC
  8
_0-1_作画層１
  6
CONTINUOUS
 62
    7
 10
78.041123778501458
 20
221.86798513312979
 40
23.499998092651627
 50
37.50003051757826
 51
63.749999999999837
  0
ARC
  8
_0-1_作画層１
  6
CONTINUOUS
 62
    7
 10
44.041142851987928
 20
255.86796875497035
 40
1.9999999999999716
 50
89.999999999999588
 51
180.0000000000008
  0
ARC
  8
_0-1_作画層１
  6
CONTINUOUS
 62
    7
 10
112.04110089031803
 20
255.86800308724574
 40
1.9999999999999858
 50
359.9999999999992
 51
90.000000000000384
  0
ARC
  8
_0-1_作画層１
  6
CONTINUOUS
 62
    7
 10
112.04108181683171
 20
187.86798401375935
 40
1.9999999999999716
 50
269.9999999999996
 51
0.0000000000007887
  0
ARC
  8
_0-1_作画層１
  6
CONTINUOUS
 62
    7
 10
44.041119963804334
 20
187.86801834603475
 40
1.9999999999999858
 50
179.99999999999918
 51
270.0000000000004
  0
LINE
  8
_0-1_作画層１
  6
CENTER
 62
    7
 10
36.541093260919638
 20
221.86797638436485
 11
119.04109326091964
 21
221.86797638436485
  0
LINE
  8
_0-1_作画層１
  6
CONTINUOUS
 62
    7
 10
43.541123778501628
 20
187.36801834603477
 11
43.541146666685222
 21
256.36798019906212
  0
LINE
  8
_0-1_作画層１
  6
CONTINUOUS
 62
    7
 10
42.041123778501628
 20
187.86801834603477
 11
42.041146666685222
 21
255.86796875497032
  0
LINE
  8
_0-1_作画層１
  6
CONTINUOUS
 62
    7
 10
72.38349858013737
 20
250.31075401803184
 11
73.456508547941326
 21
244.91640587350059
  0
LINE
  8
_0-1_作画層１
  6
CONTINUOUS
 62
    7
 10
74.255883128324626
 20
250.61986656685997
 11
74.973745495954631
 21
245.16690941353966
  0
LINE
  8
_0-1_作画層１
  6
CONTINUOUS
 62
    7
 10
73.86022034374821
 20
244.37084122201134
 11
73.529814154783367
 21
244.70124741097618
  0
LINE
  8
_0-1_作画層１
  6
CONTINUOUS
 62
    7
 10
74.228630692640422
 20
244.28526039620567
 11
73.421504408994792
 21
245.09238739510704
  0
LINE
  8
_0-1_作画層１
  6
CONTINUOUS
 62
    7
 10
74.468110711256145
 20
244.32862778206993
 11
73.351269633451579
 21
245.44547005196739
  0
LINE
  8
_0-1_作画層１
  6
CONTINUOUS
 62
    7
 10
74.654888064542888
 20
244.42469902535606
 11
73.281042964140056
 21
245.79854317208458
  0
LINE
  8
_0-1_作画層１
  6
CONTINUOUS
 62
    7
 10
74.802365929762004
 20
244.56005020638634
 11
73.210808188596843
 21
246.15160866280723
  0
LINE
  8
_0-1_作画層１
  6
CONTINUOUS
 62
    7
 10
74.911961705366252
 20
244.73330231209923
 11
73.140572936216472
 21
246.50469131966759
  0
LINE
  8
_0-1_作画層１
  6
CONTINUOUS
 62
    7
 10
74.975364119688152
 20
244.9527484943502
 11
73.070346743742107
 21
246.85775681039024
  0
LINE
  8
_0-1_作画層１
  6
CONTINUOUS
 62
    7
 10
74.963089377561687
 20
245.24785347481895
 11
73.000120074430583
 21
247.2108223011129
  0
LINE
  8
_0-1_作画層１
  6
CONTINUOUS
 62
    7
 10
74.920203120390056
 20
245.57358665963341
 11
72.92988529888737
 21
247.56390495797325
  0
LINE
  8
_0-1_作画層１
  6
CONTINUOUS
 62
    7
 10
74.877325446287273
 20
245.89931221505333
 11
72.859650046506999
 21
247.9169876148336
  0
LINE
  8
_0-1_作画層１
  6
CONTINUOUS
 62
    7
 10
74.834447533765911
 20
246.22502060433555
 11
72.789423854032634
 21
248.27003403206993
  0
LINE
  8
_0-1_作画層１
  6
CONTINUOUS
 62
    7
 10
74.791569859663127
 20
246.55074425240684
 11
72.719188601652263
 21
248.62311668893028
  0
LINE
  8
_0-1_作画層１
  6
CONTINUOUS
 62
    7
 10
74.748683602491496
 20
246.87646217843223
 11
72.648962409177898
 21
248.97618217965294
  0
LINE
  8
_0-1_作画層１
  6
CONTINUOUS
 62
    7
 10
74.705805689970134
 20
247.20217819710899
 11
72.578736216703533
 21
249.32926483651329
  0
LINE
  8
_0-1_作画層１
  6
CONTINUOUS
 62
    7
 10
74.662928015867351
 20
247.52791138192345
 11
72.508500964323161
 21
249.68234749337364
  0
LINE
  8
_0-1_作画層１
  6
CONTINUOUS
 62
    7
 10
74.620050341764568
 20
247.85362930794884
 11
72.438274771848796
 21
250.0353958179586
  0
LINE
  8
_0-1_作画層１
  6
CONTINUOUS
 62
    7
 10
74.577163846174358
 20
248.17934532662559
 11
72.37318363873112
 21
250.38333435555626
  0
LINE
  8
_0-1_作画層１
  6
CONTINUOUS
 62
    7
 10
74.534286172071575
 20
248.50507851144005
 11
72.384338290372966
 21
250.6550190021627
  0
LINE
  8
_0-1_作画層１
  6
CONTINUOUS
 62
    7
 10
74.491408497968791
 20
248.83079643746544
 11
72.451878935972331
 21
250.87032623788048
  0
LINE
  8
_0-1_作画層１
  6
CONTINUOUS
 62
    7
 10
74.448530823866008
 20
249.1565124561422
 11
72.556706816831706
 21
251.04832764168907
  0
LINE
  8
_0-1_作画層１
  6
CONTINUOUS
 62
    7
 10
74.405644328275798
 20
249.48224564095665
 11
72.692688853422283
 21
251.19520111581016
  0
LINE
  8
_0-1_作画層１
  6
CONTINUOUS
 62
    7
 10
74.362766654173015
 20
249.80796356698204
 11
72.859020144621013
 21
251.31170006295372
  0
LINE
  8
_0-1_作画層１
  6
CONTINUOUS
 62
    7
 10
74.319888980070232
 20
250.1336795856588
 11
73.059568316618083
 21
251.39399071236778
  0
LINE
  8
_0-1_作画層１
  6
CONTINUOUS
 62
    7
 10
74.277011305967449
 20
250.45939560433555
 11
73.306834609190105
 21
251.42956467171837
  0
LINE
  8
_0-1_作画層１
  6
CONTINUOUS
 62
    7
 10
74.205927521864055
 20
250.81331749459434
 11
73.64985600201237
 21
251.36938972970177
  0
ARC
  8
_0-1_作画層１
  6
CONTINUOUS
 62
    7
 10
73.31716671673405
 20
250.48063774605922
 40
0.9489850401878342
 50
8.4374999999978932
 51
192.13920593261827
  0
ARC
  8
_0-1_作画層１
  6
CONTINUOUS
 62
    7
 10
74.21307531086552
 20
245.05410309334923
 40
0.7689954042434671
 50
190.31504821777369
 51
8.4637298583979383
  0
LINE
  8
_0-1_作画層１
  6
CONTINUOUS
 62
    7
 10
65.214760214964031
 20
247.87726707955528
 11
67.647354514280437
 21
242.94446869393516
  0
LINE
  8
_0-1_作画層１
  6
CONTINUOUS
 62
    7
 10
66.943323523679851
 20
248.66047401925255
 11
69.04807606426823
 21
243.57914848824669
  0
ARC
  8
_0-1_作画層１
  6
CONTINUOUS
 62
    7
 10
66.072620780149578
 20
248.28303642769981
 40
0.9489914178848332
 50
23.437316894531826
 51
207.21160888671875
  0
ARC
  8
_0-1_作画層１
  6
CONTINUOUS
 62
    7
 10
68.342514426389812
 20
243.2732917835348
 40
0.7690062522888108
 50
205.31291198730753
 51
23.451339721677265
  0
LINE
  8
_0-1_作画層１
  6
CONTINUOUS
 62
    7
 10
58.920102507749675
 20
243.67132492562462
 11
62.546527297178386
 21
239.53622932931114
  0
LINE
  8
_0-1_作画層１
  6
CONTINUOUS
 62
    7
 10
60.38707867352116
 20
244.87522430916954
 11
63.735248000303386
 21
240.51178665658165
  0
LINE
  8
_0-1_作画層１
  6
CONTINUOUS
 62
    7
 10
62.730845839658855
 20
239.37822647591759
 11
62.358944327512859
 21
239.7501289417379
  0
LINE
  8
_0-1_作画層１
  6
CONTINUOUS
 62
    7
 10
63.127138526121257
 20
239.26477356454063
 11
60.342467696348308
 21
242.04944344063927
  0
LINE
  8
_0-1_作画層１
  6
CONTINUOUS
 62
    7
 10
63.371920973936199
 20
239.30283852120567
 11
58.777829558530925
 21
243.89692993661095
  0
LINE
  8
_0-1_作画層１
  6
CONTINUOUS
 62
    7
 10
63.561995894590495
 20
239.39560242196251
 11
58.694997222105144
 21
244.26260109444786
  0
LINE
  8
_0-1_作画層１
  6
CONTINUOUS
 62
    7
 10
63.712299735227703
 20
239.52813835641075
 11
58.723447234312175
 21
244.51698990365196
  0
LINE
  8
_0-1_作画層１
  6
CONTINUOUS
 62
    7
 10
63.824905783811687
 20
239.69837875863243
 11
58.801215560117839
 21
244.72207756539513
  0
LINE
  8
_0-1_作画層１
  6
CONTINUOUS
 62
    7
 10
63.892454535642742
 20
239.91367836495567
 11
58.914058119932292
 21
244.89207573434044
  0
LINE
  8
_0-1_作画層１
  6
CONTINUOUS
 62
    7
 10
63.882157714048503
 20
240.2068054248922
 11
59.057431609312175
 21
245.03153152962852
  0
LINE
  8
_0-1_作画層１
  6
CONTINUOUS
 62
    7
 10
63.32375851360905
 20
241.04806061288048
 11
59.231654555479167
 21
245.14016457101036
  0
LINE
  8
_0-1_作画層１
  6
CONTINUOUS
 62
    7
 10
62.39100876537907
 20
242.26364822884727
 11
59.442037017027019
 21
245.21261330147911
  0
LINE
  8
_0-1_作画層１
  6
CONTINUOUS
 62
    7
 10
61.458207518736003
 20
243.47929878731895
 11
59.705207259336589
 21
245.23229713936973
  0
LINE
  8
_0-1_作画層１
  6
CONTINUOUS
 62
    7
 10
60.525456816831706
 20
244.69487877389122
 11
60.106574446836589
 21
245.11376114388634
  0
ARC
  8
_0-1_作画層１
  6
CONTINUOUS
 62
    7
 10
59.643721968809245
 20
244.28529663582967
 40
0.9489969611167725
 50
38.435592651368687
 51
220.29386901855273
  0
ARC
  8
_0-1_作画層１
  6
CONTINUOUS
 62
    7
 10
63.132895857969373
 20
240.03373642464805
 40
0.7689873576164184
 50
220.31311035156224
 51
38.436859130858323
  0
LINE
  8
_0-1_作画層１
  6
CONTINUOUS
 62
    7
 10
53.928512007871745
 20
237.97950096627403
 11
58.50161495892155
 21
234.9238988926046
  0
LINE
  8
_0-1_作画層１
  6
CONTINUOUS
 62
    7
 10
59.397338301817058
 20
236.17387886544395
 11
55.033893019834636
 21
239.52206535836388
  0
ARC
  8
_0-1_作画層１
  6
CONTINUOUS
 62
    7
 10
54.468573958555339
 20
238.75983925362752
 40
0.9489868879318093
 50
51.563339233399383
 51
237.15467834472528
  0
ARC
  8
_0-1_作画層１
  6
CONTINUOUS
 62
    7
 10
58.939244658628553
 20
235.55623264809773
 40
0.7690042853355596
 50
235.31338500976491
 51
53.5261688232425
  0
ARC
  8
_0-1_作画層１
  6
CONTINUOUS
 62
    7
 10
78.041123778501827
 20
221.86798513313113
 40
23.49999809265023
 50
63.75000481196053
 51
85.249588012695625
  0
ARC
  8
_0-1_作画層１
  6
CONTINUOUS
 62
    7
 10
78.041123778501799
 20
221.86798513312991
 40
28.999999999999993
 50
67.50001525878946
 51
63.74999061005559
  0
ARC
  8
_0-1_作画層１
  6
CONTINUOUS
 62
    7
 10
78.041123778501628
 20
221.86798513312999
 40
23.499998092651378
 50
85.249893188476591
 51
37.50002703741535
  0
LINE
  8
_0-1_作画層１
  6
CONTINUOUS
 62
    7
 10
90.86750005739998
 20
247.8772925355218
 11
89.138936181812767
 21
248.66049453148446
  0
LINE
  8
_0-1_作画層１
  6
CONTINUOUS
 62
    7
 10
56.32994748441314
 20
230.86103185565284
 11
51.248620705892108
 21
232.96579027886079
  0
LINE
  8
_0-1_作画層１
  6
CONTINUOUS
 62
    7
 10
50.580162831788186
 20
231.18973250071963
 11
55.788240371757468
 21
229.42182035906851
  0
LINE
  8
_0-1_作画層１
  6
CONTINUOUS
 62
    7
 10
50.580159341097925
 20
231.1897194732862
 11
55.788283131813557
 21
229.42183403451594
  0
LINE
  8
_0-1_作画層１
  6
CONTINUOUS
 62
    7
 10
51.248648275629876
 20
232.96581500592228
 11
56.329966795089064
 21
230.86105181434274
  0
LINE
  8
_0-1_作画層１
  6
CONTINUOUS
 62
    7
 10
56.026909098686957
 20
229.37715882084692
 11
55.518881708552527
 21
229.51328504790439
  0
LINE
  8
_0-1_作画層１
  6
CONTINUOUS
 62
    7
 10
56.42683508818584
 20
229.47705206069239
 11
52.622904470375659
 21
230.49631149966058
  0
LINE
  8
_0-1_作画層１
  6
CONTINUOUS
 62
    7
 10
56.619790428061606
 20
229.63240850406572
 11
50.344144847309991
 21
231.31396266941206
  0
LINE
  8
_0-1_作画層１
  6
CONTINUOUS
 62
    7
 10
56.738018187592132
 20
229.80778185900243
 11
50.089574360792
 21
231.58922701331721
  0
LINE
  8
_0-1_作画層１
  6
CONTINUOUS
 62
    7
 10
56.801917164646198
 20
229.99771326546752
 11
49.987018389499212
 21
231.82375919062994
  0
LINE
  8
_0-1_作画層１
  6
CONTINUOUS
 62
    7
 10
56.814316662228862
 20
230.20144880283397
 11
49.951823904385122
 21
232.04025447860511
  0
LINE
  8
_0-1_作画層１
  6
CONTINUOUS
 62
    7
 10
56.765165794146867
 20
230.42167810725022
 11
49.964549343339854
 21
232.24389849141582
  0
LINE
  8
_0-1_作画層１
  6
CONTINUOUS
 62
    7
 10
56.609684955099766
 20
230.67038517689477
 11
50.018986529728011
 21
232.4363574975302
  0
LINE
  8
_0-1_作画層１
  6
CONTINUOUS
 62
    7
 10
55.705469468072124
 20
231.11973394053834
 11
50.11555150633987
 21
232.61754794414074
  0
LINE
  8
_0-1_作画層１
  6
CONTINUOUS
 62
    7
 10
54.289890682748023
 20
231.70608882237636
 11
50.261523697316647
 21
232.78548161597254
  0
LINE
  8
_0-1_作画層１
  6
CONTINUOUS
 62
    7
 10
52.874235827237499
 20
232.29247246481606
 11
50.479593893731504
 21
232.93411344078459
  0
LINE
  8
_0-1_作画層１
  6
CONTINUOUS
 62
    7
 10
51.458660030704493
 20
232.87882026256742
 11
50.886456072093722
 21
233.03214185118307
  0
ARC
  8
_0-1_作画層１
  6
CONTINUOUS
 62
    7
 10
50.899846321945802
 20
232.08324430205857
 40
0.9489969611167863
 50
68.435592651367685
 51
250.29386901855375
  0
ARC
  8
_0-1_作画層１
  6
CONTINUOUS
 62
    7
 10
56.047339653770649
 20
230.14587209803622
 40
0.7689873576163954
 50
250.31311035156241
 51
68.436859130857627
  0
LINE
  8
_0-1_作画層１
  6
CONTINUOUS
 62
    7
 10
59.397311906559338
 20
236.17386683782061
 11
55.0338787046378
 21
239.52205150156732
  0
LINE
  8
_0-1_作画層１
  6
CONTINUOUS
 62
    7
 10
53.928520402069154
 20
237.97952105334605
 11
58.501567670914199
 21
234.92389940140043
  0
LINE
  8
_0-1_作画層１
  6
CONTINUOUS
 62
    7
 10
53.928513658573394
 20
237.97950937326874
 11
58.50161251342297
 21
234.92390154375141
  0
LINE
  8
_0-1_作画層１
  6
CONTINUOUS
 62
    7
 10
55.033911734793975
 20
239.52206825050141
 11
59.397335724928979
 21
236.17388111846392
  0
LINE
  8
_0-1_作画層１
  6
CONTINUOUS
 62
    7
 10
58.720544701507606
 20
234.8189876561907
 11
58.265059985014943
 21
235.08196265854133
  0
LINE
  8
_0-1_作画層１
  6
CONTINUOUS
 62
    7
 10
59.132697816317801
 20
234.81196865371533
 11
55.722186745868697
 21
236.78102735964148
  0
LINE
  8
_0-1_作画層１
  6
CONTINUOUS
 62
    7
 10
59.359287568748584
 20
234.91209093783598
 11
53.732697669026862
 21
238.16060413105996
  0
LINE
  8
_0-1_作画層１
  6
CONTINUOUS
 62
    7
 10
59.518876779324557
 20
235.05088899478602
 11
53.558045116128454
 21
238.49237676012632
  0
LINE
  8
_0-1_作画層１
  6
CONTINUOUS
 62
    7
 10
59.629756316790804
 20
235.21781037328986
 11
53.519685048994489
 21
238.74546088584808
  0
LINE
  8
_0-1_作画層１
  6
CONTINUOUS
 62
    7
 10
59.694463948973549
 20
235.41139456444091
 11
53.541722890582776
 21
238.96368827880326
  0
LINE
  8
_0-1_作画層１
  6
CONTINUOUS
 62
    7
 10
59.703987394381215
 20
235.63684091802517
 11
53.606721669656508
 21
239.15709970418749
  0
LINE
  8
_0-1_作画層１
  6
CONTINUOUS
 62
    7
 10
59.6181745627282
 20
235.91731490206945
 11
53.70911601008325
 21
239.32891144809628
  0
LINE
  8
_0-1_作画層１
  6
CONTINUOUS
 62
    7
 10
58.861069489201896
 20
236.58538066680325
 11
53.849286153281071
 21
239.4789351249172
  0
LINE
  8
_0-1_作画層１
  6
CONTINUOUS
 62
    7
 10
57.645485191918937
 20
237.51813474002623
 11
54.033748895049598
 21
239.60336621256295
  0
LINE
  8
_0-1_作画層１
  6
CONTINUOUS
 62
    7
 10
56.429834860269779
 20
238.45093628227016
 11
54.282857276680375
 21
239.69049281075596
  0
LINE
  8
_0-1_作画層１
  6
CONTINUOUS
 62
    7
 10
55.214251616440777
 20
239.38368273923484
 11
54.701227582072931
 21
239.67987730357788
  0
ARC
  8
_0-1_作画層１
  6
CONTINUOUS
 62
    7
 10
54.468568812660976
 20
238.75984700269572
 40
0.9489969611167957
 50
53.435592651369369
 51
235.29386901855298
  0
ARC
  8
_0-1_作画層１
  6
CONTINUOUS
 62
    7
 10
58.939236738668114
 20
235.55621984688148
 40
0.7689873576164079
 50
235.31311035156273
 51
53.436859130857414
  0
LINE
  8
_0-1_作画層１
  6
CONTINUOUS
 62
    7
 10
69.048054300749556
 20
243.57914687678593
 11
66.943302632042389
 21
248.66047645311278
  0
LINE
  8
_0-1_作画層１
  6
CONTINUOUS
 62
    7
 10
65.214769037623228
 20
247.87728505012649
 11
67.647333319177335
 21
242.94451544076531
  0
LINE
  8
_0-1_作画層１
  6
CONTINUOUS
 62
    7
 10
65.214757357545977
 20
247.87727830663073
 11
67.647373225104559
 21
242.94449487484133
  0
LINE
  8
_0-1_作画層１
  6
CONTINUOUS
 62
    7
 10
66.943339611463784
 20
248.66047444303715
 11
69.048082068384417
 21
243.57914733500101
  0
LINE
  8
_0-1_作画層１
  6
CONTINUOUS
 62
    7
 10
67.784517117911605
 20
242.74417068896162
 11
67.521543283568718
 21
243.19965607980384
  0
LINE
  8
_0-1_作画層１
  6
CONTINUOUS
 62
    7
 10
68.137942684348445
 20
242.5320154971036
 11
66.168882810414544
 21
245.94252589320314
  0
LINE
  8
_0-1_作画層１
  6
CONTINUOUS
 62
    7
 10
68.384236308251047
 20
242.50542906242165
 11
65.135723115027076
 21
248.13201896214335
  0
LINE
  8
_0-1_作画層１
  6
CONTINUOUS
 62
    7
 10
68.591843647254763
 20
242.5458371004483
 11
65.150355881914436
 21
248.50666876364443
  0
LINE
  8
_0-1_作画層１
  6
CONTINUOUS
 62
    7
 10
68.771328832712356
 20
242.63495548593426
 11
65.243677152146432
 21
248.74502607938101
  0
LINE
  8
_0-1_作画層１
  6
CONTINUOUS
 62
    7
 10
68.924159381576857
 20
242.77025049715076
 11
65.371876179284072
 21
248.9229976246877
  0
LINE
  8
_0-1_作画層１
  6
CONTINUOUS
 62
    7
 10
69.045130104023599
 20
242.96073104384143
 11
65.524872485869025
 21
249.05799744291573
  0
LINE
  8
_0-1_作画層１
  6
CONTINUOUS
 62
    7
 10
69.111051003863508
 20
243.24653505495093
 11
65.69945445783668
 21
249.15559360759585
  0
LINE
  8
_0-1_作画層１
  6
CONTINUOUS
 62
    7
 10
68.789411659222537
 20
244.20364951537221
 11
65.895857201108583
 21
249.21543285129303
  0
LINE
  8
_0-1_作画層１
  6
CONTINUOUS
 62
    7
 10
68.203061813945567
 20
245.61923038690819
 11
66.117822165354738
 21
249.23096196333051
  0
LINE
  8
_0-1_作画層１
  6
CONTINUOUS
 62
    7
 10
67.616678515740375
 20
247.03488538500534
 11
66.377119651239127
 21
249.18186161989561
  0
LINE
  8
_0-1_作画層１
  6
CONTINUOUS
 62
    7
 10
67.030325774652113
 20
248.45045913394117
 11
66.734131210309073
 21
248.96348316830904
  0
ARC
  8
_0-1_作画層１
  6
CONTINUOUS
 62
    7
 10
66.072627655144032
 20
248.28304294019964
 40
0.9489969611167882
 50
23.435592651368026
 51
205.29386901855381
  0
ARC
  8
_0-1_作画層１
  6
CONTINUOUS
 62
    7
 10
68.342526073043388
 20
243.2732864760072
 40
0.7689873576164254
 50
205.31311035156011
 51
23.436859130860707
  0
LINE
  8
_0-1_作画層１
  6
CONTINUOUS
 62
    7
 10
49.103228529040592
 20
223.76468304372742
 11
54.59141315589892
 21
223.40493936457381
  0
LINE
  8
_0-1_作画層１
  6
CONTINUOUS
 62
    7
 10
49.289234076021643
 20
225.65322790232929
 11
54.742174424430175
 21
224.93534856729477
  0
LINE
  8
_0-1_作画層１
  6
CONTINUOUS
 62
    7
 10
54.742163847293824
 20
224.93533500484369
 11
49.289227514839951
 21
225.65323137924901
  0
LINE
  8
_0-1_作画層１
  6
CONTINUOUS
 62
    7
 10
49.103224368642088
 20
223.76468167369404
 11
54.591410302141753
 21
223.40495933317797
  0
LINE
  8
_0-1_作画層１
  6
CONTINUOUS
 62
    7
 10
49.103224368642088
 20
223.76466818670255
 11
54.591448065718026
 21
223.4049836097627
  0
LINE
  8
_0-1_作画層１
  6
CONTINUOUS
 62
    7
 10
49.289247745327231
 20
225.65326239932952
 11
54.742177334285344
 21
224.93535928142842
  0
LINE
  8
_0-1_作画層１
  6
CONTINUOUS
 62
    7
 10
54.833505846085785
 20
223.42359161196765
 11
54.307557009392298
 21
223.42359228631722
  0
LINE
  8
_0-1_作画層１
  6
CONTINUOUS
 62
    7
 10
55.193950414997971
 20
223.62358953491983
 11
51.255831835137911
 21
223.62358886057027
  0
LINE
  8
_0-1_作画層１
  6
CONTINUOUS
 62
    7
 10
55.340121754779943
 20
223.82359285266864
 11
48.843095368332001
 21
223.82359285266864
  0
LINE
  8
_0-1_作画層１
  6
CONTINUOUS
 62
    7
 10
55.408931036833621
 20
224.02359010127128
 11
48.525955506152997
 21
224.02359010127125
  0
LINE
  8
_0-1_作画層１
  6
CONTINUOUS
 62
    7
 10
55.421494843787343
 20
224.22358802422349
 11
48.366192650663237
 21
224.2235873498739
  0
LINE
  8
_0-1_作画層１
  6
CONTINUOUS
 62
    7
 10
55.380741201500797
 20
224.4235906676227
 11
48.276164284845663
 21
224.42359673676887
  0
LINE
  8
_0-1_作画層１
  6
CONTINUOUS
 62
    7
 10
55.276265570363279
 20
224.62359465972111
 11
48.235749166046389
 21
224.62359533407067
  0
LINE
  8
_0-1_作画層１
  6
CONTINUOUS
 62
    7
 10
55.061712486158939
 20
224.82358583917753
 11
48.23851939410531
 21
224.8235858391775
  0
LINE
  8
_0-1_作画層１
  6
CONTINUOUS
 62
    7
 10
54.072007376784171
 20
225.02359522607253
 11
48.284898460556263
 21
225.02359522607253
  0
LINE
  8
_0-1_作画層１
  6
CONTINUOUS
 62
    7
 10
52.552903458284192
 20
225.22359180032555
 11
48.382432337156672
 21
225.22358707987854
  0
LINE
  8
_0-1_作画層１
  6
CONTINUOUS
 62
    7
 10
51.033718617835063
 20
225.42359646677355
 11
48.554603224848023
 21
225.42359511807439
  0
LINE
  8
_0-1_作画層１
  6
CONTINUOUS
 62
    7
 10
49.51461941978215
 20
225.62358697188037
 11
48.922230291096071
 21
225.62358697188037
  0
ARC
  8
_0-1_作画層１
  6
CONTINUOUS
 62
    7
 10
49.180757036813162
 20
224.71048797435904
 40
0.948996961116789
 50
83.435592651367557
 51
265.29386901855418
  0
ARC
  8
_0-1_作画層１
  6
CONTINUOUS
 62
    7
 10
54.654282610526792
 20
224.17139943617374
 40
0.7689873576164174
 50
265.31311035156148
 51
83.43685913085865
  0
LINE
  8
_0-1_作画層１
  6
CONTINUOUS
 62
    7
 10
65.589180902928206
 20
231.9153269481811
 11
65.631309530360852
 21
231.88133919177773
  0
LINE
  8
_0-d_0_1
  6
CONTINUOUS
 62
    7
 10
89.268282274171384
 20
235.56167696848451
 11
89.34301410095361
 21
235.63639925852357
  0
TEXT
  8
_0-d_0_1
 62
    7
 10
66.550375060310955
 20
235.77212911781808
 40
5
 41
1
 50
29.999957756663811
  1
10
  0
TEXT
  8
_0-d_0_1
 62
    7
 10
71.514839765013221
 20
238.8708259589306
 40
5
 41
1
 50
14.999989403430712
  1
9
  0
TEXT
  8
_0-d_0_1
 62
    7
 10
75.134885648652585
 20
240.00327013865052
 40
5
 41
1
 50
0
  1
8
  0
TEXT
  8
_0-d_0_1
 62
    7
 10
80.028129085682281
 20
240.29218196941287
 40
5
 41
1
 50
-14.999979702261436
  1
7
  0
TEXT
  8
_0-d_0_1
 62
    7
 10
84.71876165011787
 20
239.27956802889909
 40
5
 41
1
 50
-29.999975896259983
  1
6
  0
TEXT
  8
_0-d_0_1
 62
    7
 10
88.957013326789962
 20
237.09388773903436
 40
5
 41
1
 50
-45.000009091158226
  1
5
  0
TEXT
  8
_0-d_0_1
 62
    7
 10
92.575057970814768
 20
233.94671187552308
 40
5
 41
1
 50
-59.999912760333956
  1
4
  0
TEXT
  8
_0-d_0_1
 62
    7
 10
95.234617184761632
 20
229.79823910555442
 40
5
 41
1
 50
-75.000243003075795
  1
3
  0
TEXT
  8
_0-d_0_1
 62
    7
 10
96.741332391664059
 20
225.23218726053773
 40
5
 41
1
 50
-90
  1
2
  0
TEXT
  8
_0-d_0_1
 62
    7
 10
96.927079943905625
 20
220.34250479053216
 40
5
 41
1
 50
-104.99975616503994
  1
1
  0
TEXT
  8
_0-d_0_1
 62
    7
 10
96.624251726439695
 20
216.83634624843006
 40
5
 41
1
 50
-120.00005854257884
  1
24
  0
TEXT
  8
_0-d_0_1
 62
    7
 10
94.684502939149425
 20
212.30971621499341
 40
5
 41
1
 50
-135.00000000000023
  1
23
  0
TEXT
  8
_0-d_0_1
 62
    7
 10
91.627401253376348
 20
208.35935031136492
 40
5
 41
1
 50
-150.00003053215451
  1
22
  0
TEXT
  8
_0-d_0_1
 62
    7
 10
87.752968192315905
 20
205.45977146839095
 40
5
 41
1
 50
-164.9999646800598
  1
21
  0
TEXT
  8
_0-d_0_1
 62
    7
 10
83.224990466996701
 20
203.52322291269837
 40
5
 41
1
 50
180
  1
20
  0
TEXT
  8
_0-d_0_1
 62
    7
 10
78.261290444098961
 20
203.01154556464209
 40
5
 41
1
 50
164.9999895175464
  1
19
  0
TEXT
  8
_0-d_0_1
 62
    7
 10
73.423244931321847
 20
203.78018239178127
 40
5
 41
1
 50
150.00003053215451
  1
18
  0
TEXT
  8
_0-d_0_1
 62
    7
 10
68.083567957752848
 20
206.42127345934605
 40
5
 41
1
 50
135.0000193187177
  1
17
  0
TEXT
  8
_0-d_0_1
 62
    7
 10
64.436688275036488
 20
209.73349744604886
 40
5
 41
1
 50
119.99999141718865
  1
16
  0
TEXT
  8
_0-d_0_1
 62
    7
 10
61.836500195194731
 20
213.73616080312792
 40
5
 41
1
 50
105.00004571869744
  1
15
  0
TEXT
  8
_0-d_0_1
 62
    7
 10
60.381596902772458
 20
218.42357515230714
 40
5
 41
1
 50
90
  1
14
  0
TEXT
  8
_0-d_0_1
 62
    7
 10
60.164059630054822
 20
223.24816887715704
 40
5
 41
1
 50
74.999957816881491
  1
13
  0
TEXT
  8
_0-d_0_1
 62
    7
 10
61.112138393976636
 20
227.88788133797189
 40
5
 41
1
 50
60.000042243336416
  1
12
  0
TEXT
  8
_0-d_0_1
 62
    7
 10
63.247045634419266
 20
232.06430188263664
 40
5
 41
1
 50
45.000042243336281
  1
11
  0
LINE
  8
_0-1_作画層１
  6
CENTER
 62
    7
 10
78.041123778501628
 20
180.86799736518827
 11
78.041123778501628
 21
262.86798973580625
  0
LINE
  8
_0-1_作画層１
  6
CONTINUOUS
 62
    7
 10
73.091378600278972
 20
226.81772156258751
 11
76.876190693060039
 21
224.63255997201134
  0
LINE
  8
_0-1_作画層１
  6
CONTINUOUS
 62
    7
 10
73.091378600278972
 20
226.81772156258751
 11
75.276540190855144
 21
223.03291817208458
  0
LINE
  8
_0-1_作画層１
  6
CONTINUOUS
 62
    7
 10
75.276540190855144
 20
223.03291817208458
 11
76.876190693060039
 21
224.63255997201134
  0
LINE
  8
_0-1_作画層１
  6
CONTINUOUS
 62
    7
 10
76.841123778501668
 20
224.59749324822096
 11
76.841123778501668
 21
224.65280585817808
  0
LINE
  8
_0-1_作画層１
  6
CONTINUOUS
 62
    7
 10
76.741123778501674
 20
224.49749379223215
 11
76.741123778501674
 21
224.71054086686567
  0
LINE
  8
_0-1_作画層１
  6
CONTINUOUS
 62
    7
 10
76.641123778501679
 20
224.39749433624337
 11
76.641123778501679
 21
224.76827587555326
  0
LINE
  8
_0-1_作画層１
  6
CONTINUOUS
 62
    7
 10
76.541123778501685
 20
224.29749488025459
 11
76.541123778501685
 21
224.82601088424084
  0
LINE
  8
_0-1_作画層１
  6
CONTINUOUS
 62
    7
 10
76.441123778501691
 20
224.19749542426581
 11
76.441123778501691
 21
224.88374589292843
  0
LINE
  8
_0-1_作画層１
  6
CONTINUOUS
 62
    7
 10
76.341123778501697
 20
224.09749596827703
 11
76.341123778501697
 21
224.94148090161602
  0
LINE
  8
_0-1_作画層１
  6
CONTINUOUS
 62
    7
 10
76.241123778501702
 20
223.99749651228825
 11
76.241123778501702
 21
224.9992159103036
  0
LINE
  8
_0-1_作画層１
  6
CONTINUOUS
 62
    7
 10
76.141123778501708
 20
223.89749705629947
 11
76.141123778501708
 21
225.05695091899119
  0
LINE
  8
_0-1_作画層１
  6
CONTINUOUS
 62
    7
 10
76.041123778501714
 20
223.79749760031069
 11
76.041123778501714
 21
225.11468592767878
  0
LINE
  8
_0-1_作画層１
  6
CONTINUOUS
 62
    7
 10
75.941123778501719
 20
223.69749814432191
 11
75.941123778501719
 21
225.17242093636636
  0
LINE
  8
_0-1_作画層１
  6
CONTINUOUS
 62
    7
 10
75.841123778501725
 20
223.59749868833313
 11
75.841123778501725
 21
225.23015594505395
  0
LINE
  8
_0-1_作画層１
  6
CONTINUOUS
 62
    7
 10
75.741123778501731
 20
223.49749923234435
 11
75.741123778501731
 21
225.28789095374154
  0
LINE
  8
_0-1_作画層１
  6
CONTINUOUS
 62
    7
 10
75.641123778501736
 20
223.39749977635557
 11
75.641123778501736
 21
225.34562596242912
  0
LINE
  8
_0-1_作画層１
  6
CONTINUOUS
 62
    7
 10
75.541123778501742
 20
223.29750032036679
 11
75.541123778501742
 21
225.40336097111674
  0
LINE
  8
_0-1_作画層１
  6
CONTINUOUS
 62
    7
 10
75.441123778501748
 20
223.19750086437801
 11
75.441123778501748
 21
225.46109597980433
  0
LINE
  8
_0-1_作画層１
  6
CONTINUOUS
 62
    7
 10
75.341123778501753
 20
223.09750140838923
 11
75.341123778501753
 21
225.51883098849191
  0
LINE
  8
_0-1_作画層１
  6
CONTINUOUS
 62
    7
 10
75.241123778501759
 20
223.09426107602931
 11
75.241123778501759
 21
225.5765659971795
  0
LINE
  8
_0-1_作画層１
  6
CONTINUOUS
 62
    7
 10
75.141123778501765
 20
223.26746581323619
 11
75.141123778501765
 21
225.63430100586709
  0
LINE
  8
_0-1_作画層１
  6
CONTINUOUS
 62
    7
 10
75.04112377850177
 20
223.44067055044303
 11
75.04112377850177
 21
225.69203601455467
  0
LINE
  8
_0-1_作画層１
  6
CONTINUOUS
 62
    7
 10
74.941123778501776
 20
223.6138752876499
 11
74.941123778501776
 21
225.74977102324226
  0
LINE
  8
_0-1_作画層１
  6
CONTINUOUS
 62
    7
 10
74.841123778501782
 20
223.78708002485678
 11
74.841123778501782
 21
225.80750603192985
  0
LINE
  8
_0-1_作画層１
  6
CONTINUOUS
 62
    7
 10
74.741123778501787
 20
223.96028476206362
 11
74.741123778501787
 21
225.86524104061743
  0
LINE
  8
_0-1_作画層１
  6
CONTINUOUS
 62
    7
 10
74.641123778501793
 20
224.13348949927047
 11
74.641123778501793
 21
225.92297604930502
  0
LINE
  8
_0-1_作画層１
  6
CONTINUOUS
 62
    7
 10
74.541123778501799
 20
224.30669423647734
 11
74.541123778501799
 21
225.98071105799261
  0
LINE
  8
_0-1_作画層１
  6
CONTINUOUS
 62
    7
 10
74.441123778501805
 20
224.47989897368421
 11
74.441123778501805
 21
226.03844606668019
  0
LINE
  8
_0-1_作画層１
  6
CONTINUOUS
 62
    7
 10
74.34112377850181
 20
224.65310371089106
 11
74.34112377850181
 21
226.09618107536778
  0
LINE
  8
_0-1_作画層１
  6
CONTINUOUS
 62
    7
 10
74.241123778501816
 20
224.82630844809793
 11
74.241123778501816
 21
226.15391608405537
  0
LINE
  8
_0-1_作画層１
  6
CONTINUOUS
 62
    7
 10
74.141123778501822
 20
224.99951318530481
 11
74.141123778501822
 21
226.21165109274295
  0
LINE
  8
_0-1_作画層１
  6
CONTINUOUS
 62
    7
 10
74.041123778501827
 20
225.17271792251165
 11
74.041123778501827
 21
226.26938610143054
  0
LINE
  8
_0-1_作画層１
  6
CONTINUOUS
 62
    7
 10
73.941123778501833
 20
225.3459226597185
 11
73.941123778501833
 21
226.32712111011813
  0
LINE
  8
_0-1_作画層１
  6
CONTINUOUS
 62
    7
 10
73.841123778501839
 20
225.51912739692537
 11
73.841123778501839
 21
226.38485611880571
  0
LINE
  8
_0-1_作画層１
  6
CONTINUOUS
 62
    7
 10
73.741123778501844
 20
225.69233213413224
 11
73.741123778501844
 21
226.4425911274933
  0
LINE
  8
_0-1_作画層１
  6
CONTINUOUS
 62
    7
 10
73.64112377850185
 20
225.86553687133909
 11
73.64112377850185
 21
226.50032613618089
  0
LINE
  8
_0-1_作画層１
  6
CONTINUOUS
 62
    7
 10
73.541123778501856
 20
226.03874160854593
 11
73.541123778501856
 21
226.55806114486847
  0
LINE
  8
_0-1_作画層１
  6
CONTINUOUS
 62
    7
 10
73.441123778501861
 20
226.21194634575281
 11
73.441123778501861
 21
226.61579615355606
  0
LINE
  8
_0-1_作画層１
  6
CONTINUOUS
 62
    7
 10
73.341123778501867
 20
226.38515108295968
 11
73.341123778501867
 21
226.67353116224368
  0
LINE
  8
_0-1_作画層１
  6
CONTINUOUS
 62
    7
 10
73.241123778501873
 20
226.55835582016653
 11
73.241123778501873
 21
226.73126617093126
  0
LINE
  8
_0-1_作画層１
  6
CONTINUOUS
 62
    7
 10
73.141123778501878
 20
226.73156055737337
 11
73.141123778501878
 21
226.78900117961885
  0
LINE
  8
_0-1_作画層１
  6
CONTINUOUS
 62
    7
 10
55.541146666685222
 20
254.86796875497032
 11
58.541140944639324
 21
254.86796875497032
  0
LINE
  8
_0-1_作画層１
  6
CONTINUOUS
 62
    7
 10
58.541140944639324
 20
253.86796684762169
 11
58.541140944639324
 21
254.86796875497032
  0
LINE
  8
_0-1_作画層１
  6
CONTINUOUS
 62
    7
 10
55.541146666685222
 20
253.86796684762169
 11
55.541146666685222
 21
254.86796875497032
  0
LINE
  8
_0-1_作画層１
  6
CONTINUOUS
 62
    7
 10
60.541144759336589
 20
253.86796684762169
 11
60.541144759336589
 21
254.86796875497032
  0
LINE
  8
_0-1_作画層１
  6
CONTINUOUS
 62
    7
 10
60.541144759336589
 20
253.86796684762169
 11
65.54114189831364
 21
253.86796684762169
  0
LINE
  8
_0-1_作画層１
  6
CONTINUOUS
 62
    7
 10
65.54114189831364
 20
253.86796684762169
 11
65.54114189831364
 21
254.86796875497032
  0
LINE
  8
_0-1_作画層１
  6
CONTINUOUS
 62
    7
 10
60.541144759336589
 20
254.86796875497032
 11
65.54114189831364
 21
254.86796875497032
  0
LINE
  8
_0-1_作画層１
  6
CONTINUOUS
 62
    7
 10
65.414879233518718
 20
253.86796684762169
 11
65.54114189831364
 21
253.99422760506798
  0
LINE
  8
_0-1_作画層１
  6
CONTINUOUS
 62
    7
 10
65.132031829038738
 20
253.86796684762169
 11
65.54114189831364
 21
254.27707596322227
  0
LINE
  8
_0-1_作画層１
  6
CONTINUOUS
 62
    7
 10
64.849193007627605
 20
253.86796684762169
 11
65.54114189831364
 21
254.55990524789024
  0
LINE
  8
_0-1_作画層１
  6
CONTINUOUS
 62
    7
 10
64.566354186216472
 20
253.86796684762169
 11
65.54114189831364
 21
254.84275360604454
  0
LINE
  8
_0-1_作画層１
  6
CONTINUOUS
 62
    7
 10
64.283506781736492
 20
253.86796684762169
 11
65.283508689085124
 21
254.86796875497032
  0
LINE
  8
_0-1_作画層１
  6
CONTINUOUS
 62
    7
 10
64.000659377256511
 20
253.86796684762169
 11
65.000660330930828
 21
254.86796875497032
  0
LINE
  8
_0-1_作画層１
  6
CONTINUOUS
 62
    7
 10
63.717811972776531
 20
253.86796684762169
 11
64.717812926450847
 21
254.86796875497032
  0
LINE
  8
_0-1_作画層１
  6
CONTINUOUS
 62
    7
 10
63.434973151365398
 20
253.86796684762169
 11
64.434974105039714
 21
254.86796875497032
  0
LINE
  8
_0-1_作画層１
  6
CONTINUOUS
 62
    7
 10
63.152125746885417
 20
253.86796684762169
 11
64.152126700559734
 21
254.86796875497032
  0
LINE
  8
_0-1_作画層１
  6
CONTINUOUS
 62
    7
 10
62.869286925474285
 20
253.86796684762169
 11
63.869287879148601
 21
254.86796875497032
  0
LINE
  8
_0-1_作画層１
  6
CONTINUOUS
 62
    7
 10
62.586438567319988
 20
253.86796684762169
 11
63.58644047466862
 21
254.86796875497032
  0
LINE
  8
_0-1_作画層１
  6
CONTINUOUS
 62
    7
 10
62.303591162840007
 20
253.86796684762169
 11
63.30359307018864
 21
254.86796875497032
  0
LINE
  8
_0-1_作画層１
  6
CONTINUOUS
 62
    7
 10
62.020743758360027
 20
253.86796684762169
 11
63.020744712034343
 21
254.86796875497032
  0
LINE
  8
_0-1_作画層１
  6
CONTINUOUS
 62
    7
 10
61.737904936948894
 20
253.86796684762169
 11
62.73790589062321
 21
254.86796875497032
  0
LINE
  8
_0-1_作画層１
  6
CONTINUOUS
 62
    7
 10
61.455066115537761
 20
253.86796684762169
 11
62.455067069212078
 21
254.86796875497032
  0
LINE
  8
_0-1_作画層１
  6
CONTINUOUS
 62
    7
 10
61.172217757383464
 20
253.86796684762169
 11
62.172219664732097
 21
254.86796875497032
  0
LINE
  8
_0-1_作画層１
  6
CONTINUOUS
 62
    7
 10
60.8893713065778
 20
253.86796684762169
 11
61.889373213926433
 21
254.86796875497032
  0
LINE
  8
_0-1_作画層１
  6
CONTINUOUS
 62
    7
 10
60.606522948423503
 20
253.86796684762169
 11
61.606524855772136
 21
254.86796875497032
  0
LINE
  8
_0-1_作画層１
  6
CONTINUOUS
 62
    7
 10
60.541144759336589
 20
254.08542557259727
 11
61.323686034361003
 21
254.86796875497032
  0
LINE
  8
_0-1_作画層１
  6
CONTINUOUS
 62
    7
 10
60.541144759336589
 20
254.36827393075157
 11
61.040837676206706
 21
254.86796875497032
  0
LINE
  8
_0-1_作画層１
  6
CONTINUOUS
 62
    7
 10
60.541144759336589
 20
254.65112228890587
 11
60.757998854795574
 21
254.86796875497032
  0
LINE
  8
_0-1_作画層１
  6
CONTINUOUS
 62
    7
 10
58.34377804485905
 20
253.86796684762169
 11
58.541140944639324
 21
254.06532211800743
  0
LINE
  8
_0-1_作画層１
  6
CONTINUOUS
 62
    7
 10
58.060929686704753
 20
253.86796684762169
 11
58.541140944639324
 21
254.34818573495079
  0
LINE
  8
_0-1_作画層１
  6
CONTINUOUS
 62
    7
 10
57.778083235899089
 20
253.86796684762169
 11
58.541140944639324
 21
254.63101883431602
  0
LINE
  8
_0-1_作画層１
  6
CONTINUOUS
 62
    7
 10
57.495234877744792
 20
253.86796684762169
 11
58.495236785093425
 21
254.86796875497032
  0
LINE
  8
_0-1_作画層１
  6
CONTINUOUS
 62
    7
 10
57.21239605633366
 20
253.86796684762169
 11
58.212397963682292
 21
254.86796875497032
  0
LINE
  8
_0-1_作画層１
  6
CONTINUOUS
 62
    7
 10
56.929557234922527
 20
253.86796684762169
 11
57.92955914227116
 21
254.86796875497032
  0
LINE
  8
_0-1_作画層１
  6
CONTINUOUS
 62
    7
 10
56.64670887676823
 20
253.86796684762169
 11
57.646710784116863
 21
254.86796875497032
  0
LINE
  8
_0-1_作画層１
  6
CONTINUOUS
 62
    7
 10
56.363862425962566
 20
253.86796684762169
 11
57.363864333311199
 21
254.86796875497032
  0
LINE
  8
_0-1_作画層１
  6
CONTINUOUS
 62
    7
 10
56.081014067808269
 20
253.86796684762169
 11
57.081015975156902
 21
254.86796875497032
  0
LINE
  8
_0-1_作画層１
  6
CONTINUOUS
 62
    7
 10
55.798175246397136
 20
253.86796684762169
 11
56.798177153745769
 21
254.86796875497032
  0
LINE
  8
_0-1_作画層１
  6
CONTINUOUS
 62
    7
 10
55.541146666685222
 20
253.89377518197227
 11
56.515338332334636
 21
254.86796875497032
  0
LINE
  8
_0-1_作画層１
  6
CONTINUOUS
 62
    7
 10
55.541146666685222
 20
254.17662354012657
 11
56.232482344785808
 21
254.86796875497032
  0
LINE
  8
_0-1_作画層１
  6
CONTINUOUS
 62
    7
 10
55.541146666685222
 20
254.45947189828087
 11
55.949643523374675
 21
254.86796875497032
  0
LINE
  8
_0-1_作画層１
  6
CONTINUOUS
 62
    7
 10
55.541146666685222
 20
254.74232025643516
 11
55.666795165220378
 21
254.86796875497032
  0
LINE
  8
_0-1_作画層１
  6
CONTINUOUS
 62
    7
 10
55.541146666685222
 20
253.86796684762169
 11
58.541140944639324
 21
253.86796684762169
  0
LINE
  8
_0-1_作画層１
  6
CONTINUOUS
 62
    7
 10
55.017585189024089
 20
244.88505859872032
 11
55.02407589642155
 21
244.89155121346641
  0
LINE
  8
_0-1_作画層１
  6
CONTINUOUS
 62
    7
 10
51.939235121885417
 20
247.96986504098106
 11
51.232125670591472
 21
247.26275368233848
  0
LINE
  8
_0-1_作画層１
  6
CONTINUOUS
 62
    7
 10
54.843860060850261
 20
244.99418182870079
 11
54.914952666441081
 21
245.06527443429161
  0
LINE
  8
_0-1_作画層１
  6
CONTINUOUS
 62
    7
 10
54.670136840025066
 20
245.10330505868126
 11
54.805829436460613
 21
245.23899956246544
  0
LINE
  8
_0-1_作画層１
  6
CONTINUOUS
 62
    7
 10
54.496411711851238
 20
245.2124206592672
 11
54.696715743223308
 21
245.41272278329063
  0
LINE
  8
_0-1_作画層１
  6
CONTINUOUS
 62
    7
 10
54.322688491026042
 20
245.3215343525045
 11
54.587592513242839
 21
245.5864383747213
  0
LINE
  8
_0-1_作画層１
  6
CONTINUOUS
 62
    7
 10
54.148963362852214
 20
245.43065758248497
 11
54.478467375913738
 21
245.76017113228966
  0
LINE
  8
_0-1_作画層１
  6
CONTINUOUS
 62
    7
 10
53.975240142027019
 20
245.53977318307091
 11
54.369353682676433
 21
245.93388672372032
  0
LINE
  8
_0-1_作画層１
  6
CONTINUOUS
 62
    7
 10
53.801505477110027
 20
245.64889641305138
 11
54.260230452695964
 21
246.10761948128868
  0
LINE
  8
_0-1_作画層１
  6
CONTINUOUS
 62
    7
 10
53.627782256284831
 20
245.75801010628868
 11
54.151107222715495
 21
246.28133507271934
  0
LINE
  8
_0-1_作画層１
  6
CONTINUOUS
 62
    7
 10
53.454066664854167
 20
245.86713333626915
 11
54.041991622129558
 21
246.45505066415001
  0
LINE
  8
_0-1_作画層１
  6
CONTINUOUS
 62
    7
 10
53.280333907285808
 20
245.97624893685509
 11
53.932868392149089
 21
246.62878342171837
  0
LINE
  8
_0-1_作画層１
  6
CONTINUOUS
 62
    7
 10
55.035029799619792
 20
244.87410469552208
 11
51.232125670591472
 21
247.26275368233848
  0
LINE
  8
_0-1_作画層１
  6
CONTINUOUS
 62
    7
 10
52.759152800718425
 20
246.30360909005333
 11
53.605508238950847
 21
247.14996452828575
  0
LINE
  8
_0-1_作画層１
  6
CONTINUOUS
 62
    7
 10
52.585437209287761
 20
246.41272469063927
 11
53.496385008970378
 21
247.32368011971641
  0
LINE
  8
_0-1_作画層１
  6
CONTINUOUS
 62
    7
 10
52.411704451719402
 20
246.52183838387657
 11
53.387269408384441
 21
247.49739571114708
  0
LINE
  8
_0-1_作画層１
  6
CONTINUOUS
 62
    7
 10
52.237979323545574
 20
246.6309711506002
 11
53.278146178403972
 21
247.67112846871544
  0
LINE
  8
_0-1_作画層１
  6
CONTINUOUS
 62
    7
 10
52.064256102720378
 20
246.74008484383751
 11
53.169022948423503
 21
247.84486313363243
  0
LINE
  8
_0-1_作画層１
  6
CONTINUOUS
 62
    7
 10
51.89053097454655
 20
246.84920044442345
 11
53.059899718443035
 21
248.01857872506309
  0
LINE
  8
_0-1_作画層１
  6
CONTINUOUS
 62
    7
 10
51.716807753721355
 20
246.95831413766075
 11
52.95078602520573
 21
248.19229240914513
  0
LINE
  8
_0-1_作画層１
  6
CONTINUOUS
 62
    7
 10
51.543082625547527
 20
247.06744690438438
 11
52.841662795225261
 21
248.36602707406212
  0
LINE
  8
_0-1_作画層１
  6
CONTINUOUS
 62
    7
 10
51.369357497373699
 20
247.17656250497032
 11
52.73253765789616
 21
248.53974266549278
  0
LINE
  8
_0-1_作画層１
  6
CONTINUOUS
 62
    7
 10
51.92959347454655
 20
247.9602233936422
 11
52.646346480527995
 21
248.67697449227501
  0
LINE
  8
_0-1_作画層１
  6
CONTINUOUS
 62
    7
 10
53.10660877911198
 20
246.08537216683555
 11
53.82374516216862
 21
246.80251617928673
  0
LINE
  8
_0-1_作画層１
  6
CONTINUOUS
 62
    7
 10
52.93287602154362
 20
246.19448586007286
 11
53.714621932188152
 21
246.97623177071739
  0
LINE
  8
_0-1_作画層１
  6
CONTINUOUS
 62
    7
 10
52.646346480527995
 20
248.67697449227501
 11
55.035029799619792
 21
244.87410469552208
  0
LINE
  8
_0-1_作画層１
  6
CONTINUOUS
 62
    7
 10
59.755767256895183
 20
249.9163944294088
 11
61.254781157652019
 21
250.62882347603966
  0
LINE
  8
_0-1_作画層１
  6
CONTINUOUS
 62
    7
 10
61.254781157652019
 20
250.62882347603966
 11
61.270450026670574
 21
250.63627739449669
  0
LINE
  8
_0-1_作画層１
  6
CONTINUOUS
 62
    7
 10
59.32651844708073
 20
250.81958313485313
 11
60.83665028301823
 21
251.53729553719688
  0
LINE
  8
_0-1_作画層１
  6
CONTINUOUS
 62
    7
 10
60.83665028301823
 20
251.53729553719688
 11
60.841199309507488
 21
251.53946609994102
  0
LINE
  8
_0-1_作画層１
  6
CONTINUOUS
 62
    7
 10
59.32651844708073
 20
250.81958313485313
 11
57.81711903301823
 21
250.10221786996055
  0
LINE
  8
_0-1_作画層１
  6
CONTINUOUS
 62
    7
 10
59.755767256895183
 20
249.9163944294088
 11
58.254479796568035
 21
249.20288010140587
  0
LINE
  8
_0-1_作画層１
  6
CONTINUOUS
 62
    7
 10
60.853780181089519
 20
250.43824120064903
 11
61.232549101987956
 21
250.81701012154747
  0
LINE
  8
_0-1_作画層１
  6
CONTINUOUS
 62
    7
 10
60.31475201336491
 20
250.18205948373009
 11
61.16155377117741
 21
251.02887077828575
  0
LINE
  8
_0-1_作画層１
  6
CONTINUOUS
 62
    7
 10
59.7757238456403
 20
249.92587776681114
 11
61.069770247617839
 21
251.21992607613731
  0
LINE
  8
_0-1_作画層１
  6
CONTINUOUS
 62
    7
 10
59.236703307310222
 20
249.66969795724083
 11
60.959737212339519
 21
251.39273186227013
  0
LINE
  8
_0-1_作画層１
  6
CONTINUOUS
 62
    7
 10
58.69767323223698
 20
249.41351624032188
 11
60.807710082212566
 21
251.5235435535543
  0
LINE
  8
_0-1_作画層１
  6
CONTINUOUS
 62
    7
 10
58.220769316831706
 20
249.21945114632774
 11
60.268681914487956
 21
251.26736183663536
  0
LINE
  8
_0-1_作画層１
  6
CONTINUOUS
 62
    7
 10
58.097430617490886
 20
249.37895889779259
 11
59.729651839414714
 21
251.01118011971641
  0
LINE
  8
_0-1_作画層１
  6
CONTINUOUS
 62
    7
 10
57.991168410459636
 20
249.555543141567
 11
59.190614134946941
 21
250.75499840279747
  0
ARC
  8
_0-1_作画層１
  6
CONTINUOUS
 62
    7
 10
59.541142851987956
 20
250.36798782845662
 40
1.7500000000000056
 50
43.385589599609901
 51
187.66662597656128
  0
ARC
  8
_0-1_作画層１
  6
CONTINUOUS
 62
    7
 10
59.541142851987786
 20
250.36798782845659
 40
1.750000000000157
 50
8.0641479492204127
 51
43.385284423826633
  0
ARC
  8
_0-1_作画層１
  6
CONTINUOUS
 62
    7
 10
59.541142851987956
 20
250.36798782845665
 40
1.7500000000000002
 50
222.75694274902352
 51
8.0641479492192616
  0
LINE
  8
_0-1_作画層１
  6
CONTINUOUS
 62
    7
 10
58.254479796568035
 20
249.20288010140587
 11
58.241094023862956
 21
249.19651146432091
  0
LINE
  8
_0-1_作画層１
  6
CONTINUOUS
 62
    7
 10
57.81711903301823
 20
250.10221786996055
 11
57.811826140562175
 21
250.09969826241661
  0
LINE
  8
_0-1_作画層１
  6
CONTINUOUS
 62
    7
 10
57.903582961240886
 20
249.75081558724571
 11
58.651585967222331
 21
250.49881859322716
  0
LINE
  8
_0-1_作画層１
  6
CONTINUOUS
 62
    7
 10
57.837556273618816
 20
249.96761055489708
 11
58.112574965635417
 21
250.24263687630821
  0
ARC
  8
_0-1_作画層１
  6
CONTINUOUS
 62
    7
 10
59.541142851987786
 20
250.36798782845656
 40
1.7499999999998153
 50
187.6666259765602
 51
222.75694274902523
  0
LINE
  8
_0-1_作画層１
  6
CONTINUOUS
 62
    7
 10
57.442820937315105
 20
247.56672211190391
 11
57.143062026182292
 21
247.16655273934532
  0
LINE
  8
_0-1_作画層１
  6
CONTINUOUS
 62
    7
 10
57.071278960386394
 20
247.22160072823692
 11
57.427756697813152
 21
247.57807655831505
  0
LINE
  8
_0-1_作画層１
  6
CONTINUOUS
 62
    7
 10
55.604871184507488
 20
248.09773750802208
 11
55.990254790464519
 21
248.52646179696251
  0
LINE
  8
_0-1_作画層１
  6
CONTINUOUS
 62
    7
 10
56.916407973447917
 20
247.34957809945274
 11
57.270951659361003
 21
247.70411224862266
  0
LINE
  8
_0-1_作画層１
  6
CONTINUOUS
 62
    7
 10
56.768676192442058
 20
247.48469276925255
 11
57.122310073057292
 21
247.83831902047325
  0
LINE
  8
_0-1_作画層１
  6
CONTINUOUS
 62
    7
 10
56.628022582212566
 20
247.62687798043419
 11
56.981761367002605
 21
247.98060722848106
  0
LINE
  8
_0-1_作画層１
  6
CONTINUOUS
 62
    7
 10
56.494447142759441
 20
247.77614899178673
 11
56.849313170591472
 21
248.13101692696739
  0
LINE
  8
_0-1_作画層１
  6
CONTINUOUS
 62
    7
 10
56.368026168027995
 20
247.93255920907188
 11
56.7250646659528
 21
248.28959770699669
  0
LINE
  8
_0-1_作画層１
  6
CONTINUOUS
 62
    7
 10
56.248851210752605
 20
248.09624977608848
 11
56.609168440977214
 21
248.45655937691856
  0
ARC
  8
_0-1_作画層１
  6
CONTINUOUS
 62
    7
 10
59.541142851987843
 20
250.36798782845656
 40
3.9999999999998592
 50
207.41172790527315
 51
233.16444396972707
  0
LINE
  8
_0-1_作画層１
  6
CONTINUOUS
 62
    7
 10
56.06749859539616
 20
250.81842728158165
 11
55.604871184507488
 21
248.09773750802208
  0
LINE
  8
_0-1_作画層１
  6
CONTINUOUS
 62
    7
 10
56.137128264585613
 20
248.26735802193809
 11
56.501918227354167
 21
248.63214607735802
  0
LINE
  8
_0-1_作画層１
  6
CONTINUOUS
 62
    7
 10
56.033080489317058
 20
248.44614716073204
 11
56.403678328672527
 21
248.81674500008751
  0
LINE
  8
_0-1_作画層１
  6
CONTINUOUS
 62
    7
 10
55.646472365537761
 20
248.34238739510704
 11
56.31495609966862
 21
249.01088066598106
  0
LINE
  8
_0-1_作画層１
  6
CONTINUOUS
 62
    7
 10
55.704423339048503
 20
248.68318672677208
 11
56.236436278501628
 21
249.2151996662252
  0
LINE
  8
_0-1_作画層１
  6
CONTINUOUS
 62
    7
 10
55.762376219907878
 20
249.02398605843712
 11
56.16900006023991
 21
249.43061180611778
  0
LINE
  8
_0-1_作画層１
  6
CONTINUOUS
 62
    7
 10
55.820319564024089
 20
249.36476822396446
 11
56.113849074522136
 21
249.65830727120567
  0
LINE
  8
_0-1_作画層１
  6
CONTINUOUS
 62
    7
 10
55.878270537534831
 20
249.7055503894918
 11
56.072589308897136
 21
249.89987679024864
  0
LINE
  8
_0-1_作画層１
  6
CONTINUOUS
 62
    7
 10
55.936213881651042
 20
250.04634972115684
 11
56.047471434751628
 21
250.15761681100059
  0
LINE
  8
_0-1_作画層１
  6
CONTINUOUS
 62
    7
 10
55.994164855161785
 20
250.38714905282188
 11
56.04177609173405
 21
250.43475838204552
  0
LINE
  8
_0-1_作画層１
  6
CONTINUOUS
 62
    7
 10
56.05211773602116
 20
250.72794838448692
 11
56.060586363950847
 21
250.73641701241661
  0
ARC
  8
_0-1_作画層１
  6
CONTINUOUS
 62
    7
 10
59.541142851987956
 20
250.36798782845665
 40
3.50000000000002
 50
172.61149597167963
 51
233.1645355224608
  0
LINE
  8
_0-1_作画層１
  6
CONTINUOUS
 62
    7
 10
108.77654209820376
 20
250.56067200204063
 11
109.34843960491763
 21
251.13255997201134
  0
LINE
  8
_0-1_作画層１
  6
CONTINUOUS
 62
    7
 10
108.3289121696149
 20
250.39586182137657
 11
109.51323071209536
 21
251.58019943734337
  0
LINE
  8
_0-1_作画層１
  6
CONTINUOUS
 62
    7
 10
108.0183652946149
 20
250.36816330453087
 11
109.54092922894107
 21
251.89074631234337
  0
LINE
  8
_0-1_作画層１
  6
CONTINUOUS
 62
    7
 10
107.76162472454654
 20
250.39426918526817
 11
109.51483288494693
 21
252.14748688241173
  0
LINE
  8
_0-1_作画層１
  6
CONTINUOUS
 62
    7
 10
107.53903713909732
 20
250.45451469918419
 11
109.45457974163638
 21
252.37007446786095
  0
LINE
  8
_0-1_作画層１
  6
CONTINUOUS
 62
    7
 10
107.34234753338443
 20
250.54068871041466
 11
109.36841335980044
 21
252.56674500008751
  0
LINE
  8
_0-1_作画層１
  6
CONTINUOUS
 62
    7
 10
107.16748562542544
 20
250.64866753121544
 11
109.26044407574283
 21
252.74161644478966
  0
LINE
  8
_0-1_作画層１
  6
CONTINUOUS
 62
    7
 10
107.01235333172427
 20
250.7763626148336
 11
109.1327394553815
 21
252.89674873849083
  0
LINE
  8
_0-1_作画層１
  6
CONTINUOUS
 62
    7
 10
106.87617817608462
 20
250.92304535409141
 11
108.98605671612368
 21
253.03293343087364
  0
LINE
  8
_0-1_作画層１
  6
CONTINUOUS
 62
    7
 10
106.75926914898501
 20
251.08895607491661
 11
108.82013645855533
 21
253.14983292123009
  0
LINE
  8
_0-1_作画層１
  6
CONTINUOUS
 62
    7
 10
106.66305103985415
 20
251.27558632394005
 11
108.63351765362368
 21
253.24605293770958
  0
LINE
  8
_0-1_作画層１
  6
CONTINUOUS
 62
    7
 10
106.59056606976138
 20
251.48595924874473
 11
108.423144728819
 21
253.31852646371055
  0
LINE
  8
_0-1_作画層１
  6
CONTINUOUS
 62
    7
 10
106.54783764568911
 20
251.72606010934044
 11
108.18303433148013
 21
253.36127396126915
  0
LINE
  8
_0-1_作画層１
  6
CONTINUOUS
 62
    7
 10
106.54772320477115
 20
252.0088016559713
 11
107.9003004142438
 21
253.36137886544395
  0
LINE
  8
_0-1_作画層１
  6
CONTINUOUS
 62
    7
 10
106.62844029156314
 20
252.37234802743126
 11
107.53674641338931
 21
253.28066177865196
  0
CIRCLE
  8
_0-1_作画層１
  6
CONTINUOUS
 62
    7
 10
108.04110279766665
 20
251.86799927254845
 40
1.5
  0
LINE
  8
_0-1_作画層１
  6
CONTINUOUS
 62
    7
 10
105.83260861126529
 20
193.59383125802208
 11
106.31524220196353
 21
194.07646484872032
  0
LINE
  8
_0-1_作画層１
  6
CONTINUOUS
 62
    7
 10
105.35773411480533
 20
193.40179558297325
 11
106.50727787701236
 21
194.55133934518028
  0
LINE
  8
_0-1_作画層１
  6
CONTINUOUS
 62
    7
 10
105.04108944622622
 20
193.36798973580528
 11
106.54108372418033
 21
194.86798401375938
  0
LINE
  8
_0-1_作画層１
  6
CONTINUOUS
 62
    7
 10
104.78097286907779
 20
193.39071960946251
 11
106.5183538505231
 21
195.12810249825645
  0
LINE
  8
_0-1_作画層１
  6
CONTINUOUS
 62
    7
 10
104.55600681988345
 20
193.4485923816793
 11
106.4604810783063
 21
195.35306854745079
  0
LINE
  8
_0-1_作画層１
  6
CONTINUOUS
 62
    7
 10
104.35742703167544
 20
193.53285141488243
 11
106.37622967449771
 21
195.55164642831016
  0
LINE
  8
_0-1_作画層１
  6
CONTINUOUS
 62
    7
 10
104.18087712017642
 20
193.6391498615377
 11
106.2699235984479
 21
195.72819633980919
  0
LINE
  8
_0-1_作画層１
  6
CONTINUOUS
 62
    7
 10
104.02419415203677
 20
193.76529808541466
 11
106.14377537457095
 21
195.88487930794884
  0
LINE
  8
_0-1_作画層１
  6
CONTINUOUS
 62
    7
 10
103.88648930279361
 20
193.91043968697716
 11
105.99863377300845
 21
196.022584157192
  0
LINE
  8
_0-1_作画層１
  6
CONTINUOUS
 62
    7
 10
103.76797810284243
 20
194.07476730843712
 11
105.83430615154849
 21
196.14109535714317
  0
LINE
  8
_0-1_作画層１
  6
CONTINUOUS
 62
    7
 10
103.66999188152896
 20
194.25961990853477
 11
105.64945355145083
 21
196.23908157845665
  0
LINE
  8
_0-1_作画層１
  6
CONTINUOUS
 62
    7
 10
103.59542599407779
 20
194.4679023792379
 11
105.44117108074771
 21
196.31364746590782
  0
LINE
  8
_0-1_作画層１
  6
CONTINUOUS
 62
    7
 10
103.54993382183658
 20
194.70524712105919
 11
105.20382633892642
 21
196.35914154549766
  0
LINE
  8
_0-1_作画層１
  6
CONTINUOUS
 62
    7
 10
103.54555073467837
 20
194.98370285531212
 11
104.92537060467349
 21
196.36352463265587
  0
LINE
  8
_0-1_作画層１
  6
CONTINUOUS
 62
    7
 10
103.61643353191958
 20
195.33743401070763
 11
104.57163944927798
 21
196.29264183541466
  0
CIRCLE
  8
_0-1_作画層１
  6
CONTINUOUS
 62
    7
 10
105.04108181683169
 20
194.86799164315391
 40
1.5
  0
LINE
  8
_0-1_作画層１
  6
CONTINUOUS
 62
    7
 10
45.541127593198894
 20
196.36802025338341
 11
46.541125685850261
 21
196.36802025338341
  0
LINE
  8
_0-1_作画層１
  6
CONTINUOUS
 62
    7
 10
46.541125685850261
 20
189.36801834603477
 11
46.541125685850261
 21
196.36802025338341
  0
LINE
  8
_0-1_作画層１
  6
CONTINUOUS
 62
    7
 10
45.541123778501628
 20
189.36801834603477
 11
46.541125685850261
 21
189.36801834603477
  0
LINE
  8
_0-1_作画層１
  6
CONTINUOUS
 62
    7
 10
45.541123778501628
 20
189.36801834603477
 11
45.541127593198894
 21
196.36802025338341
  0
LINE
  8
_0-1_作画層１
  6
CONTINUOUS
 62
    7
 10
48.541127593198894
 20
196.36802025338341
 11
49.541129500547527
 21
196.36802025338341
  0
LINE
  8
_0-1_作画層１
  6
CONTINUOUS
 62
    7
 10
49.541129500547527
 20
189.36801834603477
 11
49.541129500547527
 21
196.36802025338341
  0
LINE
  8
_0-1_作画層１
  6
CONTINUOUS
 62
    7
 10
48.541127593198894
 20
189.36801834603477
 11
49.541129500547527
 21
189.36801834603477
  0
LINE
  8
_0-1_作画層１
  6
CONTINUOUS
 62
    7
 10
48.541127593198894
 20
189.36801834603477
 11
48.541127593198894
 21
196.36802025338341
  0
LINE
  8
_0-1_作画層１
  6
CONTINUOUS
 62
    7
 10
51.54113140789616
 20
196.36802025338341
 11
52.541133315244792
 21
196.36802025338341
  0
LINE
  8
_0-1_作画層１
  6
CONTINUOUS
 62
    7
 10
52.541133315244792
 20
189.36801834603477
 11
52.541133315244792
 21
196.36802025338341
  0
LINE
  8
_0-1_作画層１
  6
CONTINUOUS
 62
    7
 10
51.54113140789616
 20
189.36801834603477
 11
52.541133315244792
 21
189.36801834603477
  0
LINE
  8
_0-1_作画層１
  6
CONTINUOUS
 62
    7
 10
51.54113140789616
 20
189.36801834603477
 11
51.54113140789616
 21
196.36802025338341
  0
LINE
  8
_0-1_作画層１
  6
CONTINUOUS
 62
    7
 10
252.04112759319889
 20
64.617984013759383
 11
252.04112759319889
 21
136.61797638436485
  0
LINE
  8
_0-1_作画層１
  6
CONTINUOUS
 62
    7
 10
252.04112759319889
 20
136.61797638436485
 11
324.04111996380436
 21
136.61797638436485
  0
LINE
  8
_0-1_作画層１
  6
CONTINUOUS
 62
    7
 10
324.04111996380436
 20
136.61797638436485
 11
324.04111996380436
 21
64.617984013759383
  0
LINE
  8
_0-1_作画層１
  6
CONTINUOUS
 62
    7
 10
254.54113903729069
 20
51.117964940273055
 11
321.54110851971257
 21
51.117964940273055
  0
LINE
  8
_0-1_作画層１
  6
CONTINUOUS
 62
    7
 10
324.04111996380436
 20
64.617984013759383
 11
321.54110851971257
 21
64.617984013759383
  0
LINE
  8
_0-1_作画層１
  6
CONTINUOUS
 62
    7
 10
254.54113903729069
 20
64.617984013759383
 11
252.04112759319889
 21
64.617984013759383
  0
LINE
  8
_0-1_作画層１
  6
CONTINUOUS
 62
    7
 10
254.54113903729069
 20
67.617984013759383
 11
252.04112759319889
 21
67.617984013759383
  0
LINE
  8
_0-1_作画層１
  6
CONTINUOUS
 62
    7
 10
317.54109707562077
 20
131.11795731087852
 11
317.54109707562077
 21
131.36794586678673
  0
LINE
  8
_0-1_作画層１
  6
CONTINUOUS
 62
    7
 10
317.54109707562077
 20
131.11795731087852
 11
317.54109707562077
 21
130.86796875497032
  0
LINE
  8
_0-1_作画層１
  6
CONTINUOUS
 62
    7
 10
319.54110279766667
 20
131.11795731087852
 11
319.54110279766667
 21
130.86796875497032
  0
LINE
  8
_0-1_作画層１
  6
CONTINUOUS
 62
    7
 10
319.54110279766667
 20
131.11795731087852
 11
319.54110279766667
 21
131.36794586678673
  0
LINE
  8
_0-1_作画層１
  6
CONTINUOUS
 62
    7
 10
318.54110089031803
 20
132.11796112557579
 11
318.79108944622624
 21
132.11796112557579
  0
LINE
  8
_0-1_作画層１
  6
CONTINUOUS
 62
    7
 10
318.54110089031803
 20
132.11796112557579
 11
318.29111233440983
 21
132.11796112557579
  0
LINE
  8
_0-1_作画層１
  6
CONTINUOUS
 62
    7
 10
318.54110089031803
 20
130.11795349618126
 11
318.29111233440983
 21
130.11795349618126
  0
LINE
  8
_0-1_作画層１
  6
CONTINUOUS
 62
    7
 10
318.54110089031803
 20
130.11795349618126
 11
318.79108944622624
 21
130.11795349618126
  0
LINE
  8
_0-1_作画層１
  6
CONTINUOUS
 62
    7
 10
318.0410989829694
 20
131.36794586678673
 11
317.54109707562077
 21
131.36794586678673
  0
LINE
  8
_0-1_作画層１
  6
CONTINUOUS
 62
    7
 10
318.29111233440983
 20
131.61795731087852
 11
318.29111233440983
 21
132.11796112557579
  0
LINE
  8
_0-1_作画層１
  6
CONTINUOUS
 62
    7
 10
318.79108944622624
 20
131.61795731087852
 11
318.79108944622624
 21
132.11796112557579
  0
LINE
  8
_0-1_作画層１
  6
CONTINUOUS
 62
    7
 10
319.04110279766667
 20
131.36794586678673
 11
319.54110279766667
 21
131.36794586678673
  0
LINE
  8
_0-1_作画層１
  6
CONTINUOUS
 62
    7
 10
319.04110279766667
 20
130.86796875497032
 11
319.54110279766667
 21
130.86796875497032
  0
LINE
  8
_0-1_作画層１
  6
CONTINUOUS
 62
    7
 10
318.79108944622624
 20
130.61795540352989
 11
318.79108944622624
 21
130.11795349618126
  0
LINE
  8
_0-1_作画層１
  6
CONTINUOUS
 62
    7
 10
318.29111233440983
 20
130.61795540352989
 11
318.29111233440983
 21
130.11795349618126
  0
LINE
  8
_0-1_作画層１
  6
CONTINUOUS
 62
    7
 10
318.0410989829694
 20
130.86796875497032
 11
317.54109707562077
 21
130.86796875497032
  0
LINE
  8
_0-1_作画層１
  6
CONTINUOUS
 62
    7
 10
286.54111889092076
 20
126.11798973580528
 11
286.54111889092076
 21
125.28023262520958
  0
LINE
  8
_0-1_作画層１
  6
CONTINUOUS
 62
    7
 10
289.5411286660825
 20
126.11798973580528
 11
289.5411286660825
 21
125.28023262520958
  0
LINE
  8
_0-1_作画層１
  6
CONTINUOUS
 62
    7
 10
254.54113903729069
 20
84.117963032924422
 11
268.04113140789616
 21
84.117963032924422
  0
LINE
  8
_0-1_作画層１
  6
CONTINUOUS
 62
    7
 10
308.0411161491071
 20
84.117963032924422
 11
321.54110851971257
 21
84.117963032924422
  0
LINE
  8
_0-1_作画層１
  6
CONTINUOUS
 62
    7
 10
268.04113140789616
 20
84.117963032924422
 11
268.04113140789616
 21
65.617976384364852
  0
LINE
  8
_0-1_作画層１
  6
CONTINUOUS
 62
    7
 10
308.0411161491071
 20
84.117963032924422
 11
308.0411161491071
 21
65.617976384364852
  0
LINE
  8
_0-1_作画層１
  6
CONTINUOUS
 62
    7
 10
280.54112377850163
 20
134.11796875497032
 11
280.54112377850163
 21
115.61795540352989
  0
LINE
  8
_0-1_作画層１
  6
CONTINUOUS
 62
    7
 10
280.54112377850163
 20
115.61795540352989
 11
295.54112377850163
 21
115.61795540352989
  0
LINE
  8
_0-1_作画層１
  6
CONTINUOUS
 62
    7
 10
295.54112377850163
 20
134.11796875497032
 11
295.54112377850163
 21
115.61795540352989
  0
LINE
  8
_0-1_作画層１
  6
CONTINUOUS
 62
    7
 10
254.54113903729069
 20
117.11796112557579
 11
280.54112377850163
 21
117.11796112557579
  0
LINE
  8
_0-1_作画層１
  6
CONTINUOUS
 62
    7
 10
295.54112377850163
 20
117.11796112557579
 11
321.54110851971257
 21
117.11796112557579
  0
CIRCLE
  8
_0-1_作画層１
  6
CONTINUOUS
 62
    7
 10
318.54110089031803
 20
131.11795731087852
 40
1.5
  0
ARC
  8
_0-1_作画層１
  6
CONTINUOUS
 62
    7
 10
318.04109898296946
 20
131.61795731087847
 40
0.2499999999999432
 50
269.99999999998698
 51
0.0000000000130148
  0
ARC
  8
_0-1_作画層１
  6
CONTINUOUS
 62
    7
 10
319.04110279766661
 20
131.61795731087847
 40
0.2499999999999432
 50
179.99999999998701
 51
270.00000000001302
  0
ARC
  8
_0-1_作画層１
  6
CONTINUOUS
 62
    7
 10
319.04110279766661
 20
130.61795540352995
 40
0.2499999999999432
 50
89.999999999986969
 51
180.00000000001305
  0
ARC
  8
_0-1_作画層１
  6
CONTINUOUS
 62
    7
 10
318.04109898296946
 20
130.61795540352995
 40
0.2499999999999432
 50
359.99999999998698
 51
90.000000000013017
  0
ARC
  8
_0-1_作画層１
  6
CONTINUOUS
 62
    7
 10
288.04112377850163
 20
126.11794014474084
 40
1.4999999999999787
 50
0.0018920898430075
 51
179.99810791015699
  0
ARC
  8
_0-1_作画層１
  6
CONTINUOUS
 62
    7
 10
288.04112377850163
 20
122.11795158883263
 40
3.4999999999999911
 50
115.3769836425779
 51
64.623016357422159
  0
LINE
  8
_0-1_作画層１
  6
CONTINUOUS
 62
    7
 10
294.04112377850163
 20
117.11795540352989
 11
282.04112377850163
 21
117.11795540352989
  0
LINE
  8
_0-1_作画層１
  6
CONTINUOUS
 62
    7
 10
282.04112377850163
 20
132.11796875497032
 11
282.04112377850163
 21
117.11795540352989
  0
LINE
  8
_0-1_作画層１
  6
CONTINUOUS
 62
    7
 10
294.04112377850163
 20
132.11796875497032
 11
294.04112377850163
 21
117.11795540352989
  0
LINE
  8
_0-1_作画層１
  6
CONTINUOUS
 62
    7
 10
282.04112377850163
 20
132.11796875497032
 11
294.04112377850163
 21
132.11796875497032
  0
ARC
  8
_0-1_作画層１
  6
CONTINUOUS
 62
    7
 10
282.69397256471296
 20
136.11796875497032
 40
2
 50
270
 51
296.56505117707798
  0
LINE
  8
_0-1_作画層１
  6
CONTINUOUS
 62
    7
 10
283.58839975571289
 20
134.32911437297048
 11
284.49383254250125
 21
134.78183076636466
  0
ARC
  8
_0-1_作画層１
  6
CONTINUOUS
 62
    7
 10
285.38825973350123
 20
132.99297638436482
 40
2.0000000000000351
 50
90.000000000001634
 51
116.56505117707944
  0
LINE
  8
_0-1_作画層１
  6
CONTINUOUS
 62
    7
 10
285.38825973350117
 20
134.99297638436485
 11
290.69398782350203
 21
134.99297638436485
  0
ARC
  8
_0-1_作画層１
  6
CONTINUOUS
 62
    7
 10
290.69398782350203
 20
132.99297638436485
 40
2
 50
63.43494882292201
 51
90
  0
LINE
  8
_0-1_作画層１
  6
CONTINUOUS
 62
    7
 10
282.69397256471296
 20
134.11796875497032
 11
280.54112377850163
 21
134.11796875497032
  0
LINE
  8
_0-1_作画層１
  6
CONTINUOUS
 62
    7
 10
291.58841501450195
 20
134.78183076636469
 11
292.49384780129031
 21
134.32911437297051
  0
LINE
  8
_0-1_作画層１
  6
CONTINUOUS
 62
    7
 10
295.54112377850163
 20
134.11796875497032
 11
293.38827499229023
 21
134.11796875497032
  0
ARC
  8
_0-1_作画層１
  6
CONTINUOUS
 62
    7
 10
293.38827499229029
 20
136.11796875497035
 40
2.0000000000000351
 50
243.43494882292055
 51
269.99999999999835
  0
LINE
  8
_0-1_作画層１
  6
CONTINUOUS
 62
    7
 10
285.85362377850163
 20
134.36797638436485
 11
290.22862377850163
 21
134.36797638436485
  0
LINE
  8
_0-1_作画層１
  6
CONTINUOUS
 62
    7
 10
285.85362377850163
 20
133.11797638436485
 11
290.22862377850163
 21
133.11797638436485
  0
LINE
  8
_0-1_作画層１
  6
CONTINUOUS
 62
    7
 10
290.22862377850163
 20
133.11797638436485
 11
290.22862377850163
 21
134.36797638436485
  0
LINE
  8
_0-1_作画層１
  6
CONTINUOUS
 62
    7
 10
285.85362377850163
 20
133.11797638436485
 11
285.85362377850163
 21
134.36797638436485
  0
LINE
  8
_0-1_作画層１
  6
CONTINUOUS
 62
    7
 10
316.24110851971255
 20
134.11796875497032
 11
316.24110851971255
 21
130.81796875497031
  0
ARC
  8
_0-1_作画層１
  6
CONTINUOUS
 62
    7
 10
318.24110851971255
 20
130.81796875497031
 40
2
 50
180.0000000000004
 51
270
  0
LINE
  8
_0-1_作画層１
  6
CONTINUOUS
 62
    7
 10
321.54110851971257
 20
128.81796875497031
 11
318.24110851971255
 21
128.81796875497031
  0
LINE
  8
_0-1_作画層１
  6
CONTINUOUS
 62
    7
 10
295.54112377850163
 20
134.11796875497032
 11
321.54110851971257
 21
134.11796875497032
  0
LINE
  8
_0-1_作画層１
  6
CONTINUOUS
 62
    7
 10
254.54113903729069
 20
134.11796875497032
 11
280.54112377850163
 21
134.11796875497032
  0
LINE
  8
_0-1_作画層１
  6
CONTINUOUS
 62
    7
 10
254.54113903729069
 20
134.11796875497032
 11
254.54113903729069
 21
51.117964940273055
  0
LINE
  8
_0-1_作画層１
  6
CONTINUOUS
 62
    7
 10
321.54110851971257
 20
134.11796875497032
 11
321.54110851971257
 21
51.117964940273055
  0
ARC
  8
_0-1_作画層１
  6
CONTINUOUS
 62
    7
 10
257.8411390372907
 20
68.542984013759394
 40
2
 50
0.0000000000002036
 51
90
  0
LINE
  8
_0-1_作画層１
  6
CONTINUOUS
 62
    7
 10
254.54113903729069
 20
70.542984013759394
 11
257.8411390372907
 21
70.542984013759394
  0
LINE
  8
_0-1_作画層１
  6
CONTINUOUS
 62
    7
 10
259.8411390372907
 20
68.542984013759394
 11
259.8411390372907
 21
67.617976384364852
  0
ARC
  8
_0-1_作画層１
  6
CONTINUOUS
 62
    7
 10
257.84113903729076
 20
67.617976384364837
 40
1.9999999999999716
 50
269.9999999999992
 51
0.0000000000003816
  0
LINE
  8
_0-1_作画層１
  6
CONTINUOUS
 62
    7
 10
256.54111996380436
 20
68.242984013759383
 11
256.54111996380436
 21
68.492984013759383
  0
LINE
  8
_0-1_作画層１
  6
CONTINUOUS
 62
    7
 10
256.54111996380436
 20
68.242984013759383
 11
256.54111996380436
 21
67.99298210641075
  0
LINE
  8
_0-1_作画層１
  6
CONTINUOUS
 62
    7
 10
258.54112568585026
 20
68.242984013759383
 11
258.54112568585026
 21
67.99298210641075
  0
LINE
  8
_0-1_作画層１
  6
CONTINUOUS
 62
    7
 10
258.54112568585026
 20
68.242984013759383
 11
258.54112568585026
 21
68.492984013759383
  0
LINE
  8
_0-1_作画層１
  6
CONTINUOUS
 62
    7
 10
257.541121871153
 20
69.242985921108016
 11
257.7911104270612
 21
69.242985921108016
  0
LINE
  8
_0-1_作画層１
  6
CONTINUOUS
 62
    7
 10
257.541121871153
 20
69.242985921108016
 11
257.29113331524479
 21
69.242985921108016
  0
LINE
  8
_0-1_作画層１
  6
CONTINUOUS
 62
    7
 10
257.541121871153
 20
67.242980199062117
 11
257.29113331524479
 21
67.242980199062117
  0
LINE
  8
_0-1_作画層１
  6
CONTINUOUS
 62
    7
 10
257.541121871153
 20
67.242980199062117
 11
257.7911104270612
 21
67.242980199062117
  0
LINE
  8
_0-1_作画層１
  6
CONTINUOUS
 62
    7
 10
257.04111996380436
 20
68.492984013759383
 11
256.54111996380436
 21
68.492984013759383
  0
LINE
  8
_0-1_作画層１
  6
CONTINUOUS
 62
    7
 10
257.29113331524479
 20
68.742984013759383
 11
257.29113331524479
 21
69.242985921108016
  0
LINE
  8
_0-1_作画層１
  6
CONTINUOUS
 62
    7
 10
257.7911104270612
 20
68.742984013759383
 11
257.7911104270612
 21
69.242985921108016
  0
LINE
  8
_0-1_作画層１
  6
CONTINUOUS
 62
    7
 10
258.04112377850163
 20
68.492984013759383
 11
258.54112568585026
 21
68.492984013759383
  0
LINE
  8
_0-1_作画層１
  6
CONTINUOUS
 62
    7
 10
258.04112377850163
 20
67.99298210641075
 11
258.54112568585026
 21
67.99298210641075
  0
LINE
  8
_0-1_作画層１
  6
CONTINUOUS
 62
    7
 10
257.7911104270612
 20
67.742980199062117
 11
257.7911104270612
 21
67.242980199062117
  0
LINE
  8
_0-1_作画層１
  6
CONTINUOUS
 62
    7
 10
257.29113331524479
 20
67.742980199062117
 11
257.29113331524479
 21
67.242980199062117
  0
LINE
  8
_0-1_作画層１
  6
CONTINUOUS
 62
    7
 10
257.04111996380436
 20
67.99298210641075
 11
256.54111996380436
 21
67.99298210641075
  0
CIRCLE
  8
_0-1_作画層１
  6
CONTINUOUS
 62
    7
 10
257.541121871153
 20
68.242984013759383
 40
1.5
  0
ARC
  8
_0-1_作画層１
  6
CONTINUOUS
 62
    7
 10
257.04111996380436
 20
68.742984013759383
 40
0.2499999999999928
 50
269.99999999999341
 51
0.0000000000015775
  0
ARC
  8
_0-1_作画層１
  6
CONTINUOUS
 62
    7
 10
258.04112377850163
 20
68.742984013759383
 40
0.2499999999999716
 50
179.99999999999838
 51
270.00000000000648
  0
ARC
  8
_0-1_作画層１
  6
CONTINUOUS
 62
    7
 10
258.04112377850163
 20
67.742980199062117
 40
0.2499999999999928
 50
89.999999999993506
 51
180.00000000000162
  0
ARC
  8
_0-1_作画層１
  6
CONTINUOUS
 62
    7
 10
257.04111996380436
 20
67.742980199062117
 40
0.2499999999999716
 50
359.99999999999835
 51
90.000000000006565
  0
LINE
  8
_0-1_作画層１
  6
CONTINUOUS
 62
    7
 10
319.54110279766667
 20
65.617976384364852
 11
256.54114475933659
 21
65.617976384364852
  0
LINE
  8
_0-1_作画層１
  6
CONTINUOUS
 62
    7
 10
256.54114475933659
 20
65.617976384364852
 11
256.54114475933659
 21
54.117961125575789
  0
ARC
  8
_0-1_作画層１
  6
CONTINUOUS
 62
    7
 10
257.54114475933659
 20
54.117961125575775
 40
1
 50
179.99999999999918
 51
270
  0
LINE
  8
_0-1_作画層１
  6
CONTINUOUS
 62
    7
 10
257.54114475933659
 20
53.117961125575789
 11
318.54110279766667
 21
53.117961125575789
  0
ARC
  8
_0-1_作画層１
  6
CONTINUOUS
 62
    7
 10
318.54110279766667
 20
54.117961125575775
 40
1
 50
270
 51
0.0000000000008014
  0
LINE
  8
_0-1_作画層１
  6
CONTINUOUS
 62
    7
 10
308.0411161491071
 20
82.867963032924422
 11
321.54110851971257
 21
82.867963032924422
  0
LINE
  8
_0-1_作画層１
  6
CONTINUOUS
 62
    7
 10
309.5411161491071
 20
67.117976384364852
 11
319.54110279766667
 21
67.117976384364852
  0
LINE
  8
_0-1_作画層１
  6
CONTINUOUS
 62
    7
 10
309.5411161491071
 20
69.617976384364852
 11
319.54110279766667
 21
69.617976384364852
  0
LINE
  8
_0-1_作画層１
  6
CONTINUOUS
 62
    7
 10
309.5411161491071
 20
69.617976384364852
 11
309.5411161491071
 21
67.117976384364852
  0
LINE
  8
_0-1_作画層１
  6
CONTINUOUS
 62
    7
 10
319.54110279766667
 20
65.617976384364852
 11
319.54110279766667
 21
54.117961125575789
  0
LINE
  8
_0-1_作画層１
  6
CONTINUOUS
 62
    7
 10
319.54110279766667
 20
67.117976384364852
 11
319.54110279766667
 21
69.617976384364852
  0
LINE
  8
_0-1_作画層１
  6
CONTINUOUS
 62
    7
 10
268.04113140789616
 20
69.617976384364852
 11
308.0411161491071
 21
69.617976384364852
  0
LINE
  8
_0-1_作画層１
  6
CONTINUOUS
 62
    7
 10
266.41610279766667
 20
67.117976384364852
 11
266.41610279766667
 21
69.617976384364852
  0
LINE
  8
_0-1_作画層１
  6
CONTINUOUS
 62
    7
 10
268.04113140789616
 20
67.117976384364852
 11
308.04112377850163
 21
67.117976384364852
  0
LINE
  8
_0-1_作画層１
  6
CONTINUOUS
 62
    7
 10
261.41610279766667
 20
67.117976384364852
 11
261.41610279766667
 21
69.617976384364852
  0
LINE
  8
_0-1_作画層１
  6
CONTINUOUS
 62
    7
 10
261.41610279766667
 20
67.117976384364852
 11
266.41610279766667
 21
67.117976384364852
  0
LINE
  8
_0-1_作画層１
  6
CONTINUOUS
 62
    7
 10
261.41610279766667
 20
69.617976384364852
 11
266.41610279766667
 21
69.617976384364852
  0
CIRCLE
  8
_0-1_作画層１
  6
CONTINUOUS
 62
    7
 10
288.04112377850163
 20
59.492972569667586
 40
2
  0
CIRCLE
  8
_0-1_作画層１
  6
CONTINUOUS
 62
    7
 10
288.04112377850163
 20
59.492972569667586
 40
4.6703817475383271
  0
LINE
  8
_0-1_作画層１
  6
CONTINUOUS
 62
    7
 10
321.54110851971257
 20
76.242976384364852
 11
308.04112377850163
 21
76.242976384364852
  0
LINE
  8
_0-1_作画層１
  6
CONTINUOUS
 62
    7
 10
254.54113903729069
 20
82.867963032924422
 11
268.04113140789616
 21
82.867963032924422
  0
LINE
  8
_0-1_作画層１
  6
CONTINUOUS
 62
    7
 10
254.54113903729069
 20
76.242976384364852
 11
268.04113140789616
 21
76.242976384364852
  0
LINE
  8
_0-1_作画層１
  6
CONTINUOUS
 62
    7
 10
256.54114475933659
 20
54.367976384364852
 11
281.79112377850163
 21
54.367976384364852
  0
LINE
  8
_0-1_作画層１
  6
CONTINUOUS
 62
    7
 10
281.79112377850163
 20
65.617976384364852
 11
281.79112377850163
 21
54.367976384364852
  0
CIRCLE
  8
_0-1_作画層１
  6
CONTINUOUS
 62
    7
 10
265.83693257061589
 20
59.367984013759383
 40
1.5
  0
CIRCLE
  8
_0-1_作画層１
  6
CONTINUOUS
 62
    7
 10
276.83694306103337
 20
59.367984013759383
 40
1.5
  0
CIRCLE
  8
_0-1_作画層１
  6
CONTINUOUS
 62
    7
 10
300.33694592205632
 20
59.367984013759383
 40
1.5
  0
CIRCLE
  8
_0-1_作画層１
  6
CONTINUOUS
 62
    7
 10
311.33695736614811
 20
59.367984013759383
 40
1.5
  0
LINE
  8
_0-1_作画層１
  6
CONTINUOUS
 62
    7
 10
319.54110279766667
 20
54.367976384364852
 11
294.29112377850163
 21
54.367976384364852
  0
LINE
  8
_0-1_作画層１
  6
CONTINUOUS
 62
    7
 10
294.29112377850163
 20
65.617976384364852
 11
294.29112377850163
 21
54.367976384364852
  0
INSERT
  2
-000-_D4
  8
_0-9_寸法線層１
 10
6.25
 20
4.75
 41
1
 42
1
 50
0
  0
CIRCLE
  8
_0-1_作画層１
  6
CONTINUOUS
 62
    7
 10
78.041123778501628
 20
221.86797638436485
 40
11.180339887498949
  0
LINE
  8
_0-1_作画層１
  6
CONTINUOUS
 62
    7
 10
89.541137129942058
 20
221.86797638436485
 11
95.511439711729167
 21
221.86797638436485
  0
LINE
  8
_0-1_作画層１
  6
CONTINUOUS
 62
    7
 10
95.416175276914714
 20
221.86797638436485
 11
95.540686995664714
 21
221.99248810311485
  0
LINE
  8
_0-1_作画層１
  6
CONTINUOUS
 62
    7
 10
95.274762541929363
 20
221.86797638436485
 11
95.539126784483074
 21
222.1323410739534
  0
LINE
  8
_0-1_作画層１
  6
CONTINUOUS
 62
    7
 10
87.940621764341472
 20
231.7674743702047
 11
88.647730261961101
 21
232.47458286782432
  0
LINE
  8
_0-1_作画層１
  6
CONTINUOUS
 62
    7
 10
68.141625792661785
 20
231.7674743702047
 11
70.209504992643474
 21
235.34919090768028
  0
LINE
  8
_0-1_作画層１
  6
CONTINUOUS
 62
    7
 10
70.215393931547283
 20
235.37329121133018
 11
70.848246009031413
 21
235.07062263985802
  0
LINE
  8
_0-1_作画層１
  6
CONTINUOUS
 62
    7
 10
87.370248229185222
 20
233.61394424935509
 11
88.578645140806316
 21
232.40552254220177
  0
LINE
  8
_0-1_作画層１
  6
CONTINUOUS
 62
    7
 10
86.791684538999675
 20
234.05104752083946
 11
88.50795212475407
 21
232.33480473061729
  0
LINE
  8
_0-1_作画層１
  6
CONTINUOUS
 62
    7
 10
86.334662825742839
 20
234.36665649911095
 11
88.437233359495281
 21
232.2640859653585
  0
LINE
  8
_0-1_作画層１
  6
CONTINUOUS
 62
    7
 10
85.940392405668376
 20
234.6194908191793
 11
88.366540343443035
 21
232.19339294930626
  0
LINE
  8
_0-1_作画層１
  6
CONTINUOUS
 62
    7
 10
85.586330802122234
 20
234.83214016457725
 11
88.295821578184245
 21
232.12267418404747
  0
LINE
  8
_0-1_作画層１
  6
CONTINUOUS
 62
    7
 10
85.260898024717449
 20
235.016161160671
 11
88.225103766599773
 21
232.051956372463
  0
LINE
  8
_0-1_作画層１
  6
CONTINUOUS
 62
    7
 10
84.957264811674236
 20
235.17840786477257
 11
88.154385001340984
 21
231.98123760720421
  0
LINE
  8
_0-1_作画層１
  6
CONTINUOUS
 62
    7
 10
84.670927436033367
 20
235.32330818673302
 11
88.083667189756511
 21
231.91051979561973
  0
LINE
  8
_0-1_作画層１
  6
CONTINUOUS
 62
    7
 10
84.398793131986736
 20
235.45400639077354
 11
88.012973220029949
 21
231.83982582589317
  0
LINE
  8
_0-1_作画層１
  6
CONTINUOUS
 62
    7
 10
84.138634593168376
 20
235.57272739907432
 11
87.942255408445476
 21
231.7691080143087
  0
LINE
  8
_0-1_作画層１
  6
CONTINUOUS
 62
    7
 10
83.888770014921306
 20
235.68120499154259
 11
86.704189688840984
 21
232.86573620339561
  0
LINE
  8
_0-1_作画層１
  6
CONTINUOUS
 62
    7
 10
83.647763640562175
 20
235.78075047036339
 11
86.14314499584782
 21
233.28539391060997
  0
LINE
  8
_0-1_作画層１
  6
CONTINUOUS
 62
    7
 10
83.414675624052165
 20
235.87242718239952
 11
85.699559600034831
 21
233.5875427295797
  0
LINE
  8
_0-1_作画層１
  6
CONTINUOUS
 62
    7
 10
83.188564688840984
 20
235.95710106393028
 11
85.316671282926677
 21
233.82901974221397
  0
LINE
  8
_0-1_作画層１
  6
CONTINUOUS
 62
    7
 10
82.968789012113689
 20
236.03548927804161
 11
84.972655684629558
 21
234.03159828683067
  0
LINE
  8
_0-1_作画層１
  6
CONTINUOUS
 62
    7
 10
82.75470391003239
 20
236.1081382801168
 11
84.656377703825115
 21
234.20646400948692
  0
LINE
  8
_0-1_作画層１
  6
CONTINUOUS
 62
    7
 10
82.545840174833415
 20
236.17558975716759
 11
84.361157328764079
 21
234.36027260323692
  0
LINE
  8
_0-1_作画層１
  6
CONTINUOUS
 62
    7
 10
82.341751486936687
 20
236.23824234505821
 11
84.082738310972331
 21
234.49725552102257
  0
LINE
  8
_0-1_作画層１
  6
CONTINUOUS
 62
    7
 10
82.142092616239665
 20
236.29648895760704
 11
83.818076522031902
 21
234.62050552865196
  0
LINE
  8
_0-1_作画層１
  6
CONTINUOUS
 62
    7
 10
81.946515948454021
 20
236.35065384408165
 11
83.56501999584782
 21
234.73212547799278
  0
LINE
  8
_0-1_作画層１
  6
CONTINUOUS
 62
    7
 10
81.754725367704509
 20
236.4010078479879
 11
83.321910292783855
 21
234.83382339974571
  0
LINE
  8
_0-1_作画層１
  6
CONTINUOUS
 62
    7
 10
81.56649795261967
 20
236.44782372018028
 11
83.087436110654949
 21
234.92686005135704
  0
LINE
  8
_0-1_作画層１
  6
CONTINUOUS
 62
    7
 10
81.381610781828044
 20
236.49127407571007
 11
82.860608012357829
 21
235.01227684518028
  0
LINE
  8
_0-1_作画層１
  6
CONTINUOUS
 62
    7
 10
81.199841649213909
 20
236.53163166543175
 11
82.640584857145427
 21
235.09086342354942
  0
LINE
  8
_0-1_作画層１
  6
CONTINUOUS
 62
    7
 10
81.021041543165325
 20
236.56899471779991
 11
82.426697642484783
 21
235.16333885689903
  0
LINE
  8
_0-1_作画層１
  6
CONTINUOUS
 62
    7
 10
80.845037610212444
 20
236.6035863926046
 11
82.218353182951091
 21
235.23027153512169
  0
LINE
  8
_0-1_作画層１
  6
CONTINUOUS
 62
    7
 10
80.671681315580486
 20
236.63553162118126
 11
82.015081555524944
 21
235.29213066598106
  0
LINE
  8
_0-1_作画層１
  6
CONTINUOUS
 62
    7
 10
80.500848920026897
 20
236.66492672463585
 11
81.81643691746342
 21
235.34933872719932
  0
LINE
  8
_0-1_作画層１
  6
CONTINUOUS
 62
    7
 10
80.332416445890544
 20
236.69194717904259
 11
81.622097642103313
 21
235.40224190255333
  0
LINE
  8
_0-1_作画層１
  6
CONTINUOUS
 62
    7
 10
80.166260630766033
 20
236.71666641732384
 11
81.431742102781413
 21
235.45118542214561
  0
LINE
  8
_0-1_作画層１
  6
CONTINUOUS
 62
    7
 10
80.002282292524455
 20
236.73920841714073
 11
81.245073468366741
 21
235.49641724129845
  0
LINE
  8
_0-1_作画層１
  6
CONTINUOUS
 62
    7
 10
79.840407163778423
 20
236.75967140694786
 11
81.06189385143864
 21
235.53821011086632
  0
LINE
  8
_0-1_作画層１
  6
CONTINUOUS
 62
    7
 10
79.680561096349834
 20
236.77810593148399
 11
80.881930977979778
 21
235.5767366459005
  0
LINE
  8
_0-1_作画層１
  6
CONTINUOUS
 62
    7
 10
79.522595436254619
 20
236.79463501473595
 11
80.705060870329021
 21
235.61219425698448
  0
LINE
  8
_0-1_作画層１
  6
CONTINUOUS
 62
    7
 10
79.366510421911357
 20
236.80930824776817
 11
80.53103652683842
 21
235.6447822620504
  0
LINE
  8
_0-1_作画層１
  6
CONTINUOUS
 62
    7
 10
79.212206990400432
 20
236.82220001717735
 11
80.359758526960491
 21
235.67462368508507
  0
LINE
  8
_0-1_作画層１
  6
CONTINUOUS
 62
    7
 10
79.05963555065739
 20
236.83335896035362
 11
80.19107881275761
 21
235.70191593667198
  0
LINE
  8
_0-1_作画層１
  6
CONTINUOUS
 62
    7
 10
78.908697278181194
 20
236.84288616677452
 11
80.024824053922771
 21
235.72673435708214
  0
LINE
  8
_0-1_作画層１
  6
CONTINUOUS
 62
    7
 10
78.759367317834972
 20
236.85075397988487
 11
79.860944659391521
 21
235.74920197030235
  0
LINE
  8
_0-1_作画層１
  6
CONTINUOUS
 62
    7
 10
78.611571521440624
 20
236.85711403390098
 11
79.699267537275432
 21
235.76944275399376
  0
LINE
  8
_0-1_作画層１
  6
CONTINUOUS
 62
    7
 10
78.465309859195827
 20
236.86198826333214
 11
79.539767772832988
 21
235.78753014107872
  0
LINE
  8
_0-1_作画層１
  6
CONTINUOUS
 62
    7
 10
78.32048332778561
 20
236.86537857552696
 11
79.382297069707988
 21
235.80358906289268
  0
LINE
  8
_0-1_作画層１
  6
CONTINUOUS
 62
    7
 10
78.177091957012294
 20
236.8673574497335
 11
79.226756364980815
 21
235.81769295235802
  0
LINE
  8
_0-1_作画層１
  6
CONTINUOUS
 62
    7
 10
78.035036758927731
 20
236.86797638436485
 11
79.073145777860759
 21
235.82989235421348
  0
LINE
  8
_0-1_作画層１
  6
CONTINUOUS
 62
    7
 10
77.89434248296368
 20
236.8672582676046
 11
78.921316713968395
 21
235.84028454323936
  0
LINE
  8
_0-1_作画層１
  6
CONTINUOUS
 62
    7
 10
77.754934878030895
 20
236.86525459786583
 11
78.771269173303722
 21
235.84892006417442
  0
LINE
  8
_0-1_作画層１
  6
CONTINUOUS
 62
    7
 10
77.616789222637294
 20
236.86196346779991
 11
78.622879535833476
 21
235.85589809914757
  0
LINE
  8
_0-1_作画層１
  6
CONTINUOUS
 62
    7
 10
77.479856044927715
 20
236.85748501321007
 11
78.47612297622311
 21
235.86121769448448
  0
LINE
  8
_0-1_作画層１
  6
CONTINUOUS
 62
    7
 10
77.344160051027416
 20
236.85176868935753
 11
78.33095005241978
 21
235.86497898598839
  0
LINE
  8
_0-1_作画層１
  6
CONTINUOUS
 62
    7
 10
77.209602267423747
 20
236.84491463204552
 11
78.187286482134937
 21
235.86723061104942
  0
LINE
  8
_0-1_作画層１
  6
CONTINUOUS
 62
    7
 10
77.07618269411671
 20
236.8368980457418
 11
78.045107559708981
 21
235.86797256966759
  0
LINE
  8
_0-1_作画層１
  6
CONTINUOUS
 62
    7
 10
76.943876654783367
 20
236.82779236336876
 11
77.904339046159862
 21
235.8673049976461
  0
LINE
  8
_0-1_作画層１
  6
CONTINUOUS
 62
    7
 10
76.812659294286846
 20
236.81759758492638
 11
77.764980942884563
 21
235.86525078316856
  0
LINE
  8
_0-1_作画層１
  6
CONTINUOUS
 62
    7
 10
76.682505995908855
 20
236.80631466408897
 11
77.626958996931194
 21
235.86186142464805
  0
LINE
  8
_0-1_作画層１
  6
CONTINUOUS
 62
    7
 10
76.553391844907878
 20
236.7940160801046
 11
77.490273267904399
 21
235.85713501473595
  0
LINE
  8
_0-1_作画層１
  6
CONTINUOUS
 62
    7
 10
76.425292284170268
 20
236.78067989846397
 11
77.354824692884563
 21
235.85114689370323
  0
LINE
  8
_0-1_作画層１
  6
CONTINUOUS
 62
    7
 10
76.298182398954509
 20
236.76637764474083
 11
77.220662803331493
 21
235.84392185708214
  0
LINE
  8
_0-1_作画層１
  6
CONTINUOUS
 62
    7
 10
76.17206230846989
 20
236.75108547707725
 11
77.08766391960728
 21
235.83548374673057
  0
LINE
  8
_0-1_作画層１
  6
CONTINUOUS
 62
    7
 10
76.046907336393474
 20
236.73482914467979
 11
76.955852777639507
 21
235.82585831185509
  0
LINE
  8
_0-1_作画層１
  6
CONTINUOUS
 62
    7
 10
75.922667653242229
 20
236.71763153573204
 11
76.825229198614238
 21
235.8150703479879
  0
LINE
  8
_0-1_作画層１
  6
CONTINUOUS
 62
    7
 10
75.799368531385539
 20
236.69951935311485
 11
76.695694477239726
 21
235.80316849251915
  0
LINE
  8
_0-1_作画層１
  6
CONTINUOUS
 62
    7
 10
75.676959902921794
 20
236.6804906894796
 11
76.567273289838909
 21
235.79017754098106
  0
LINE
  8
_0-1_作画層１
  6
CONTINUOUS
 62
    7
 10
75.555442244688152
 20
236.66059704323936
 11
76.439940721670268
 21
235.77612324258018
  0
LINE
  8
_0-1_作画層１
  6
CONTINUOUS
 62
    7
 10
75.434790761152385
 20
236.63981171151329
 11
76.313622624555705
 21
235.76097984810997
  0
LINE
  8
_0-1_作画層１
  6
CONTINUOUS
 62
    7
 10
75.315029771009563
 20
236.61816139718223
 11
76.188343913236736
 21
235.74484653969932
  0
LINE
  8
_0-1_作画層１
  6
CONTINUOUS
 62
    7
 10
75.196085364500163
 20
236.59569378396202
 11
76.064079553762554
 21
235.72767467995811
  0
LINE
  8
_0-1_作画層１
  6
CONTINUOUS
 62
    7
 10
75.077982337156413
 20
236.57238502999473
 11
75.940805108228801
 21
235.7095377018087
  0
LINE
  8
_0-1_作画層１
  6
CONTINUOUS
 62
    7
 10
74.960671336332439
 20
236.54825897713829
 11
75.81852021900761
 21
235.69040985604454
  0
LINE
  8
_0-1_作画層１
  6
CONTINUOUS
 62
    7
 10
74.844176442304729
 20
236.52334232827354
 11
75.697151095548747
 21
235.67036743661095
  0
LINE
  8
_0-1_作画層１
  6
CONTINUOUS
 62
    7
 10
74.728473574796794
 20
236.49760838051964
 11
75.576722056547283
 21
235.64935989876915
  0
LINE
  8
_0-1_作画層１
  6
CONTINUOUS
 62
    7
 10
74.613562733808635
 20
236.47113247414757
 11
75.457208783308147
 21
235.62746162911583
  0
LINE
  8
_0-1_作画層１
  6
CONTINUOUS
 62
    7
 10
74.49939385143864
 20
236.44386406441856
 11
75.338586003461955
 21
235.60464783211876
  0
LINE
  8
_0-1_作画層１
  6
CONTINUOUS
 62
    7
 10
74.385992200056194
 20
236.41582985421348
 11
75.220854193845867
 21
235.58096714516807
  0
LINE
  8
_0-1_作画層１
  6
CONTINUOUS
 62
    7
 10
74.273357541242717
 20
236.38705177804161
 11
75.104013116041301
 21
235.55642147561241
  0
LINE
  8
_0-1_作画層１
  6
CONTINUOUS
 62
    7
 10
74.161415965238689
 20
236.35755749245811
 11
74.987988621870159
 21
235.53100986977745
  0
LINE
  8
_0-1_作画層１
  6
CONTINUOUS
 62
    7
 10
74.050241143385051
 20
236.32732029458214
 11
74.872805268446086
 21
235.5047561695211
  0
LINE
  8
_0-1_作画層１
  6
CONTINUOUS
 62
    7
 10
73.939759165922283
 20
236.29639072915245
 11
74.758463294187663
 21
235.47768612404991
  0
LINE
  8
_0-1_作画層１
  6
CONTINUOUS
 62
    7
 10
73.829995066801189
 20
236.26471825143028
 11
74.644937903562663
 21
235.44979973336388
  0
LINE
  8
_0-1_作画層１
  6
CONTINUOUS
 62
    7
 10
73.720923335233806
 20
236.23237724801231
 11
74.532179743925212
 21
235.421096997463
  0
LINE
  8
_0-1_作画層１
  6
CONTINUOUS
 62
    7
 10
73.612544924894451
 20
236.19934483071495
 11
74.420262725034831
 21
235.39162655373741
  0
LINE
  8
_0-1_作画層１
  6
CONTINUOUS
 62
    7
 10
73.504858882108806
 20
236.16561813851524
 11
74.309087903181194
 21
235.36136456032921
  0
LINE
  8
_0-1_作画層１
  6
CONTINUOUS
 62
    7
 10
73.397816569486736
 20
236.13119907876182
 11
74.198680312315105
 21
235.33036060830284
  0
LINE
  8
_0-1_作画層１
  6
CONTINUOUS
 62
    7
 10
73.291467101255535
 20
236.09616203805138
 11
74.089039714017986
 21
235.29858894845177
  0
LINE
  8
_0-1_作画層１
  6
CONTINUOUS
 62
    7
 10
73.185785205045818
 20
236.0604316761129
 11
73.980141551176189
 21
235.2660505344503
  0
LINE
  8
_0-1_作画層１
  6
CONTINUOUS
 62
    7
 10
73.080747038999675
 20
236.02405758401085
 11
73.872010142484783
 21
235.2327949573629
  0
LINE
  8
_0-1_作画層１
  6
CONTINUOUS
 62
    7
 10
72.97632780758488
 20
235.98704071541954
 11
73.764572055021404
 21
235.19879646798302
  0
LINE
  8
_0-1_作画層１
  6
CONTINUOUS
 62
    7
 10
72.872551352659343
 20
235.94938107033897
 11
73.657851130643962
 21
235.16410561104942
  0
LINE
  8
_0-1_作画層１
  6
CONTINUOUS
 62
    7
 10
72.76941862789738
 20
235.91110153695274
 11
73.551847846189617
 21
235.12867184182335
  0
LINE
  8
_0-1_作画層１
  6
CONTINUOUS
 62
    7
 10
72.666928679624675
 20
235.87217922707725
 11
73.44653740612614
 21
235.09257050057579
  0
LINE
  8
_0-1_作画層１
  6
CONTINUOUS
 62
    7
 10
72.565032870451091
 20
235.83266373177696
 11
73.341919810453533
 21
235.05575199624229
  0
LINE
  8
_0-1_作画層１
  6
CONTINUOUS
 62
    7
 10
72.463731200376628
 20
235.79250355263878
 11
73.237995059171794
 21
235.018264966213
  0
LINE
  8
_0-1_作画層１
  6
CONTINUOUS
 62
    7
 10
72.363072783628581
 20
235.75177498360802
 11
73.134738356748699
 21
234.98008461495567
  0
LINE
  8
_0-1_作画層１
  6
CONTINUOUS
 62
    7
 10
72.263008029142497
 20
235.71042843362022
 11
73.03217497555363
 21
234.94126148720909
  0
LINE
  8
_0-1_作画層１
  6
CONTINUOUS
 62
    7
 10
72.163512618223308
 20
235.66848679085899
 11
72.93025437084782
 21
234.90174503823448
  0
LINE
  8
_0-1_作画層１
  6
CONTINUOUS
 62
    7
 10
72.064635665098308
 20
235.62592716714073
 11
72.829001815000652
 21
234.86158581277061
  0
LINE
  8
_0-1_作画層１
  6
CONTINUOUS
 62
    7
 10
71.966327578703044
 20
235.5828229953878
 11
72.728392989317058
 21
234.82075806161095
  0
LINE
  8
_0-1_作画層１
  6
CONTINUOUS
 62
    7
 10
71.868613631406902
 20
235.53912563821007
 11
72.62842741695988
 21
234.77931232949425
  0
LINE
  8
_0-1_作画層１
  6
CONTINUOUS
 62
    7
 10
71.771469027677654
 20
235.49483414193321
 11
72.52910462109196
 21
234.73722286721397
  0
LINE
  8
_0-1_作画層１
  6
CONTINUOUS
 62
    7
 10
71.674893290678142
 20
235.44999809762169
 11
72.43037644116032
 21
234.69448967477013
  0
LINE
  8
_0-1_作画層１
  6
CONTINUOUS
 62
    7
 10
71.578886420408367
 20
235.40456791421104
 11
72.332315833250163
 21
234.65116329690147
  0
LINE
  8
_0-1_作画層１
  6
CONTINUOUS
 62
    7
 10
71.483448893705486
 20
235.35859318276573
 11
72.234849364439128
 21
234.60719318886925
  0
LINE
  8
_0-1_作画層１
  6
CONTINUOUS
 62
    7
 10
71.388555915037273
 20
235.31207485696007
 11
72.138050944486736
 21
234.56260414620567
  0
LINE
  8
_0-1_作画層１
  6
CONTINUOUS
 62
    7
 10
71.294231803098796
 20
235.26496239205528
 11
72.041797072569011
 21
234.51742191811729
  0
LINE
  8
_0-1_作画層１
  6
CONTINUOUS
 62
    7
 10
71.200451762357829
 20
235.21733017464805
 11
71.946185977140544
 21
234.47162075539757
  0
LINE
  8
_0-1_作画層１
  6
CONTINUOUS
 62
    7
 10
71.107216746488689
 20
235.16915340920616
 11
71.851169020811199
 21
234.42522545357872
  0
LINE
  8
_0-1_作画層１
  6
CONTINUOUS
 62
    7
 10
71.014525801817058
 20
235.12040825387169
 11
71.756721408048747
 21
234.37823696633507
  0
LINE
  8
_0-1_作画層１
  6
CONTINUOUS
 62
    7
 10
70.922378928342937
 20
235.07114239236046
 11
71.662892253080486
 21
234.33062954446007
  0
LINE
  8
_0-1_作画層１
  6
CONTINUOUS
 62
    7
 10
70.720270068327068
 20
235.13183994790245
 11
71.56963196484196
 21
234.2824775745504
  0
LINE
  8
_0-1_作画層１
  6
CONTINUOUS
 62
    7
 10
70.449224860349773
 20
235.26147289773155
 11
71.476965815702556
 21
234.23373146554161
  0
LINE
  8
_0-1_作画層１
  6
CONTINUOUS
 62
    7
 10
70.16162529675114
 20
235.26622410317589
 11
71.293341071287273
 21
234.13450832863975
  0
LINE
  8
_0-1_作画層１
  6
CONTINUOUS
 62
    7
 10
70.109860808530925
 20
235.17657681008507
 11
71.202381999174236
 21
234.08403130074669
  0
LINE
  8
_0-1_作画層１
  6
CONTINUOUS
 62
    7
 10
70.058096797147869
 20
235.08690472146202
 11
71.11201706616032
 21
234.03298397561241
  0
LINE
  8
_0-1_作画層１
  6
CONTINUOUS
 62
    7
 10
70.006331832090495
 20
234.99723263283897
 11
71.022196204343913
 21
233.98139305611778
  0
LINE
  8
_0-1_作画層１
  6
CONTINUOUS
 62
    7
 10
69.954567343870281
 20
234.90760918160606
 11
70.932944686094402
 21
233.92923279305626
  0
LINE
  8
_0-1_作画層１
  6
CONTINUOUS
 62
    7
 10
69.902803809324382
 20
234.81793709298302
 11
70.844237715879558
 21
233.87650318642784
  0
LINE
  8
_0-1_作画層１
  6
CONTINUOUS
 62
    7
 10
69.851039321104167
 20
234.72826500435997
 11
70.756099612394451
 21
233.82322903176475
  0
LINE
  8
_0-1_作画層１
  6
CONTINUOUS
 62
    7
 10
69.799274832883953
 20
234.63864250680138
 11
70.668481261411785
 21
233.76941128274132
  0
LINE
  8
_0-1_作画層１
  6
CONTINUOUS
 62
    7
 10
69.747510344663738
 20
234.54897041817833
 11
70.581431777158855
 21
233.71504898568321
  0
LINE
  8
_0-1_作画層１
  6
CONTINUOUS
 62
    7
 10
69.695770651975749
 20
234.45929832955528
 11
70.494926840940593
 21
233.66011734505821
  0
LINE
  8
_0-1_作画層１
  6
CONTINUOUS
 62
    7
 10
69.643981368223308
 20
234.36965103646446
 11
70.408966452756999
 21
233.604690747463
  0
LINE
  8
_0-1_作画層１
  6
CONTINUOUS
 62
    7
 10
69.592216880003093
 20
234.28000278969932
 11
70.323525340238689
 21
233.54867001076866
  0
LINE
  8
_0-1_作画層１
  6
CONTINUOUS
 62
    7
 10
69.540477187315105
 20
234.19033070107628
 11
70.238653571287273
 21
233.49215431710411
  0
LINE
  8
_0-1_作画層１
  6
CONTINUOUS
 62
    7
 10
69.48871269909489
 20
234.10068340798546
 11
70.15430107800114
 21
233.43509502907921
  0
LINE
  8
_0-1_作画層１
  6
CONTINUOUS
 62
    7
 10
69.436948210874675
 20
234.01103611489464
 11
70.070468337217449
 21
233.37749119301964
  0
LINE
  8
_0-1_作画層１
  6
CONTINUOUS
 62
    7
 10
69.38518372265446
 20
233.92136402627159
 11
69.987180144468425
 21
233.3193428089254
  0
LINE
  8
_0-1_作画層１
  6
CONTINUOUS
 62
    7
 10
69.333419234434245
 20
233.83171673318077
 11
69.904411704221843
 21
233.26069946786095
  0
LINE
  8
_0-1_作画層１
  6
CONTINUOUS
 62
    7
 10
69.281654746214031
 20
233.74206944008995
 11
69.822187812009929
 21
233.20151157876182
  0
LINE
  8
_0-1_作画層１
  6
CONTINUOUS
 62
    7
 10
69.229891211668132
 20
233.65239639779259
 11
69.740457923093913
 21
233.14180489083458
  0
LINE
  8
_0-1_作画層１
  6
CONTINUOUS
 62
    7
 10
69.178126723447917
 20
233.56272430916954
 11
69.659297377744792
 21
233.08157749673057
  0
LINE
  8
_0-1_作画層１
  6
CONTINUOUS
 62
    7
 10
69.126362235227703
 20
233.47307701607872
 11
69.578607947507976
 21
233.02083130379845
  0
LINE
  8
_0-1_作画層１
  6
CONTINUOUS
 62
    7
 10
69.074597747007488
 20
233.3834297229879
 11
69.498462111631511
 21
232.95954056283165
  0
LINE
  8
_0-1_作画層１
  6
CONTINUOUS
 62
    7
 10
69.022833258787273
 20
233.29375763436485
 11
69.418836028257488
 21
232.89775486489464
  0
LINE
  8
_0-1_作画層１
  6
CONTINUOUS
 62
    7
 10
68.971068770567058
 20
233.20411034127403
 11
69.339704901853679
 21
232.83544941445518
  0
LINE
  8
_0-1_作画層１
  6
CONTINUOUS
 62
    7
 10
68.919304282346843
 20
233.11446304818321
 11
69.261117369810222
 21
232.77262421151329
  0
LINE
  8
_0-1_作画層１
  6
CONTINUOUS
 62
    7
 10
68.867539794126628
 20
233.02479000588585
 11
69.183025748411296
 21
232.7093050052755
  0
LINE
  8
_0-1_作画層１
  6
CONTINUOUS
 62
    7
 10
68.815775305906413
 20
232.93514271279503
 11
69.105452925840495
 21
232.64544029732872
  0
LINE
  8
_0-1_作画層１
  6
CONTINUOUS
 62
    7
 10
68.764010817686199
 20
232.84549541970421
 11
69.028400809446453
 21
232.58108158608604
  0
LINE
  8
_0-1_作画層１
  6
CONTINUOUS
 62
    7
 10
68.712246329465984
 20
232.75582333108116
 11
68.951842696348308
 21
232.51622696419884
  0
LINE
  8
_0-1_作画層１
  6
CONTINUOUS
 62
    7
 10
68.660481841245769
 20
232.66615124245811
 11
68.875804335752605
 21
232.45082874795128
  0
LINE
  8
_0-1_作画層１
  6
CONTINUOUS
 62
    7
 10
68.608717353025554
 20
232.57650394936729
 11
68.800285727659343
 21
232.38496037026573
  0
LINE
  8
_0-1_作画層１
  6
CONTINUOUS
 62
    7
 10
68.556953818479656
 20
232.48685665627647
 11
68.725262076536296
 21
232.31854744454552
  0
LINE
  8
_0-1_作画層１
  6
CONTINUOUS
 62
    7
 10
68.505189330259441
 20
232.39718456765343
 11
68.650733382383464
 21
232.25163956185509
  0
LINE
  8
_0-1_作画層１
  6
CONTINUOUS
 62
    7
 10
68.453424842039226
 20
232.30753632088829
 11
68.576723487058757
 21
232.18423767586876
  0
LINE
  8
_0-1_作画層１
  6
CONTINUOUS
 62
    7
 10
68.401660353819011
 20
232.21786423226524
 11
68.503209502378581
 21
232.11631508370567
  0
LINE
  8
_0-1_作画層１
  6
CONTINUOUS
 62
    7
 10
68.349895865598796
 20
232.12821693917442
 11
68.430214316526531
 21
232.04789848824669
  0
LINE
  8
_0-1_作画層１
  6
CONTINUOUS
 62
    7
 10
68.298131377378581
 20
232.03854485055138
 11
68.357739836851238
 21
231.97896118661095
  0
LINE
  8
_0-1_作画層１
  6
CONTINUOUS
 62
    7
 10
68.246366889158367
 20
231.94889755746055
 11
68.285759360471843
 21
231.9095298816793
  0
LINE
  8
_0-1_作画層１
  6
CONTINUOUS
 62
    7
 10
68.194602400938152
 20
231.85925026436973
 11
68.214273841062663
 21
231.83957882424522
  0
LINE
  8
_0-1_作画層１
  6
CONTINUOUS
 62
    7
 10
68.142837912717937
 20
231.76957817574669
 11
68.143283278623699
 21
231.76913280984093
  0
ARC
  8
_0-1_作画層１
  6
CONTINUOUS
 62
    7
 10
78.041123778501628
 20
221.86797638436485
 40
13.999999999999993
 50
45
 51
135
  0
ARC
  8
_0-1_作画層１
  6
CONTINUOUS
 62
    7
 10
78.041123778501628
 20
221.86797638436488
 40
14.999998092651339
 50
44.999999999999915
 51
118.5817565917969
  0
ARC
  8
_0-1_作画層１
  6
CONTINUOUS
 62
    7
 10
78.041123778501628
 20
221.86797638436482
 40
14.000000000000014
 50
45.00000000000005
 51
135.63267517089827
  0
LINE
  8
_0-1_作画層１
  6
CONTINUOUS
 62
    7
 10
87.940621764341472
 20
209.46847839852501
 11
88.647730261961101
 21
208.76136990090538
  0
LINE
  8
_0-1_作画層１
  6
CONTINUOUS
 62
    7
 10
68.141625792661785
 20
209.46847839852501
 11
70.209504992643474
 21
205.88676186104942
  0
LINE
  8
_0-1_作画層１
  6
CONTINUOUS
 62
    7
 10
70.215393931547283
 20
205.86266155739952
 11
70.848246009031413
 21
206.16533012887169
  0
LINE
  8
_0-1_作画層１
  6
CONTINUOUS
 62
    7
 10
87.370248229185222
 20
207.62200851937462
 11
88.578645140806316
 21
208.83043022652794
  0
LINE
  8
_0-1_作画層１
  6
CONTINUOUS
 62
    7
 10
86.791684538999675
 20
207.18490524789024
 11
88.50795212475407
 21
208.90114803811241
  0
LINE
  8
_0-1_作画層１
  6
CONTINUOUS
 62
    7
 10
86.334662825742839
 20
206.86929626961876
 11
88.437233359495281
 21
208.9718668033712
  0
LINE
  8
_0-1_作画層１
  6
CONTINUOUS
 62
    7
 10
85.940392405668376
 20
206.6164619495504
 11
88.366540343443035
 21
209.04255981942345
  0
LINE
  8
_0-1_作画層１
  6
CONTINUOUS
 62
    7
 10
85.586330802122234
 20
206.40381260415245
 11
88.295821578184245
 21
209.11327858468223
  0
LINE
  8
_0-1_作画層１
  6
CONTINUOUS
 62
    7
 10
85.260898024717449
 20
206.2197916080587
 11
88.225103766599773
 21
209.18399639626671
  0
LINE
  8
_0-1_作画層１
  6
CONTINUOUS
 62
    7
 10
84.957264811674236
 20
206.05754490395714
 11
88.154385001340984
 21
209.2547151615255
  0
LINE
  8
_0-1_作画層１
  6
CONTINUOUS
 62
    7
 10
84.670927436033367
 20
205.91264458199669
 11
88.083667189756511
 21
209.32543297310997
  0
LINE
  8
_0-1_作画層１
  6
CONTINUOUS
 62
    7
 10
84.398793131986736
 20
205.78194637795616
 11
88.012973220029949
 21
209.39612694283653
  0
LINE
  8
_0-1_作画層１
  6
CONTINUOUS
 62
    7
 10
84.138634593168376
 20
205.66322536965538
 11
87.942255408445476
 21
209.466844754421
  0
LINE
  8
_0-1_作画層１
  6
CONTINUOUS
 62
    7
 10
83.888770014921306
 20
205.55474777718712
 11
86.704189688840984
 21
208.37021656533409
  0
LINE
  8
_0-1_作画層１
  6
CONTINUOUS
 62
    7
 10
83.647763640562175
 20
205.45520229836632
 11
86.14314499584782
 21
207.95055885811973
  0
LINE
  8
_0-1_作画層１
  6
CONTINUOUS
 62
    7
 10
83.414675624052165
 20
205.36352558633018
 11
85.699559600034831
 21
207.64841003915001
  0
LINE
  8
_0-1_作画層１
  6
CONTINUOUS
 62
    7
 10
83.188564688840984
 20
205.27885170479942
 11
85.316671282926677
 21
207.40693302651573
  0
LINE
  8
_0-1_作画層１
  6
CONTINUOUS
 62
    7
 10
82.968789012113689
 20
205.20046349068809
 11
84.972655684629558
 21
207.20435448189903
  0
LINE
  8
_0-1_作画層１
  6
CONTINUOUS
 62
    7
 10
82.75470391003239
 20
205.1278144886129
 11
84.656377703825115
 21
207.02948875924278
  0
LINE
  8
_0-1_作画層１
  6
CONTINUOUS
 62
    7
 10
82.545840174833415
 20
205.06036301156212
 11
84.361157328764079
 21
206.87568016549278
  0
LINE
  8
_0-1_作画層１
  6
CONTINUOUS
 62
    7
 10
82.341751486936687
 20
204.99771042367149
 11
84.082738310972331
 21
206.73869724770714
  0
LINE
  8
_0-1_作画層１
  6
CONTINUOUS
 62
    7
 10
82.142092616239665
 20
204.93946381112266
 11
83.818076522031902
 21
206.61544724007774
  0
LINE
  8
_0-1_作画層１
  6
CONTINUOUS
 62
    7
 10
81.946515948454021
 20
204.88529892464805
 11
83.56501999584782
 21
206.50382729073692
  0
LINE
  8
_0-1_作画層１
  6
CONTINUOUS
 62
    7
 10
81.754725367704509
 20
204.8349449207418
 11
83.321910292783855
 21
206.40212936898399
  0
LINE
  8
_0-1_作画層１
  6
CONTINUOUS
 62
    7
 10
81.56649795261967
 20
204.78812904854942
 11
83.087436110654949
 21
206.30909271737266
  0
LINE
  8
_0-1_作画層１
  6
CONTINUOUS
 62
    7
 10
81.381610781828044
 20
204.74467869301964
 11
82.860608012357829
 21
206.22367592354942
  0
LINE
  8
_0-1_作画層１
  6
CONTINUOUS
 62
    7
 10
81.199841649213909
 20
204.70432110329796
 11
82.640584857145427
 21
206.14508934518028
  0
LINE
  8
_0-1_作画層１
  6
CONTINUOUS
 62
    7
 10
81.021041543165325
 20
204.66695805092979
 11
82.426697642484783
 21
206.07261391183067
  0
LINE
  8
_0-1_作画層１
  6
CONTINUOUS
 62
    7
 10
80.845037610212444
 20
204.63236637612511
 11
82.218353182951091
 21
206.00568123360802
  0
LINE
  8
_0-1_作画層１
  6
CONTINUOUS
 62
    7
 10
80.671681315580486
 20
204.60042114754845
 11
82.015081555524944
 21
205.94382210274864
  0
LINE
  8
_0-1_作画層１
  6
CONTINUOUS
 62
    7
 10
80.500848920026897
 20
204.57102604409386
 11
81.81643691746342
 21
205.88661404153038
  0
LINE
  8
_0-1_作画層１
  6
CONTINUOUS
 62
    7
 10
80.332416445890544
 20
204.54400558968712
 11
81.622097642103313
 21
205.83371086617638
  0
LINE
  8
_0-1_作画層１
  6
CONTINUOUS
 62
    7
 10
80.166260630766033
 20
204.51928635140587
 11
81.431742102781413
 21
205.78476734658409
  0
LINE
  8
_0-1_作画層１
  6
CONTINUOUS
 62
    7
 10
80.002282292524455
 20
204.49674435158897
 11
81.245073468366741
 21
205.73953552743126
  0
LINE
  8
_0-1_作画層１
  6
CONTINUOUS
 62
    7
 10
79.840407163778423
 20
204.47628136178184
 11
81.06189385143864
 21
205.69774265786339
  0
LINE
  8
_0-1_作画層１
  6
CONTINUOUS
 62
    7
 10
79.680561096349834
 20
204.45784683724571
 11
80.881930977979778
 21
205.65921612282921
  0
LINE
  8
_0-1_作画層１
  6
CONTINUOUS
 62
    7
 10
79.522595436254619
 20
204.44131775399376
 11
80.705060870329021
 21
205.62375851174522
  0
LINE
  8
_0-1_作画層１
  6
CONTINUOUS
 62
    7
 10
79.366510421911357
 20
204.42664452096153
 11
80.53103652683842
 21
205.5911705066793
  0
LINE
  8
_0-1_作画層１
  6
CONTINUOUS
 62
    7
 10
79.212206990400432
 20
204.41375275155235
 11
80.359758526960491
 21
205.56132908364464
  0
LINE
  8
_0-1_作画層１
  6
CONTINUOUS
 62
    7
 10
79.05963555065739
 20
204.40259380837608
 11
80.19107881275761
 21
205.53403683205772
  0
LINE
  8
_0-1_作画層１
  6
CONTINUOUS
 62
    7
 10
78.908697278181194
 20
204.39306660195518
 11
80.024824053922771
 21
205.50921841164757
  0
LINE
  8
_0-1_作画層１
  6
CONTINUOUS
 62
    7
 10
78.759367317834972
 20
204.38519878884483
 11
79.860944659391521
 21
205.48675079842735
  0
LINE
  8
_0-1_作画層１
  6
CONTINUOUS
 62
    7
 10
78.611571521440624
 20
204.37883873482872
 11
79.699267537275432
 21
205.46651001473595
  0
LINE
  8
_0-1_作画層１
  6
CONTINUOUS
 62
    7
 10
78.465309859195827
 20
204.37396450539757
 11
79.539767772832988
 21
205.44842262765098
  0
LINE
  8
_0-1_作画層１
  6
CONTINUOUS
 62
    7
 10
78.32048332778561
 20
204.37057419320274
 11
79.382297069707988
 21
205.43236370583702
  0
LINE
  8
_0-1_作画層１
  6
CONTINUOUS
 62
    7
 10
78.177091957012294
 20
204.3685953189962
 11
79.226756364980815
 21
205.41825981637169
  0
LINE
  8
_0-1_作画層１
  6
CONTINUOUS
 62
    7
 10
78.035036758927731
 20
204.36797638436485
 11
79.073145777860759
 21
205.40606041451622
  0
LINE
  8
_0-1_作画層１
  6
CONTINUOUS
 62
    7
 10
77.89434248296368
 20
204.36869450112511
 11
78.921316713968395
 21
205.39566822549034
  0
LINE
  8
_0-1_作画層１
  6
CONTINUOUS
 62
    7
 10
77.754934878030895
 20
204.37069817086388
 11
78.771269173303722
 21
205.38703270455528
  0
LINE
  8
_0-1_作画層１
  6
CONTINUOUS
 62
    7
 10
77.616789222637294
 20
204.37398930092979
 11
78.622879535833476
 21
205.38005466958214
  0
LINE
  8
_0-1_作画層１
  6
CONTINUOUS
 62
    7
 10
77.479856044927715
 20
204.37846775551964
 11
78.47612297622311
 21
205.37473507424522
  0
LINE
  8
_0-1_作画層１
  6
CONTINUOUS
 62
    7
 10
77.344160051027416
 20
204.38418407937218
 11
78.33095005241978
 21
205.37097378274132
  0
LINE
  8
_0-1_作画層１
  6
CONTINUOUS
 62
    7
 10
77.209602267423747
 20
204.39103813668419
 11
78.187286482134937
 21
205.36872215768028
  0
LINE
  8
_0-1_作画層１
  6
CONTINUOUS
 62
    7
 10
77.07618269411671
 20
204.3990547229879
 11
78.045107559708981
 21
205.36798019906212
  0
LINE
  8
_0-1_作画層１
  6
CONTINUOUS
 62
    7
 10
76.943876654783367
 20
204.40816040536095
 11
77.904339046159862
 21
205.3686477710836
  0
LINE
  8
_0-1_作画層１
  6
CONTINUOUS
 62
    7
 10
76.812659294286846
 20
204.41835518380333
 11
77.764980942884563
 21
205.37070198556114
  0
LINE
  8
_0-1_作画層１
  6
CONTINUOUS
 62
    7
 10
76.682505995908855
 20
204.42963810464073
 11
77.626958996931194
 21
205.37409134408165
  0
LINE
  8
_0-1_作画層１
  6
CONTINUOUS
 62
    7
 10
76.553391844907878
 20
204.44193668862511
 11
77.490273267904399
 21
205.37881775399376
  0
LINE
  8
_0-1_作画層１
  6
CONTINUOUS
 62
    7
 10
76.425292284170268
 20
204.45527287026573
 11
77.354824692884563
 21
205.38480587502647
  0
LINE
  8
_0-1_作画層１
  6
CONTINUOUS
 62
    7
 10
76.298182398954509
 20
204.46957512398888
 11
77.220662803331493
 21
205.39203091164757
  0
LINE
  8
_0-1_作画層１
  6
CONTINUOUS
 62
    7
 10
76.17206230846989
 20
204.48486729165245
 11
77.08766391960728
 21
205.40046902199913
  0
LINE
  8
_0-1_作画層１
  6
CONTINUOUS
 62
    7
 10
76.046907336393474
 20
204.50112362404991
 11
76.955852777639507
 21
205.41009445687462
  0
LINE
  8
_0-1_作画層１
  6
CONTINUOUS
 62
    7
 10
75.922667653242229
 20
204.51832123299766
 11
76.825229198614238
 21
205.4208824207418
  0
LINE
  8
_0-1_作画層１
  6
CONTINUOUS
 62
    7
 10
75.799368531385539
 20
204.53643341561485
 11
76.695694477239726
 21
205.43278427621055
  0
LINE
  8
_0-1_作画層１
  6
CONTINUOUS
 62
    7
 10
75.676959902921794
 20
204.55546207925011
 11
76.567273289838909
 21
205.44577522774864
  0
LINE
  8
_0-1_作画層１
  6
CONTINUOUS
 62
    7
 10
75.555442244688152
 20
204.57535572549034
 11
76.439940721670268
 21
205.45982952614952
  0
LINE
  8
_0-1_作画層１
  6
CONTINUOUS
 62
    7
 10
75.434790761152385
 20
204.59614105721641
 11
76.313622624555705
 21
205.47497292061973
  0
LINE
  8
_0-1_作画層１
  6
CONTINUOUS
 62
    7
 10
75.315029771009563
 20
204.61779137154747
 11
76.188343913236736
 21
205.49110622903038
  0
LINE
  8
_0-1_作画層１
  6
CONTINUOUS
 62
    7
 10
75.196085364500163
 20
204.64025898476768
 11
76.064079553762554
 21
205.50827808877159
  0
LINE
  8
_0-1_作画層１
  6
CONTINUOUS
 62
    7
 10
75.077982337156413
 20
204.66356773873497
 11
75.940805108228801
 21
205.526415066921
  0
LINE
  8
_0-1_作画層１
  6
CONTINUOUS
 62
    7
 10
74.960671336332439
 20
204.68769379159141
 11
75.81852021900761
 21
205.54554291268516
  0
LINE
  8
_0-1_作画層１
  6
CONTINUOUS
 62
    7
 10
74.844176442304729
 20
204.71261044045616
 11
75.697151095548747
 21
205.56558533211876
  0
LINE
  8
_0-1_作画層１
  6
CONTINUOUS
 62
    7
 10
74.728473574796794
 20
204.73834438821007
 11
75.576722056547283
 21
205.58659286996055
  0
LINE
  8
_0-1_作画層１
  6
CONTINUOUS
 62
    7
 10
74.613562733808635
 20
204.76482029458214
 11
75.457208783308147
 21
205.60849113961388
  0
LINE
  8
_0-1_作画層１
  6
CONTINUOUS
 62
    7
 10
74.49939385143864
 20
204.79208870431114
 11
75.338586003461955
 21
205.63130493661095
  0
LINE
  8
_0-1_作画層１
  6
CONTINUOUS
 62
    7
 10
74.385992200056194
 20
204.82012291451622
 11
75.220854193845867
 21
205.65498562356163
  0
LINE
  8
_0-1_作画層１
  6
CONTINUOUS
 62
    7
 10
74.273357541242717
 20
204.84890099068809
 11
75.104013116041301
 21
205.67953129311729
  0
LINE
  8
_0-1_作画層１
  6
CONTINUOUS
 62
    7
 10
74.161415965238689
 20
204.87839527627159
 11
74.987988621870159
 21
205.70494289895225
  0
LINE
  8
_0-1_作画層１
  6
CONTINUOUS
 62
    7
 10
74.050241143385051
 20
204.90863247414757
 11
74.872805268446086
 21
205.7311965992086
  0
LINE
  8
_0-1_作画層１
  6
CONTINUOUS
 62
    7
 10
73.939759165922283
 20
204.93956203957725
 11
74.758463294187663
 21
205.75826664467979
  0
LINE
  8
_0-1_作画層１
  6
CONTINUOUS
 62
    7
 10
73.829995066801189
 20
204.97123451729942
 11
74.644937903562663
 21
205.78615303536583
  0
LINE
  8
_0-1_作画層１
  6
CONTINUOUS
 62
    7
 10
73.720923335233806
 20
205.00357552071739
 11
74.532179743925212
 21
205.81485577126671
  0
LINE
  8
_0-1_作画層１
  6
CONTINUOUS
 62
    7
 10
73.612544924894451
 20
205.03660793801475
 11
74.420262725034831
 21
205.84432621499229
  0
LINE
  8
_0-1_作画層１
  6
CONTINUOUS
 62
    7
 10
73.504858882108806
 20
205.07033463021446
 11
74.309087903181194
 21
205.8745882084005
  0
LINE
  8
_0-1_作画層１
  6
CONTINUOUS
 62
    7
 10
73.397816569486736
 20
205.10475368996788
 11
74.198680312315105
 21
205.90559216042686
  0
LINE
  8
_0-1_作画層１
  6
CONTINUOUS
 62
    7
 10
73.291467101255535
 20
205.13979073067833
 11
74.089039714017986
 21
205.93736382027794
  0
LINE
  8
_0-1_作画層１
  6
CONTINUOUS
 62
    7
 10
73.185785205045818
 20
205.1755210926168
 11
73.980141551176189
 21
205.9699022342794
  0
LINE
  8
_0-1_作画層１
  6
CONTINUOUS
 62
    7
 10
73.080747038999675
 20
205.21189518471886
 11
73.872010142484783
 21
206.0031578113668
  0
LINE
  8
_0-1_作画層１
  6
CONTINUOUS
 62
    7
 10
72.97632780758488
 20
205.24891205331016
 11
73.764572055021404
 21
206.03715630074669
  0
LINE
  8
_0-1_作画層１
  6
CONTINUOUS
 62
    7
 10
72.872551352659343
 20
205.28657169839073
 11
73.657851130643962
 21
206.07184715768028
  0
LINE
  8
_0-1_作画層１
  6
CONTINUOUS
 62
    7
 10
72.76941862789738
 20
205.32485123177696
 11
73.551847846189617
 21
206.10728092690636
  0
LINE
  8
_0-1_作画層１
  6
CONTINUOUS
 62
    7
 10
72.666928679624675
 20
205.36377354165245
 11
73.44653740612614
 21
206.14338226815391
  0
LINE
  8
_0-1_作画層１
  6
CONTINUOUS
 62
    7
 10
72.565032870451091
 20
205.40328903695274
 11
73.341919810453533
 21
206.18020077248741
  0
LINE
  8
_0-1_作画層１
  6
CONTINUOUS
 62
    7
 10
72.463731200376628
 20
205.44344921609093
 11
73.237995059171794
 21
206.21768780251671
  0
LINE
  8
_0-1_作画層１
  6
CONTINUOUS
 62
    7
 10
72.363072783628581
 20
205.48417778512169
 11
73.134738356748699
 21
206.25586815377403
  0
LINE
  8
_0-1_作画層１
  6
CONTINUOUS
 62
    7
 10
72.263008029142497
 20
205.52552433510948
 11
73.03217497555363
 21
206.29469128152061
  0
LINE
  8
_0-1_作画層１
  6
CONTINUOUS
 62
    7
 10
72.163512618223308
 20
205.56746597787071
 11
72.93025437084782
 21
206.33420773049522
  0
LINE
  8
_0-1_作画層１
  6
CONTINUOUS
 62
    7
 10
72.064635665098308
 20
205.61002560158897
 11
72.829001815000652
 21
206.37436695595909
  0
LINE
  8
_0-1_作画層１
  6
CONTINUOUS
 62
    7
 10
71.966327578703044
 20
205.6531297733419
 11
72.728392989317058
 21
206.41519470711876
  0
LINE
  8
_0-1_作画層１
  6
CONTINUOUS
 62
    7
 10
71.868613631406902
 20
205.69682713051964
 11
72.62842741695988
 21
206.45664043923546
  0
LINE
  8
_0-1_作画層１
  6
CONTINUOUS
 62
    7
 10
71.771469027677654
 20
205.74111862679649
 11
72.52910462109196
 21
206.49872990151573
  0
LINE
  8
_0-1_作画層１
  6
CONTINUOUS
 62
    7
 10
71.674893290678142
 20
205.78595467110802
 11
72.43037644116032
 21
206.54146309395958
  0
LINE
  8
_0-1_作画層１
  6
CONTINUOUS
 62
    7
 10
71.578886420408367
 20
205.83138485451866
 11
72.332315833250163
 21
206.58478947182823
  0
LINE
  8
_0-1_作画層１
  6
CONTINUOUS
 62
    7
 10
71.483448893705486
 20
205.87735958596397
 11
72.234849364439128
 21
206.62875957986046
  0
LINE
  8
_0-1_作画層１
  6
CONTINUOUS
 62
    7
 10
71.388555915037273
 20
205.92387791176964
 11
72.138050944486736
 21
206.67334862252403
  0
LINE
  8
_0-1_作画層１
  6
CONTINUOUS
 62
    7
 10
71.294231803098796
 20
205.97099037667442
 11
72.041797072569011
 21
206.71853085061241
  0
LINE
  8
_0-1_作画層１
  6
CONTINUOUS
 62
    7
 10
71.200451762357829
 20
206.01862259408165
 11
71.946185977140544
 21
206.76433201333214
  0
LINE
  8
_0-1_作画層１
  6
CONTINUOUS
 62
    7
 10
71.107216746488689
 20
206.06679935952354
 11
71.851169020811199
 21
206.81072731515098
  0
LINE
  8
_0-1_作画層１
  6
CONTINUOUS
 62
    7
 10
71.014525801817058
 20
206.11554451485802
 11
71.756721408048747
 21
206.85771580239464
  0
LINE
  8
_0-1_作画層１
  6
CONTINUOUS
 62
    7
 10
70.922378928342937
 20
206.16481037636925
 11
71.662892253080486
 21
206.90532322426964
  0
LINE
  8
_0-1_作画層１
  6
CONTINUOUS
 62
    7
 10
70.720270068327068
 20
206.10411282082725
 11
71.56963196484196
 21
206.9534751941793
  0
LINE
  8
_0-1_作画層１
  6
CONTINUOUS
 62
    7
 10
70.449224860349773
 20
205.97447987099815
 11
71.476965815702556
 21
207.00222130318809
  0
LINE
  8
_0-1_作画層１
  6
CONTINUOUS
 62
    7
 10
70.16162529675114
 20
205.96972866555382
 11
71.293341071287273
 21
207.10144444008995
  0
LINE
  8
_0-1_作画層１
  6
CONTINUOUS
 62
    7
 10
70.109860808530925
 20
206.05937595864464
 11
71.202381999174236
 21
207.15192146798302
  0
LINE
  8
_0-1_作画層１
  6
CONTINUOUS
 62
    7
 10
70.058096797147869
 20
206.14904804726768
 11
71.11201706616032
 21
207.20296879311729
  0
LINE
  8
_0-1_作画層１
  6
CONTINUOUS
 62
    7
 10
70.006331832090495
 20
206.23872013589073
 11
71.022196204343913
 21
207.25455971261192
  0
LINE
  8
_0-1_作画層１
  6
CONTINUOUS
 62
    7
 10
69.954567343870281
 20
206.32834358712364
 11
70.932944686094402
 21
207.30671997567345
  0
LINE
  8
_0-1_作画層１
  6
CONTINUOUS
 62
    7
 10
69.902803809324382
 20
206.41801567574669
 11
70.844237715879558
 21
207.35944958230186
  0
LINE
  8
_0-1_作画層１
  6
CONTINUOUS
 62
    7
 10
69.851039321104167
 20
206.50768776436973
 11
70.756099612394451
 21
207.41272373696495
  0
LINE
  8
_0-1_作画層１
  6
CONTINUOUS
 62
    7
 10
69.799274832883953
 20
206.59731026192833
 11
70.668481261411785
 21
207.46654148598839
  0
LINE
  8
_0-1_作画層１
  6
CONTINUOUS
 62
    7
 10
69.747510344663738
 20
206.68698235055138
 11
70.581431777158855
 21
207.52090378304649
  0
LINE
  8
_0-1_作画層１
  6
CONTINUOUS
 62
    7
 10
69.695770651975749
 20
206.77665443917442
 11
70.494926840940593
 21
207.57583542367149
  0
LINE
  8
_0-1_作画層１
  6
CONTINUOUS
 62
    7
 10
69.643981368223308
 20
206.86630173226524
 11
70.408966452756999
 21
207.63126202126671
  0
LINE
  8
_0-1_作画層１
  6
CONTINUOUS
 62
    7
 10
69.592216880003093
 20
206.95594997903038
 11
70.323525340238689
 21
207.68728275796104
  0
LINE
  8
_0-1_作画層１
  6
CONTINUOUS
 62
    7
 10
69.540477187315105
 20
207.04562206765343
 11
70.238653571287273
 21
207.74379845162559
  0
LINE
  8
_0-1_作画層１
  6
CONTINUOUS
 62
    7
 10
69.48871269909489
 20
207.13526936074425
 11
70.15430107800114
 21
207.8008577396505
  0
LINE
  8
_0-1_作画層１
  6
CONTINUOUS
 62
    7
 10
69.436948210874675
 20
207.22491665383507
 11
70.070468337217449
 21
207.85846157571007
  0
LINE
  8
_0-1_作画層１
  6
CONTINUOUS
 62
    7
 10
69.38518372265446
 20
207.31458874245811
 11
69.987180144468425
 21
207.9166099598043
  0
LINE
  8
_0-1_作画層１
  6
CONTINUOUS
 62
    7
 10
69.333419234434245
 20
207.40423603554893
 11
69.904411704221843
 21
207.97525330086876
  0
LINE
  8
_0-1_作画層１
  6
CONTINUOUS
 62
    7
 10
69.281654746214031
 20
207.49388332863975
 11
69.822187812009929
 21
208.03444118996788
  0
LINE
  8
_0-1_作画層１
  6
CONTINUOUS
 62
    7
 10
69.229891211668132
 20
207.58355637093712
 11
69.740457923093913
 21
208.09414787789513
  0
LINE
  8
_0-1_作画層１
  6
CONTINUOUS
 62
    7
 10
69.178126723447917
 20
207.67322845956016
 11
69.659297377744792
 21
208.15437527199913
  0
LINE
  8
_0-1_作画層１
  6
CONTINUOUS
 62
    7
 10
69.126362235227703
 20
207.76287575265098
 11
69.578607947507976
 21
208.21512146493126
  0
LINE
  8
_0-1_作画層１
  6
CONTINUOUS
 62
    7
 10
69.074597747007488
 20
207.8525230457418
 11
69.498462111631511
 21
208.27641220589805
  0
LINE
  8
_0-1_作画層１
  6
CONTINUOUS
 62
    7
 10
69.022833258787273
 20
207.94219513436485
 11
69.418836028257488
 21
208.33819790383507
  0
LINE
  8
_0-1_作画層１
  6
CONTINUOUS
 62
    7
 10
68.971068770567058
 20
208.03184242745567
 11
69.339704901853679
 21
208.40050335427452
  0
LINE
  8
_0-1_作画層１
  6
CONTINUOUS
 62
    7
 10
68.919304282346843
 20
208.12148972054649
 11
69.261117369810222
 21
208.46332855721641
  0
LINE
  8
_0-1_作画層１
  6
CONTINUOUS
 62
    7
 10
68.867539794126628
 20
208.21116276284386
 11
69.183025748411296
 21
208.52664776345421
  0
LINE
  8
_0-1_作画層１
  6
CONTINUOUS
 62
    7
 10
68.815775305906413
 20
208.30081005593468
 11
69.105452925840495
 21
208.59051247140098
  0
LINE
  8
_0-1_作画層１
  6
CONTINUOUS
 62
    7
 10
68.764010817686199
 20
208.3904573490255
 11
69.028400809446453
 21
208.65487118264366
  0
LINE
  8
_0-1_作画層１
  6
CONTINUOUS
 62
    7
 10
68.712246329465984
 20
208.48012943764854
 11
68.951842696348308
 21
208.71972580453087
  0
LINE
  8
_0-1_作画層１
  6
CONTINUOUS
 62
    7
 10
68.660481841245769
 20
208.56980152627159
 11
68.875804335752605
 21
208.78512402077843
  0
LINE
  8
_0-1_作画層１
  6
CONTINUOUS
 62
    7
 10
68.608717353025554
 20
208.65944881936241
 11
68.800285727659343
 21
208.85099239846397
  0
LINE
  8
_0-1_作画層１
  6
CONTINUOUS
 62
    7
 10
68.556953818479656
 20
208.74909611245323
 11
68.725262076536296
 21
208.91740532418419
  0
LINE
  8
_0-1_作画層１
  6
CONTINUOUS
 62
    7
 10
68.505189330259441
 20
208.83876820107628
 11
68.650733382383464
 21
208.98431320687462
  0
LINE
  8
_0-1_作画層１
  6
CONTINUOUS
 62
    7
 10
68.453424842039226
 20
208.92841644784141
 11
68.576723487058757
 21
209.05171509286095
  0
LINE
  8
_0-1_作画層１
  6
CONTINUOUS
 62
    7
 10
68.401660353819011
 20
209.01808853646446
 11
68.503209502378581
 21
209.11963768502403
  0
LINE
  8
_0-1_作画層１
  6
CONTINUOUS
 62
    7
 10
68.349895865598796
 20
209.10773582955528
 11
68.430214316526531
 21
209.18805428048302
  0
LINE
  8
_0-1_作画層１
  6
CONTINUOUS
 62
    7
 10
68.298131377378581
 20
209.19740791817833
 11
68.357739836851238
 21
209.25699158211876
  0
LINE
  8
_0-1_作画層１
  6
CONTINUOUS
 62
    7
 10
68.246366889158367
 20
209.28705521126915
 11
68.285759360471843
 21
209.3264228870504
  0
LINE
  8
_0-1_作画層１
  6
CONTINUOUS
 62
    7
 10
68.194602400938152
 20
209.37670250435997
 11
68.214273841062663
 21
209.39637394448448
  0
LINE
  8
_0-1_作画層１
  6
CONTINUOUS
 62
    7
 10
68.142837912717937
 20
209.46637459298302
 11
68.143283278623699
 21
209.46681995888878
  0
ARC
  8
_0-1_作画層１
  6
CONTINUOUS
 62
    7
 10
78.041123778501628
 20
219.36797638436485
 40
13.999999999999993
 50
225
 51
315
  0
ARC
  8
_0-1_作画層１
  6
CONTINUOUS
 62
    7
 10
78.041123778501628
 20
219.36797638436482
 40
14.999998092651339
 50
241.41824340820313
 51
315.00000000000006
  0
ARC
  8
_0-1_作画層１
  6
CONTINUOUS
 62
    7
 10
78.041123778501628
 20
219.36797638436488
 40
14.000000000000014
 50
224.36732482910168
 51
314.99999999999994
  0
LINE
  8
_0-1_作画層１
  6
CONTINUOUS
 62
    7
 10
78.0411237785016
 20
229.36797562142539
 11
78.0411237785016
 21
232.16798706551717
  0
LINE
  8
_0-1_作画層１
  6
CONTINUOUS
 62
    7
 10
88.048563201109033
 20
227.3486557056539
 11
88.014709288755512
 21
227.3216537525289
  0
LINE
  8
_0-1_作画層１
  6
CONTINUOUS
 62
    7
 10
78.0411237785016
 20
231.98909225960898
 11
78.21878669945346
 21
232.1667480518453
  0
LINE
  8
_0-d_0_1
  6
CONTINUOUS
 62
    7
 10
87.022850575037424
 20
230.32293685166056
 11
87.0826360364632
 21
230.3827146836918
  0
LINE
  8
_0-1_作画層１
  6
CONTINUOUS
 62
    7
 10
85.960722167173486
 20
227.28757477303671
 11
86.526408965269198
 21
227.85326157113241
  0
LINE
  8
_0-1_作画層１
  6
CONTINUOUS
 62
    7
 10
70.121525389829742
 20
227.28757477303671
 11
71.775828749815105
 21
230.15294800301717
  0
LINE
  8
_0-1_作画層１
  6
CONTINUOUS
 62
    7
 10
71.780539900938152
 20
230.17222824593711
 11
72.286821562925439
 21
229.93009338875936
  0
LINE
  8
_0-1_作画層１
  6
CONTINUOUS
 62
    7
 10
85.504423339048486
 20
228.76475067635701
 11
86.471140868345373
 21
227.79801331063436
  0
LINE
  8
_0-1_作画層１
  6
CONTINUOUS
 62
    7
 10
85.041572386900057
 20
229.11443329354452
 11
86.414586455503567
 21
227.74143906136678
  0
LINE
  8
_0-1_作画層１
  6
CONTINUOUS
 62
    7
 10
84.67595501629458
 20
229.36692047616171
 11
86.358011443296533
 21
227.68486404915976
  0
LINE
  8
_0-1_作画層１
  6
CONTINUOUS
 62
    7
 10
84.36053868023501
 20
229.56918793221638
 11
86.301457030454742
 21
227.62830963631797
  0
LINE
  8
_0-1_作画層１
  6
CONTINUOUS
 62
    7
 10
84.077289397398104
 20
229.73930740853476
 11
86.244882018247708
 21
227.57173462411092
  0
LINE
  8
_0-1_作画層１
  6
CONTINUOUS
 62
    7
 10
83.816943175474279
 20
229.88652420540976
 11
86.188307768980138
 21
227.51516037484333
  0
LINE
  8
_0-1_作画層１
  6
CONTINUOUS
 62
    7
 10
83.574036605039709
 20
230.01632156869101
 11
86.131732756773104
 21
227.45858536263631
  0
LINE
  8
_0-1_作画層１
  6
CONTINUOUS
 62
    7
 10
83.34496670452701
 20
230.13224182625936
 11
86.07515850750552
 21
227.40201111336873
  0
LINE
  8
_0-1_作画層１
  6
CONTINUOUS
 62
    7
 10
83.127259261289709
 20
230.23680038949178
 11
86.018603331724279
 21
227.34545593758747
  0
LINE
  8
_0-1_作画層１
  6
CONTINUOUS
 62
    7
 10
82.91913243023501
 20
230.33177719613241
 11
85.962029082456695
 21
227.28888168831992
  0
LINE
  8
_0-1_作画層１
  6
CONTINUOUS
 62
    7
 10
82.719240767637359
 20
230.41855927010701
 11
84.971576506773104
 21
228.16618423958943
  0
LINE
  8
_0-1_作画層１
  6
CONTINUOUS
 62
    7
 10
82.526435668150057
 20
230.49819565316366
 11
84.522740752378567
 21
228.50191040536092
  0
LINE
  8
_0-1_作画層１
  6
CONTINUOUS
 62
    7
 10
82.339965254942044
 20
230.57153702279257
 11
84.167872435728185
 21
228.74362946053671
  0
LINE
  8
_0-1_作画層１
  6
CONTINUOUS
 62
    7
 10
82.159076506773104
 20
230.63927612801717
 11
83.861561782041662
 21
228.93681107064413
  0
LINE
  8
_0-1_作画層１
  6
CONTINUOUS
 62
    7
 10
81.983255965391265
 20
230.70198669930625
 11
83.586349303403964
 21
229.09887390633747
  0
LINE
  8
_0-1_作画層１
  6
CONTINUOUS
 62
    7
 10
81.811987883726232
 20
230.76010590096638
 11
83.333326918760406
 21
229.23876648446247
  0
LINE
  8
_0-1_作画層１
  6
CONTINUOUS
 62
    7
 10
81.644896895567058
 20
230.81406708260701
 11
83.097150618711581
 21
229.36181335946247
  0
LINE
  8
_0-1_作画層１
  6
CONTINUOUS
 62
    7
 10
81.481625945249675
 20
230.86418915291952
 11
82.874415404478185
 21
229.47139969369101
  0
LINE
  8
_0-1_作画層１
  6
CONTINUOUS
 62
    7
 10
81.321898848692058
 20
230.91078644295857
 11
82.662685973325836
 21
229.56999969979452
  0
LINE
  8
_0-1_作画層１
  6
CONTINUOUS
 62
    7
 10
81.16543751446352
 20
230.95411835213827
 11
82.460240752378567
 21
229.65929565926717
  0
LINE
  8
_0-1_作画層１
  6
CONTINUOUS
 62
    7
 10
81.012005049863916
 20
230.99440155526327
 11
82.265752989927392
 21
229.74065399666952
  0
LINE
  8
_0-1_作画層１
  6
CONTINUOUS
 62
    7
 10
80.861423117796051
 20
231.03185425301717
 11
82.078173644224279
 21
229.81508331795857
  0
LINE
  8
_0-1_作画層１
  6
CONTINUOUS
 62
    7
 10
80.713513381162755
 20
231.06661453744101
 11
81.896711165586566
 21
229.88341675301717
  0
LINE
  8
_0-1_作画層１
  6
CONTINUOUS
 62
    7
 10
80.568098075071447
 20
231.09890060921833
 11
81.720692641416662
 21
229.94628601571247
  0
LINE
  8
_0-1_作画層１
  6
CONTINUOUS
 62
    7
 10
80.425057990232574
 20
231.12879105111287
 11
81.549582869688152
 21
230.00426636239217
  0
LINE
  8
_0-1_作画層１
  6
CONTINUOUS
 62
    7
 10
80.284254843870258
 20
231.15646439095661
 11
81.382907302061199
 21
230.05781250497029
  0
LINE
  8
_0-1_作画層１
  6
CONTINUOUS
 62
    7
 10
80.145569808164709
 20
231.18202057381797
 11
81.220290000120258
 21
230.1072998096578
  0
LINE
  8
_0-1_作画層１
  6
CONTINUOUS
 62
    7
 10
80.008903891721843
 20
231.20553665658161
 11
81.061374289671051
 21
230.15306625863241
  0
LINE
  8
_0-1_作画層１
  6
CONTINUOUS
 62
    7
 10
79.874157912412755
 20
231.22715302010701
 11
80.90590286938297
 21
230.19538879891562
  0
LINE
  8
_0-1_作画層１
  6
CONTINUOUS
 62
    7
 10
79.741233260313152
 20
231.24692841073201
 11
80.753618437925439
 21
230.23454361458943
  0
LINE
  8
_0-1_作画層１
  6
CONTINUOUS
 62
    7
 10
79.61005058971989
 20
231.26496201058552
 11
80.604283530393701
 21
230.27072906991171
  0
LINE
  8
_0-1_作画層１
  6
CONTINUOUS
 62
    7
 10
79.480550486723047
 20
231.28133240243125
 11
80.457739836851232
 21
230.30416336556601
  0
LINE
  8
_0-1_作画層１
  6
CONTINUOUS
 62
    7
 10
79.352673632780181
 20
231.29608002206015
 11
80.313769538084131
 21
230.33498459359333
  0
LINE
  8
_0-1_作画層１
  6
CONTINUOUS
 62
    7
 10
79.226301104704021
 20
231.30930328866171
 11
80.17227345196352
 21
230.36335068246052
  0
LINE
  8
_0-1_作画層１
  6
CONTINUOUS
 62
    7
 10
79.101433093229389
 20
231.32104187508747
 11
80.033053977171051
 21
230.38942108651327
  0
LINE
  8
_0-1_作画層１
  6
CONTINUOUS
 62
    7
 10
78.977990348020654
 20
231.33135529061482
 11
79.896031577268701
 21
230.41329422494101
  0
LINE
  8
_0-1_作画層１
  6
CONTINUOUS
 62
    7
 10
78.855933196226232
 20
231.34028244515585
 11
79.761087805906413
 21
230.43512802621052
  0
LINE
  8
_0-1_作画層１
  6
CONTINUOUS
 62
    7
 10
78.735182578245258
 20
231.34790421029257
 11
79.62808399883852
 21
230.45498276253866
  0
LINE
  8
_0-1_作画層１
  6
CONTINUOUS
 62
    7
 10
78.615718609968297
 20
231.35419846078085
 11
79.49698048321352
 21
230.47295685311482
  0
LINE
  8
_0-1_作画層１
  6
CONTINUOUS
 62
    7
 10
78.497481972852825
 20
231.35928650399373
 11
79.367638785520654
 21
230.48914948006797
  0
LINE
  8
_0-1_作画層１
  6
CONTINUOUS
 62
    7
 10
78.380472643056976
 20
231.36318588753866
 11
79.240038973966705
 21
230.50361938973592
  0
LINE
  8
_0-1_作画層１
  6
CONTINUOUS
 62
    7
 10
78.264611417928791
 20
231.36589813729452
 11
79.114062411466705
 21
230.51646652718711
  0
LINE
  8
_0-1_作画層１
  6
CONTINUOUS
 62
    7
 10
78.149898321310161
 20
231.36748123665976
 11
78.989629847684967
 21
230.52774963875936
  0
LINE
  8
_0-1_作画層１
  6
CONTINUOUS
 62
    7
 10
78.036254162842511
 20
231.36797638436482
 11
78.866741377988916
 21
230.53750916024373
  0
LINE
  8
_0-1_作画層１
  6
CONTINUOUS
 62
    7
 10
77.923698742071252
 20
231.36740189095661
 11
78.745278126875036
 21
230.54582291146443
  0
LINE
  8
_0-1_作画層１
  6
CONTINUOUS
 62
    7
 10
77.812172658125036
 20
231.36579895516562
 11
78.625240094343297
 21
230.55273132821247
  0
LINE
  8
_0-1_作画層１
  6
CONTINUOUS
 62
    7
 10
77.701656133810161
 20
231.36316605111287
 11
78.506528384367101
 21
230.55831375619101
  0
LINE
  8
_0-1_作画層１
  6
CONTINUOUS
 62
    7
 10
77.592109591642497
 20
231.35958328744101
 11
78.389123136678791
 21
230.56256943246052
  0
LINE
  8
_0-1_作画層１
  6
CONTINUOUS
 62
    7
 10
77.483552796522247
 20
231.35501022835896
 11
78.272984797636127
 21
230.56557846566366
  0
LINE
  8
_0-1_作画層１
  6
CONTINUOUS
 62
    7
 10
77.375906569639312
 20
231.34952698250936
 11
78.158053941408269
 21
230.56737976571247
  0
LINE
  8
_0-1_作画層１
  6
CONTINUOUS
 62
    7
 10
77.269170910993694
 20
231.34311371346638
 11
78.044310803467511
 21
230.56797333260701
  0
LINE
  8
_0-1_作画層１
  6
CONTINUOUS
 62
    7
 10
77.163326079526996
 20
231.33582916756797
 11
77.931695992628192
 21
230.56743927498982
  0
LINE
  8
_0-1_作画層１
  6
CONTINUOUS
 62
    7
 10
77.058352191129785
 20
231.32767334481406
 11
77.82020951000797
 21
230.5657959034078
  0
LINE
  8
_0-1_作画層１
  6
CONTINUOUS
 62
    7
 10
76.954229552427392
 20
231.31864700814413
 11
77.709791953245258
 21
230.56308441659138
  0
LINE
  8
_0-1_作画層１
  6
CONTINUOUS
 62
    7
 10
76.850938231626628
 20
231.30880814095661
 11
77.600443370023839
 21
230.55930328866171
  0
LINE
  8
_0-1_作画層１
  6
CONTINUOUS
 62
    7
 10
76.748458583036523
 20
231.29813919564413
 11
77.49208451000797
 21
230.55451279183552
  0
LINE
  8
_0-1_作画層１
  6
CONTINUOUS
 62
    7
 10
76.646770674863916
 20
231.28669739266562
 11
77.384754998365509
 21
230.54873276253866
  0
LINE
  8
_0-1_作画層１
  6
CONTINUOUS
 62
    7
 10
76.545874602476232
 20
231.27446365853476
 11
77.278355891386127
 21
230.54198227425741
  0
LINE
  8
_0-1_作画層１
  6
CONTINUOUS
 62
    7
 10
76.445750624815105
 20
231.26145859261678
 11
77.17290697781192
 21
230.53428192635701
  0
LINE
  8
_0-1_作画層１
  6
CONTINUOUS
 62
    7
 10
76.346358878294097
 20
231.24770050545857
 11
77.068408114591705
 21
230.52565155526327
  0
LINE
  8
_0-1_作画層１
  6
CONTINUOUS
 62
    7
 10
76.247719580808734
 20
231.23321075936482
 11
76.964780337492101
 21
230.51613007088827
  0
LINE
  8
_0-1_作画層１
  6
CONTINUOUS
 62
    7
 10
76.149792678037755
 20
231.21798782845661
 11
76.862043387571447
 21
230.5057373096578
  0
LINE
  8
_0-1_作画層１
  6
CONTINUOUS
 62
    7
 10
76.052578551450836
 20
231.20207291146443
 11
76.760177333036523
 21
230.49449387093711
  0
LINE
  8
_0-1_作画層１
  6
CONTINUOUS
 62
    7
 10
75.956057364622211
 20
231.18544464608357
 11
76.65912285534489
 21
230.48237915536092
  0
LINE
  8
_0-1_作画層１
  6
CONTINUOUS
 62
    7
 10
75.86024857250797
 20
231.16812439461873
 11
76.558899886289709
 21
230.46947250863241
  0
LINE
  8
_0-1_作画層１
  6
CONTINUOUS
 62
    7
 10
75.765093047300439
 20
231.15015030404257
 11
76.459488398710363
 21
230.45573502083943
  0
LINE
  8
_0-1_作画層１
  6
CONTINUOUS
 62
    7
 10
75.670610625425439
 20
231.13150330086873
 11
76.360868842283367
 21
230.44122543831992
  0
LINE
  8
_0-1_作画層１
  6
CONTINUOUS
 62
    7
 10
75.576761824766265
 20
231.11220245858357
 11
76.263040930906413
 21
230.42592316170857
  0
LINE
  8
_0-1_作画層１
  6
CONTINUOUS
 62
    7
 10
75.483565909544097
 20
231.09226913949178
 11
76.165945632139312
 21
230.40988922616171
  0
LINE
  8
_0-1_作画層１
  6
CONTINUOUS
 62
    7
 10
75.391003615537755
 20
231.07168198128866
 11
76.069602400938152
 21
230.39308319588827
  0
LINE
  8
_0-1_作画層１
  6
CONTINUOUS
 62
    7
 10
75.299074942747211
 20
231.05050125619101
 11
75.973991782346843
 21
230.37556458016562
  0
LINE
  8
_0-1_作画層１
  6
CONTINUOUS
 62
    7
 10
75.207739836851232
 20
231.0286865284078
 11
75.87909355846989
 21
230.35731354256797
  0
LINE
  8
_0-1_作画層１
  6
CONTINUOUS
 62
    7
 10
75.117018515745258
 20
231.00625916024373
 11
75.784908110776996
 21
230.33836899300741
  0
LINE
  8
_0-1_作画層１
  6
CONTINUOUS
 62
    7
 10
75.026910788694494
 20
230.98323669930625
 11
75.691435248533367
 21
230.31873245736287
  0
LINE
  8
_0-1_作画層１
  6
CONTINUOUS
 62
    7
 10
74.937357527891265
 20
230.95964127083943
 11
75.598615653196447
 21
230.29840317269492
  0
LINE
  8
_0-1_作画層１
  6
CONTINUOUS
 62
    7
 10
74.848417670408367
 20
230.93545151253866
 11
75.506468970457178
 21
230.27740021248982
  0
LINE
  8
_0-1_作画層１
  6
CONTINUOUS
 62
    7
 10
74.760032088438152
 20
230.91070786019492
 11
75.414995391050439
 21
230.25574417611287
  0
LINE
  8
_0-1_作画層１
  6
CONTINUOUS
 62
    7
 10
74.672220809141265
 20
230.88536987801717
 11
75.324175078550439
 21
230.23343506356406
  0
LINE
  8
_0-1_作画層１
  6
CONTINUOUS
 62
    7
 10
74.584963423887359
 20
230.8594970752828
 11
75.233968550840473
 21
230.21047287484333
  0
LINE
  8
_0-1_作画層１
  6
CONTINUOUS
 62
    7
 10
74.498260695615869
 20
230.83307114144492
 11
75.144434935728185
 21
230.18689651986287
  0
LINE
  8
_0-1_作画層１
  6
CONTINUOUS
 62
    7
 10
74.412111861387359
 20
230.80608978768515
 11
75.055495078245258
 21
230.16268692513631
  0
LINE
  8
_0-1_作画層１
  6
CONTINUOUS
 62
    7
 10
74.326478011289709
 20
230.77855453988241
 11
74.967169005552392
 21
230.13788376351522
  0
LINE
  8
_0-1_作画層１
  6
CONTINUOUS
 62
    7
 10
74.241398436704742
 20
230.75052490731406
 11
74.879456526914709
 21
230.11246643563436
  0
LINE
  8
_0-1_作画層１
  6
CONTINUOUS
 62
    7
 10
74.156852919736963
 20
230.72194061776327
 11
74.792337996641265
 21
230.0864357044332
  0
LINE
  8
_0-1_作画層１
  6
CONTINUOUS
 62
    7
 10
74.072822386900043
 20
230.69284134408161
 11
74.705832869688152
 21
230.05983124276327
  0
LINE
  8
_0-1_作画層１
  6
CONTINUOUS
 62
    7
 10
73.989287001768218
 20
230.66322784920857
 11
74.619882399717426
 21
230.03263245125936
  0
LINE
  8
_0-1_作画層１
  6
CONTINUOUS
 62
    7
 10
73.906265837827789
 20
230.63310013314413
 11
74.534505660215473
 21
230.00487976571247
  0
LINE
  8
_0-1_作画層１
  6
CONTINUOUS
 62
    7
 10
73.823759658018218
 20
230.60247650643515
 11
74.449703032651996
 21
229.97653275033161
  0
LINE
  8
_0-1_作画層１
  6
CONTINUOUS
 62
    7
 10
73.741767699400043
 20
230.57133865853476
 11
74.365454680601232
 21
229.94765167733357
  0
LINE
  8
_0-1_作画層１
  6
CONTINUOUS
 62
    7
 10
73.660251052061199
 20
230.53972626229452
 11
74.281760604063152
 21
229.91819687386678
  0
LINE
  8
_0-1_作画層１
  6
CONTINUOUS
 62
    7
 10
73.579209716001628
 20
230.50759811898396
 11
74.198620803037755
 21
229.88820724984333
  0
LINE
  8
_0-1_作画層１
  6
CONTINUOUS
 62
    7
 10
73.498682982603185
 20
230.47501526375936
 11
74.116015441099279
 21
229.85766296883747
  0
LINE
  8
_0-1_作画層１
  6
CONTINUOUS
 62
    7
 10
73.418631179014312
 20
230.44193802376913
 11
74.033964736143218
 21
229.82660446664022
  0
LINE
  8
_0-1_作画層１
  6
CONTINUOUS
 62
    7
 10
73.339034850278949
 20
230.40838470956015
 11
73.952428252378581
 21
229.79499130746052
  0
LINE
  8
_0-1_作画層１
  6
CONTINUOUS
 62
    7
 10
73.259933287778949
 20
230.37433701058552
 11
73.871426207700836
 21
229.76286392708943
  0
LINE
  8
_0-1_作画層１
  6
CONTINUOUS
 62
    7
 10
73.181286818662755
 20
230.3398536731832
 11
73.790939147153949
 21
229.73020172616171
  0
LINE
  8
_0-1_作画層１
  6
CONTINUOUS
 62
    7
 10
73.103115660825836
 20
230.30489578744101
 11
73.710966689268218
 21
229.69704514046833
  0
LINE
  8
_0-1_作画層１
  6
CONTINUOUS
 62
    7
 10
73.025399977842426
 20
230.26946259041952
 11
73.631508452573883
 21
229.66337357064413
  0
LINE
  8
_0-1_作画層１
  6
CONTINUOUS
 62
    7
 10
72.948139388242822
 20
230.23359375497029
 11
73.552525908628581
 21
229.62918701668906
  0
LINE
  8
_0-1_作画層１
  6
CONTINUOUS
 62
    7
 10
72.871333892026996
 20
230.19724960824178
 11
73.474077422300439
 21
229.59452591439413
  0
LINE
  8
_0-1_作画層１
  6
CONTINUOUS
 62
    7
 10
72.794983870664709
 20
230.16046982308552
 11
73.396104247251628
 21
229.55934982796833
  0
LINE
  8
_0-1_作画層１
  6
CONTINUOUS
 62
    7
 10
72.719069487730138
 20
230.12325516244101
 11
73.318665511289709
 21
229.52367859383747
  0
LINE
  8
_0-1_作画層１
  6
CONTINUOUS
 62
    7
 10
72.643610198179346
 20
230.08556519051717
 11
73.241662413755535
 21
229.48753281136678
  0
LINE
  8
_0-1_作画層１
  6
CONTINUOUS
 62
    7
 10
72.568586165586566
 20
230.04745941659138
 11
73.165173537412755
 21
229.45089188119101
  0
LINE
  8
_0-1_作画層１
  6
CONTINUOUS
 62
    7
 10
72.493998152891265
 20
230.00891800423787
 11
73.089159972349279
 21
229.41377563973592
  0
LINE
  8
_0-1_作画層１
  6
CONTINUOUS
 62
    7
 10
72.419845397153949
 20
229.96992187997029
 11
73.013601882139312
 21
229.37618484994101
  0
LINE
  8
_0-1_作画層１
  6
CONTINUOUS
 62
    7
 10
72.346127898374675
 20
229.93050919076131
 11
72.938538558164709
 21
229.33809891244101
  0
LINE
  8
_0-1_作画層１
  6
CONTINUOUS
 62
    7
 10
72.184440810361963
 20
229.97906723519492
 11
72.863930327573883
 21
229.29957733651327
  0
LINE
  8
_0-1_作画層１
  6
CONTINUOUS
 62
    7
 10
71.967604643980138
 20
230.0827735950582
 11
72.789797408262359
 21
229.26058044930625
  0
LINE
  8
_0-1_作画層１
  6
CONTINUOUS
 62
    7
 10
71.737524993101232
 20
230.08657455941366
 11
72.642897612730138
 21
229.18120193978476
  0
LINE
  8
_0-1_作画層１
  6
CONTINUOUS
 62
    7
 10
71.696113402525043
 20
230.01485672494101
 11
72.570130355039709
 21
229.14082031747029
  0
LINE
  8
_0-1_作画層１
  6
CONTINUOUS
 62
    7
 10
71.654702193418615
 20
229.94311905404257
 11
72.497838408628581
 21
229.09998245736287
  0
LINE
  8
_0-1_作画層１
  6
CONTINUOUS
 62
    7
 10
71.613290221372722
 20
229.87138138314413
 11
72.425981719175439
 21
229.05870972176717
  0
LINE
  8
_0-1_作画層１
  6
CONTINUOUS
 62
    7
 10
71.571878630796533
 20
229.7996826221578
 11
72.354580504575836
 21
229.01698151131797
  0
LINE
  8
_0-1_作画層１
  6
CONTINUOUS
 62
    7
 10
71.530467803159809
 20
229.72794495125936
 11
72.283614928403949
 21
228.97479782601522
  0
LINE
  8
_0-1_作画層１
  6
CONTINUOUS
 62
    7
 10
71.489056212583648
 20
229.65620728036092
 11
72.213104445615869
 21
228.93217850228476
  0
LINE
  8
_0-1_作画層１
  6
CONTINUOUS
 62
    7
 10
71.447644622007488
 20
229.58450928231406
 11
72.143009764829742
 21
228.88912430306601
  0
LINE
  8
_0-1_作画層１
  6
CONTINUOUS
 62
    7
 10
71.406233031431299
 20
229.51277161141562
 11
72.073370177427392
 21
228.84563446541952
  0
LINE
  8
_0-1_作画層１
  6
CONTINUOUS
 62
    7
 10
71.364841277280902
 20
229.44103394051717
 11
72.004166228452789
 21
228.80168915291952
  0
LINE
  8
_0-1_作画層１
  6
CONTINUOUS
 62
    7
 10
71.323409850278949
 20
229.36931610604452
 11
71.935397917905902
 21
228.75734787484333
  0
LINE
  8
_0-1_作画層１
  6
CONTINUOUS
 62
    7
 10
71.281998259702789
 20
229.29759750863241
 11
71.867045027891265
 21
228.71253128548787
  0
LINE
  8
_0-1_作画層１
  6
CONTINUOUS
 62
    7
 10
71.240606505552392
 20
229.22585983773396
 11
71.799147612730138
 21
228.66731873055625
  0
LINE
  8
_0-1_作画層１
  6
CONTINUOUS
 62
    7
 10
71.199194914976232
 20
229.15414200326131
 11
71.731665618101232
 21
228.62167130013631
  0
LINE
  8
_0-1_作画層１
  6
CONTINUOUS
 62
    7
 10
71.157783324400043
 20
229.08242416878866
 11
71.664599425474279
 21
228.57558823128866
  0
LINE
  8
_0-1_作画層１
  6
CONTINUOUS
 62
    7
 10
71.116371733823883
 20
229.01068649789022
 11
71.597968871275043
 21
228.52906952401327
  0
LINE
  8
_0-1_作画層１
  6
CONTINUOUS
 62
    7
 10
71.074960143247722
 20
228.93896866341757
 11
71.531754119077789
 21
228.48215485116171
  0
LINE
  8
_0-1_作画層１
  6
CONTINUOUS
 62
    7
 10
71.033548552671533
 20
228.86725082894492
 11
71.465975005308252
 21
228.43480453988241
  0
LINE
  8
_0-1_作画層１
  6
CONTINUOUS
 62
    7
 10
70.992137725034809
 20
228.79551239510701
 11
71.400591094175439
 21
228.38703918954062
  0
LINE
  8
_0-1_作画層１
  6
CONTINUOUS
 62
    7
 10
70.950726134458648
 20
228.72377472420857
 11
71.335662657896137
 21
228.33885727425741
  0
LINE
  8
_0-1_作画層１
  6
CONTINUOUS
 62
    7
 10
70.909314543882488
 20
228.65205688973592
 11
71.271111113706695
 21
228.29026031991171
  0
LINE
  8
_0-1_作画層１
  6
CONTINUOUS
 62
    7
 10
70.867902953306299
 20
228.58033905526327
 11
71.206994445005535
 21
228.24122772713827
  0
LINE
  8
_0-1_作画層１
  6
CONTINUOUS
 62
    7
 10
70.826491362730138
 20
228.50860138436482
 11
71.143293578306299
 21
228.19179916878866
  0
LINE
  8
_0-1_作画層１
  6
CONTINUOUS
 62
    7
 10
70.785079772153949
 20
228.43688354989217
 11
71.079988677183252
 21
228.14195480843711
  0
LINE
  8
_0-1_作画層１
  6
CONTINUOUS
 62
    7
 10
70.743668181577789
 20
228.36516571541952
 11
71.017118651548486
 21
228.09169464608357
  0
LINE
  8
_0-1_作画層１
  6
CONTINUOUS
 62
    7
 10
70.702256591001628
 20
228.29342728158161
 11
70.954645354429346
 21
228.04103928109333
  0
LINE
  8
_0-1_作画層１
  6
CONTINUOUS
 62
    7
 10
70.660845000425439
 20
228.22170944710896
 11
70.892587096372722
 21
227.98994751473592
  0
LINE
  8
_0-1_作画層１
  6
CONTINUOUS
 62
    7
 10
70.619433409849279
 20
228.14999161263631
 11
70.830945403257488
 21
227.93846054574178
  0
LINE
  8
_0-1_作画層１
  6
CONTINUOUS
 62
    7
 10
70.57802181927309
 20
228.07825394173787
 11
70.769698912778949
 21
227.88657684823201
  0
LINE
  8
_0-1_作画層１
  6
CONTINUOUS
 62
    7
 10
70.536610228696929
 20
228.00651627083943
 11
70.708868224302392
 21
227.83425827523396
  0
LINE
  8
_0-1_作画層１
  6
CONTINUOUS
 62
    7
 10
70.495198638120769
 20
227.93479843636678
 11
70.648453337827789
 21
227.78156357308552
  0
LINE
  8
_0-1_作画層１
  6
CONTINUOUS
 62
    7
 10
70.453787810484044
 20
227.86308060189413
 11
70.588434416929346
 21
227.72843323250936
  0
LINE
  8
_0-1_作画層１
  6
CONTINUOUS
 62
    7
 10
70.412376219907856
 20
227.79134293099568
 11
70.528811461607091
 21
227.67490692635701
  0
LINE
  8
_0-1_作画層１
  6
CONTINUOUS
 62
    7
 10
70.370964629331695
 20
227.71962433358357
 11
70.469603545347326
 21
227.62098541756797
  0
LINE
  8
_0-1_作画層１
  6
CONTINUOUS
 62
    7
 10
70.329553038755535
 20
227.64788666268515
 11
70.410792357603185
 21
227.56664734383747
  0
LINE
  8
_0-1_作画層１
  6
CONTINUOUS
 62
    7
 10
70.288141448179346
 20
227.57616882821247
 11
70.352396208921533
 21
227.51191406747029
  0
LINE
  8
_0-1_作画層１
  6
CONTINUOUS
 62
    7
 10
70.246729857603185
 20
227.50443115731406
 11
70.294416625181299
 21
227.45676422616171
  0
LINE
  8
_0-1_作画層１
  6
CONTINUOUS
 62
    7
 10
70.205318267026996
 20
227.43271332284138
 11
70.236832244077789
 21
227.40121918221638
  0
LINE
  8
_0-1_作画層１
  6
CONTINUOUS
 62
    7
 10
70.163906676450836
 20
227.36099548836873
 11
70.179643828550439
 21
227.34525833626913
  0
LINE
  8
_0-1_作画層１
  6
CONTINUOUS
 62
    7
 10
70.122495085874675
 20
227.28925781747029
 11
70.122851378599279
 21
227.28890152474568
  0
ARC
  8
_0-1_作画層１
  6
CONTINUOUS
 62
    7
 10
78.041123778501628
 20
219.36797638436494
 40
11.199999999999912
 50
44.999999999999595
 51
135.00000000000045
  0
ARC
  8
_0-1_作画層１
  6
CONTINUOUS
 62
    7
 10
78.0411237785016
 20
219.36797638436485
 40
11.999998474121091
 50
44.999999999999808
 51
118.58175659179673
  0
ARC
  8
_0-1_作画層１
  6
CONTINUOUS
 62
    7
 10
78.0411237785016
 20
219.36797638436482
 40
11.199999999999998
 50
44.999999999999901
 51
135.6326751708983
  0
LINE
  8
_0-1_作画層１
  6
CONTINUOUS
 62
    7
 10
73.114379317442058
 20
216.95806427498985
 11
73.131211669126628
 21
216.94123192330528
  0
LINE
  8
_0-1_作画層１
  6
CONTINUOUS
 62
    7
 10
68.246366889158367
 20
211.78705521126915
 11
68.285759360471843
 21
211.8264228870504
  0
LINE
  8
_0-d_0_1
  6
CONTINUOUS
 62
    7
 10
87.022850575037424
 20
213.41301591706915
 11
87.0826360364632
 21
213.3532380850379
  0
LINE
  8
_0-1_作画層１
  6
CONTINUOUS
 62
    7
 10
85.960722167173486
 20
216.44837799569299
 11
86.526408965269198
 21
215.8826911975973
  0
LINE
  8
_0-1_作画層１
  6
CONTINUOUS
 62
    7
 10
70.121525389829742
 20
216.44837799569299
 11
71.775828749815105
 21
213.58300476571253
  0
LINE
  8
_0-1_作画層１
  6
CONTINUOUS
 62
    7
 10
71.780539900938152
 20
213.5637245227926
 11
72.286821562925439
 21
213.80585937997034
  0
LINE
  8
_0-1_作画層１
  6
CONTINUOUS
 62
    7
 10
85.504423339048486
 20
214.97120209237269
 11
86.471140868345373
 21
215.93793945809534
  0
LINE
  8
_0-1_作画層１
  6
CONTINUOUS
 62
    7
 10
85.041572386900057
 20
214.62151947518518
 11
86.414586455503567
 21
215.99451370736293
  0
LINE
  8
_0-1_作画層１
  6
CONTINUOUS
 62
    7
 10
84.67595501629458
 20
214.36903229256799
 11
86.358011443296533
 21
216.05108871956995
  0
LINE
  8
_0-1_作画層１
  6
CONTINUOUS
 62
    7
 10
84.36053868023501
 20
214.16676483651332
 11
86.301457030454742
 21
216.10764313241174
  0
LINE
  8
_0-1_作画層１
  6
CONTINUOUS
 62
    7
 10
84.077289397398104
 20
213.99664536019495
 11
86.244882018247708
 21
216.16421814461879
  0
LINE
  8
_0-1_作画層１
  6
CONTINUOUS
 62
    7
 10
83.816943175474279
 20
213.84942856331995
 11
86.188307768980138
 21
216.22079239388637
  0
LINE
  8
_0-1_作画層１
  6
CONTINUOUS
 62
    7
 10
83.574036605039709
 20
213.71963120003869
 11
86.131732756773104
 21
216.27736740609339
  0
LINE
  8
_0-1_作画層１
  6
CONTINUOUS
 62
    7
 10
83.34496670452701
 20
213.60371094247034
 11
86.07515850750552
 21
216.33394165536097
  0
LINE
  8
_0-1_作画層１
  6
CONTINUOUS
 62
    7
 10
83.127259261289709
 20
213.49915237923793
 11
86.018603331724279
 21
216.39049683114223
  0
LINE
  8
_0-1_作画層１
  6
CONTINUOUS
 62
    7
 10
82.91913243023501
 20
213.4041755725973
 11
85.962029082456695
 21
216.44707108040978
  0
LINE
  8
_0-1_作画層１
  6
CONTINUOUS
 62
    7
 10
82.719240767637359
 20
213.31739349862269
 11
84.971576506773104
 21
215.56976852914028
  0
LINE
  8
_0-1_作画層１
  6
CONTINUOUS
 62
    7
 10
82.526435668150057
 20
213.23775711556604
 11
84.522740752378567
 21
215.23404236336879
  0
LINE
  8
_0-1_作画層１
  6
CONTINUOUS
 62
    7
 10
82.339965254942044
 20
213.16441574593713
 11
84.167872435728185
 21
214.99232330819299
  0
LINE
  8
_0-1_作画層１
  6
CONTINUOUS
 62
    7
 10
82.159076506773104
 20
213.09667664071253
 11
83.861561782041662
 21
214.79914169808558
  0
LINE
  8
_0-1_作画層１
  6
CONTINUOUS
 62
    7
 10
81.983255965391265
 20
213.03396606942346
 11
83.586349303403964
 21
214.63707886239223
  0
LINE
  8
_0-1_作画層１
  6
CONTINUOUS
 62
    7
 10
81.811987883726232
 20
212.97584686776332
 11
83.333326918760406
 21
214.49718628426723
  0
LINE
  8
_0-1_作画層１
  6
CONTINUOUS
 62
    7
 10
81.644896895567058
 20
212.92188568612269
 11
83.097150618711581
 21
214.37413940926723
  0
LINE
  8
_0-1_作画層１
  6
CONTINUOUS
 62
    7
 10
81.481625945249675
 20
212.87176361581018
 11
82.874415404478185
 21
214.26455307503869
  0
LINE
  8
_0-1_作画層１
  6
CONTINUOUS
 62
    7
 10
81.321898848692058
 20
212.82516632577114
 11
82.662685973325836
 21
214.16595306893518
  0
LINE
  8
_0-1_作画層１
  6
CONTINUOUS
 62
    7
 10
81.16543751446352
 20
212.78183441659144
 11
82.460240752378567
 21
214.07665710946253
  0
LINE
  8
_0-1_作画層１
  6
CONTINUOUS
 62
    7
 10
81.012005049863916
 20
212.74155121346644
 11
82.265752989927392
 21
213.99529877206018
  0
LINE
  8
_0-1_作画層１
  6
CONTINUOUS
 62
    7
 10
80.861423117796051
 20
212.70409851571253
 11
82.078173644224279
 21
213.92086945077114
  0
LINE
  8
_0-1_作画層１
  6
CONTINUOUS
 62
    7
 10
80.713513381162755
 20
212.66933823128869
 11
81.896711165586566
 21
213.85253601571253
  0
LINE
  8
_0-1_作画層１
  6
CONTINUOUS
 62
    7
 10
80.568098075071447
 20
212.63705215951137
 11
81.720692641416662
 21
213.78966675301723
  0
LINE
  8
_0-1_作画層１
  6
CONTINUOUS
 62
    7
 10
80.425057990232574
 20
212.60716171761683
 11
81.549582869688152
 21
213.73168640633753
  0
LINE
  8
_0-1_作画層１
  6
CONTINUOUS
 62
    7
 10
80.284254843870258
 20
212.57948837777309
 11
81.382907302061199
 21
213.67814026375942
  0
LINE
  8
_0-1_作画層１
  6
CONTINUOUS
 62
    7
 10
80.145569808164709
 20
212.55393219491174
 11
81.220290000120258
 21
213.6286529590719
  0
LINE
  8
_0-1_作画層１
  6
CONTINUOUS
 62
    7
 10
80.008903891721843
 20
212.53041611214809
 11
81.061374289671051
 21
213.5828865100973
  0
LINE
  8
_0-1_作画層１
  6
CONTINUOUS
 62
    7
 10
79.874157912412755
 20
212.50879974862269
 11
80.90590286938297
 21
213.54056396981409
  0
LINE
  8
_0-1_作画層１
  6
CONTINUOUS
 62
    7
 10
79.741233260313152
 20
212.48902435799769
 11
80.753618437925439
 21
213.50140915414028
  0
LINE
  8
_0-1_作画層１
  6
CONTINUOUS
 62
    7
 10
79.61005058971989
 20
212.47099075814418
 11
80.604283530393701
 21
213.46522369881799
  0
LINE
  8
_0-1_作画層１
  6
CONTINUOUS
 62
    7
 10
79.480550486723047
 20
212.45462036629846
 11
80.457739836851232
 21
213.43178940316369
  0
LINE
  8
_0-1_作画層１
  6
CONTINUOUS
 62
    7
 10
79.352673632780181
 20
212.43987274666955
 11
80.313769538084131
 21
213.40096817513637
  0
LINE
  8
_0-1_作画層１
  6
CONTINUOUS
 62
    7
 10
79.226301104704021
 20
212.42664948006799
 11
80.17227345196352
 21
213.37260208626918
  0
LINE
  8
_0-1_作画層１
  6
CONTINUOUS
 62
    7
 10
79.101433093229389
 20
212.41491089364223
 11
80.033053977171051
 21
213.34653168221644
  0
LINE
  8
_0-1_作画層１
  6
CONTINUOUS
 62
    7
 10
78.977990348020654
 20
212.40459747811488
 11
79.896031577268701
 21
213.32265854378869
  0
LINE
  8
_0-1_作画層１
  6
CONTINUOUS
 62
    7
 10
78.855933196226232
 20
212.39567032357385
 11
79.761087805906413
 21
213.30082474251918
  0
LINE
  8
_0-1_作画層１
  6
CONTINUOUS
 62
    7
 10
78.735182578245258
 20
212.38804855843713
 11
79.62808399883852
 21
213.28097000619104
  0
LINE
  8
_0-1_作画層１
  6
CONTINUOUS
 62
    7
 10
78.615718609968297
 20
212.38175430794885
 11
79.49698048321352
 21
213.26299591561488
  0
LINE
  8
_0-1_作画層１
  6
CONTINUOUS
 62
    7
 10
78.497481972852825
 20
212.37666626473597
 11
79.367638785520654
 21
213.24680328866174
  0
LINE
  8
_0-1_作画層１
  6
CONTINUOUS
 62
    7
 10
78.380472643056976
 20
212.37276688119104
 11
79.240038973966705
 21
213.23233337899379
  0
LINE
  8
_0-1_作画層１
  6
CONTINUOUS
 62
    7
 10
78.264611417928791
 20
212.37005463143518
 11
79.114062411466705
 21
213.2194862415426
  0
LINE
  8
_0-1_作画層１
  6
CONTINUOUS
 62
    7
 10
78.149898321310161
 20
212.36847153206995
 11
78.989629847684967
 21
213.20820312997034
  0
LINE
  8
_0-1_作画層１
  6
CONTINUOUS
 62
    7
 10
78.036254162842511
 20
212.36797638436488
 11
78.866741377988916
 21
213.19844360848597
  0
LINE
  8
_0-1_作画層１
  6
CONTINUOUS
 62
    7
 10
77.923698742071252
 20
212.36855087777309
 11
78.745278126875036
 21
213.19012985726528
  0
LINE
  8
_0-1_作画層１
  6
CONTINUOUS
 62
    7
 10
77.812172658125036
 20
212.37015381356409
 11
78.625240094343297
 21
213.18322144051723
  0
LINE
  8
_0-1_作画層１
  6
CONTINUOUS
 62
    7
 10
77.701656133810161
 20
212.37278671761683
 11
78.506528384367101
 21
213.17763901253869
  0
LINE
  8
_0-1_作画層１
  6
CONTINUOUS
 62
    7
 10
77.592109591642497
 20
212.37636948128869
 11
78.389123136678791
 21
213.17338333626918
  0
LINE
  8
_0-1_作画層１
  6
CONTINUOUS
 62
    7
 10
77.483552796522247
 20
212.38094254037074
 11
78.272984797636127
 21
213.17037430306604
  0
LINE
  8
_0-1_作画層１
  6
CONTINUOUS
 62
    7
 10
77.375906569639312
 20
212.38642578622034
 11
78.158053941408269
 21
213.16857300301723
  0
LINE
  8
_0-1_作画層１
  6
CONTINUOUS
 62
    7
 10
77.269170910993694
 20
212.39283905526332
 11
78.044310803467511
 21
213.16797943612269
  0
LINE
  8
_0-1_作画層１
  6
CONTINUOUS
 62
    7
 10
77.163326079526996
 20
212.40012360116174
 11
77.931695992628192
 21
213.16851349373988
  0
LINE
  8
_0-1_作画層１
  6
CONTINUOUS
 62
    7
 10
77.058352191129785
 20
212.40827942391564
 11
77.82020951000797
 21
213.1701568653219
  0
LINE
  8
_0-1_作画層１
  6
CONTINUOUS
 62
    7
 10
76.954229552427392
 20
212.41730576058558
 11
77.709791953245258
 21
213.17286835213832
  0
LINE
  8
_0-1_作画層１
  6
CONTINUOUS
 62
    7
 10
76.850938231626628
 20
212.42714462777309
 11
77.600443370023839
 21
213.17664948006799
  0
LINE
  8
_0-1_作画層１
  6
CONTINUOUS
 62
    7
 10
76.748458583036523
 20
212.43781357308558
 11
77.49208451000797
 21
213.18143997689418
  0
LINE
  8
_0-1_作画層１
  6
CONTINUOUS
 62
    7
 10
76.646770674863916
 20
212.44925537606409
 11
77.384754998365509
 21
213.18722000619104
  0
LINE
  8
_0-1_作画層１
  6
CONTINUOUS
 62
    7
 10
76.545874602476232
 20
212.46148911019495
 11
77.278355891386127
 21
213.1939704944723
  0
LINE
  8
_0-1_作画層１
  6
CONTINUOUS
 62
    7
 10
76.445750624815105
 20
212.47449417611293
 11
77.17290697781192
 21
213.20167084237269
  0
LINE
  8
_0-1_作画層１
  6
CONTINUOUS
 62
    7
 10
76.346358878294097
 20
212.48825226327114
 11
77.068408114591705
 21
213.21030121346644
  0
LINE
  8
_0-1_作画層１
  6
CONTINUOUS
 62
    7
 10
76.247719580808734
 20
212.50274200936488
 11
76.964780337492101
 21
213.21982269784144
  0
LINE
  8
_0-1_作画層１
  6
CONTINUOUS
 62
    7
 10
76.149792678037755
 20
212.51796494027309
 11
76.862043387571447
 21
213.2302154590719
  0
LINE
  8
_0-1_作画層１
  6
CONTINUOUS
 62
    7
 10
76.052578551450836
 20
212.53387985726528
 11
76.760177333036523
 21
213.2414588977926
  0
LINE
  8
_0-1_作画層１
  6
CONTINUOUS
 62
    7
 10
75.956057364622211
 20
212.55050812264614
 11
76.65912285534489
 21
213.25357361336879
  0
LINE
  8
_0-1_作画層１
  6
CONTINUOUS
 62
    7
 10
75.86024857250797
 20
212.56782837411097
 11
76.558899886289709
 21
213.2664802600973
  0
LINE
  8
_0-1_作画層１
  6
CONTINUOUS
 62
    7
 10
75.765093047300439
 20
212.58580246468713
 11
76.459488398710363
 21
213.28021774789028
  0
LINE
  8
_0-1_作画層１
  6
CONTINUOUS
 62
    7
 10
75.670610625425439
 20
212.60444946786097
 11
76.360868842283367
 21
213.29472733040978
  0
LINE
  8
_0-1_作画層１
  6
CONTINUOUS
 62
    7
 10
75.576761824766265
 20
212.62375031014614
 11
76.263040930906413
 21
213.31002960702114
  0
LINE
  8
_0-1_作画層１
  6
CONTINUOUS
 62
    7
 10
75.483565909544097
 20
212.64368362923793
 11
76.165945632139312
 21
213.32606354256799
  0
LINE
  8
_0-1_作画層１
  6
CONTINUOUS
 62
    7
 10
75.391003615537755
 20
212.66427078744104
 11
76.069602400938152
 21
213.34286957284144
  0
LINE
  8
_0-1_作画層１
  6
CONTINUOUS
 62
    7
 10
75.299074942747211
 20
212.68545151253869
 11
75.973991782346843
 21
213.36038818856409
  0
LINE
  8
_0-1_作画層１
  6
CONTINUOUS
 62
    7
 10
75.207739836851232
 20
212.7072662403219
 11
75.87909355846989
 21
213.37863922616174
  0
LINE
  8
_0-1_作画層１
  6
CONTINUOUS
 62
    7
 10
75.117018515745258
 20
212.72969360848597
 11
75.784908110776996
 21
213.3975837757223
  0
LINE
  8
_0-1_作画層１
  6
CONTINUOUS
 62
    7
 10
75.026910788694494
 20
212.75271606942346
 11
75.691435248533367
 21
213.41722031136683
  0
LINE
  8
_0-1_作画層１
  6
CONTINUOUS
 62
    7
 10
74.937357527891265
 20
212.77631149789028
 11
75.598615653196447
 21
213.43754959603478
  0
LINE
  8
_0-1_作画層１
  6
CONTINUOUS
 62
    7
 10
74.848417670408367
 20
212.80050125619104
 11
75.506468970457178
 21
213.45855255623988
  0
LINE
  8
_0-1_作画層１
  6
CONTINUOUS
 62
    7
 10
74.760032088438152
 20
212.82524490853478
 11
75.414995391050439
 21
213.48020859261683
  0
LINE
  8
_0-1_作画層１
  6
CONTINUOUS
 62
    7
 10
74.672220809141265
 20
212.85058289071253
 11
75.324175078550439
 21
213.50251770516564
  0
LINE
  8
_0-1_作画層１
  6
CONTINUOUS
 62
    7
 10
74.584963423887359
 20
212.8764556934469
 11
75.233968550840473
 21
213.52547989388637
  0
LINE
  8
_0-1_作画層１
  6
CONTINUOUS
 62
    7
 10
74.498260695615869
 20
212.90288162728478
 11
75.144434935728185
 21
213.54905624886683
  0
LINE
  8
_0-1_作画層１
  6
CONTINUOUS
 62
    7
 10
74.412111861387359
 20
212.92986298104455
 11
75.055495078245258
 21
213.57326584359339
  0
LINE
  8
_0-1_作画層１
  6
CONTINUOUS
 62
    7
 10
74.326478011289709
 20
212.9573982288473
 11
74.967169005552392
 21
213.59806900521448
  0
LINE
  8
_0-1_作画層１
  6
CONTINUOUS
 62
    7
 10
74.241398436704742
 20
212.98542786141564
 11
74.879456526914709
 21
213.62348633309534
  0
LINE
  8
_0-1_作画層１
  6
CONTINUOUS
 62
    7
 10
74.156852919736963
 20
213.01401215096644
 11
74.792337996641265
 21
213.6495170642965
  0
LINE
  8
_0-1_作画層１
  6
CONTINUOUS
 62
    7
 10
74.072822386900043
 20
213.04311142464809
 11
74.705832869688152
 21
213.67612152596644
  0
LINE
  8
_0-1_作画層１
  6
CONTINUOUS
 62
    7
 10
73.989287001768218
 20
213.07272491952114
 11
74.619882399717426
 21
213.70332031747034
  0
LINE
  8
_0-1_作画層１
  6
CONTINUOUS
 62
    7
 10
73.906265837827789
 20
213.10285263558558
 11
74.534505660215473
 21
213.73107300301723
  0
LINE
  8
_0-1_作画層１
  6
CONTINUOUS
 62
    7
 10
73.823759658018218
 20
213.13347626229455
 11
74.449703032651996
 21
213.75942001839809
  0
LINE
  8
_0-1_作画層１
  6
CONTINUOUS
 62
    7
 10
73.741767699400043
 20
213.16461411019495
 11
74.365454680601232
 21
213.78830109139614
  0
LINE
  8
_0-1_作画層１
  6
CONTINUOUS
 62
    7
 10
73.660251052061199
 20
213.19622650643518
 11
74.281760604063152
 21
213.81775589486293
  0
LINE
  8
_0-1_作画層１
  6
CONTINUOUS
 62
    7
 10
73.579209716001628
 20
213.22835464974574
 11
74.198620803037755
 21
213.84774551888637
  0
LINE
  8
_0-1_作画層１
  6
CONTINUOUS
 62
    7
 10
73.498682982603185
 20
213.26093750497034
 11
74.116015441099279
 21
213.87828979989223
  0
LINE
  8
_0-1_作画層１
  6
CONTINUOUS
 62
    7
 10
73.418631179014312
 20
213.29401474496058
 11
74.033964736143218
 21
213.90934830208948
  0
LINE
  8
_0-1_作画層１
  6
CONTINUOUS
 62
    7
 10
73.339034850278949
 20
213.32756805916955
 11
73.952428252378581
 21
213.94096146126918
  0
LINE
  8
_0-1_作画層１
  6
CONTINUOUS
 62
    7
 10
73.259933287778949
 20
213.36161575814418
 11
73.871426207700836
 21
213.97308884164028
  0
LINE
  8
_0-1_作画層１
  6
CONTINUOUS
 62
    7
 10
73.181286818662755
 20
213.3960990955465
 11
73.790939147153949
 21
214.00575104256799
  0
LINE
  8
_0-1_作画層１
  6
CONTINUOUS
 62
    7
 10
73.103115660825836
 20
213.43105698128869
 11
73.710966689268218
 21
214.03890762826137
  0
LINE
  8
_0-1_作画層１
  6
CONTINUOUS
 62
    7
 10
73.025399977842426
 20
213.46649017831018
 11
73.631508452573883
 21
214.07257919808558
  0
LINE
  8
_0-1_作画層１
  6
CONTINUOUS
 62
    7
 10
72.948139388242822
 20
213.50235901375942
 11
73.552525908628581
 21
214.10676575204064
  0
LINE
  8
_0-1_作画層１
  6
CONTINUOUS
 62
    7
 10
72.871333892026996
 20
213.53870316048793
 11
73.474077422300439
 21
214.14142685433558
  0
LINE
  8
_0-1_作画層１
  6
CONTINUOUS
 62
    7
 10
72.794983870664709
 20
213.57548294564418
 11
73.396104247251628
 21
214.17660294076137
  0
LINE
  8
_0-1_作画層１
  6
CONTINUOUS
 62
    7
 10
72.719069487730138
 20
213.61269760628869
 11
73.318665511289709
 21
214.21227417489223
  0
LINE
  8
_0-1_作画層１
  6
CONTINUOUS
 62
    7
 10
72.643610198179346
 20
213.65038757821253
 11
73.241662413755535
 21
214.24841995736293
  0
LINE
  8
_0-1_作画層１
  6
CONTINUOUS
 62
    7
 10
72.568586165586566
 20
213.68849335213832
 11
73.165173537412755
 21
214.28506088753869
  0
LINE
  8
_0-1_作画層１
  6
CONTINUOUS
 62
    7
 10
72.493998152891265
 20
213.72703476449183
 11
73.089159972349279
 21
214.32217712899379
  0
LINE
  8
_0-1_作画層１
  6
CONTINUOUS
 62
    7
 10
72.419845397153949
 20
213.76603088875942
 11
73.013601882139312
 21
214.35976791878869
  0
LINE
  8
_0-1_作画層１
  6
CONTINUOUS
 62
    7
 10
72.346127898374675
 20
213.80544357796839
 11
72.938538558164709
 21
214.39785385628869
  0
LINE
  8
_0-1_作画層１
  6
CONTINUOUS
 62
    7
 10
72.184440810361963
 20
213.75688553353478
 11
72.863930327573883
 21
214.43637543221644
  0
LINE
  8
_0-1_作画層１
  6
CONTINUOUS
 62
    7
 10
71.967604643980138
 20
213.6531791736715
 11
72.789797408262359
 21
214.47537231942346
  0
LINE
  8
_0-1_作画層１
  6
CONTINUOUS
 62
    7
 10
71.737524993101232
 20
213.64937820931604
 11
72.642897612730138
 21
214.55475082894495
  0
LINE
  8
_0-1_作画層１
  6
CONTINUOUS
 62
    7
 10
71.696113402525043
 20
213.72109604378869
 11
72.570130355039709
 21
214.59513245125942
  0
LINE
  8
_0-1_作画層１
  6
CONTINUOUS
 62
    7
 10
71.654702193418615
 20
213.79283371468713
 11
72.497838408628581
 21
214.63597031136683
  0
LINE
  8
_0-1_作画層１
  6
CONTINUOUS
 62
    7
 10
71.613290221372722
 20
213.86457138558558
 11
72.425981719175439
 21
214.67724304696253
  0
LINE
  8
_0-1_作画層１
  6
CONTINUOUS
 62
    7
 10
71.571878630796533
 20
213.9362701465719
 11
72.354580504575836
 21
214.71897125741174
  0
LINE
  8
_0-1_作画層１
  6
CONTINUOUS
 62
    7
 10
71.530467803159809
 20
214.00800781747034
 11
72.283614928403949
 21
214.76115494271448
  0
LINE
  8
_0-1_作画層１
  6
CONTINUOUS
 62
    7
 10
71.489056212583648
 20
214.07974548836879
 11
72.213104445615869
 21
214.80377426644495
  0
LINE
  8
_0-1_作画層１
  6
CONTINUOUS
 62
    7
 10
71.447644622007488
 20
214.15144348641564
 11
72.143009764829742
 21
214.84682846566369
  0
LINE
  8
_0-1_作画層１
  6
CONTINUOUS
 62
    7
 10
71.406233031431299
 20
214.22318115731409
 11
72.073370177427392
 21
214.89031830331018
  0
LINE
  8
_0-1_作画層１
  6
CONTINUOUS
 62
    7
 10
71.364841277280902
 20
214.29491882821253
 11
72.004166228452789
 21
214.93426361581018
  0
LINE
  8
_0-1_作画層１
  6
CONTINUOUS
 62
    7
 10
71.323409850278949
 20
214.36663666268518
 11
71.935397917905902
 21
214.97860489388637
  0
LINE
  8
_0-1_作画層１
  6
CONTINUOUS
 62
    7
 10
71.281998259702789
 20
214.4383552600973
 11
71.867045027891265
 21
215.02342148324183
  0
LINE
  8
_0-1_作画層１
  6
CONTINUOUS
 62
    7
 10
71.240606505552392
 20
214.51009293099574
 11
71.799147612730138
 21
215.06863403817346
  0
LINE
  8
_0-1_作画層１
  6
CONTINUOUS
 62
    7
 10
71.199194914976232
 20
214.58181076546839
 11
71.731665618101232
 21
215.11428146859339
  0
LINE
  8
_0-1_作画層１
  6
CONTINUOUS
 62
    7
 10
71.157783324400043
 20
214.65352859994104
 11
71.664599425474279
 21
215.16036453744104
  0
LINE
  8
_0-1_作画層１
  6
CONTINUOUS
 62
    7
 10
71.116371733823883
 20
214.72526627083948
 11
71.597968871275043
 21
215.20688324471644
  0
LINE
  8
_0-1_作画層１
  6
CONTINUOUS
 62
    7
 10
71.074960143247722
 20
214.79698410531213
 11
71.531754119077789
 21
215.25379791756799
  0
LINE
  8
_0-1_作画層１
  6
CONTINUOUS
 62
    7
 10
71.033548552671533
 20
214.86870193978478
 11
71.465975005308252
 21
215.3011482288473
  0
LINE
  8
_0-1_作画層１
  6
CONTINUOUS
 62
    7
 10
70.992137725034809
 20
214.94044037362269
 11
71.400591094175439
 21
215.34891357918909
  0
LINE
  8
_0-1_作画層１
  6
CONTINUOUS
 62
    7
 10
70.950726134458648
 20
215.01217804452114
 11
71.335662657896137
 21
215.3970954944723
  0
LINE
  8
_0-1_作画層１
  6
CONTINUOUS
 62
    7
 10
70.909314543882488
 20
215.08389587899379
 11
71.271111113706695
 21
215.44569244881799
  0
LINE
  8
_0-1_作画層１
  6
CONTINUOUS
 62
    7
 10
70.867902953306299
 20
215.15561371346644
 11
71.206994445005535
 21
215.49472504159144
  0
LINE
  8
_0-1_作画層１
  6
CONTINUOUS
 62
    7
 10
70.826491362730138
 20
215.22735138436488
 11
71.143293578306299
 21
215.54415359994104
  0
LINE
  8
_0-1_作画層１
  6
CONTINUOUS
 62
    7
 10
70.785079772153949
 20
215.29906921883753
 11
71.079988677183252
 21
215.5939979602926
  0
LINE
  8
_0-1_作画層１
  6
CONTINUOUS
 62
    7
 10
70.743668181577789
 20
215.37078705331018
 11
71.017118651548486
 21
215.64425812264614
  0
LINE
  8
_0-1_作画層１
  6
CONTINUOUS
 62
    7
 10
70.702256591001628
 20
215.44252548714809
 11
70.954645354429346
 21
215.69491348763637
  0
LINE
  8
_0-1_作画層１
  6
CONTINUOUS
 62
    7
 10
70.660845000425439
 20
215.51424332162074
 11
70.892587096372722
 21
215.74600525399379
  0
LINE
  8
_0-1_作画層１
  6
CONTINUOUS
 62
    7
 10
70.619433409849279
 20
215.58596115609339
 11
70.830945403257488
 21
215.79749222298793
  0
LINE
  8
_0-1_作画層１
  6
CONTINUOUS
 62
    7
 10
70.57802181927309
 20
215.65769882699183
 11
70.769698912778949
 21
215.84937592049769
  0
LINE
  8
_0-1_作画層１
  6
CONTINUOUS
 62
    7
 10
70.536610228696929
 20
215.72943649789028
 11
70.708868224302392
 21
215.90169449349574
  0
LINE
  8
_0-1_作画層１
  6
CONTINUOUS
 62
    7
 10
70.495198638120769
 20
215.80115433236293
 11
70.648453337827789
 21
215.95438919564418
  0
LINE
  8
_0-1_作画層１
  6
CONTINUOUS
 62
    7
 10
70.453787810484044
 20
215.87287216683558
 11
70.588434416929346
 21
216.00751953622034
  0
LINE
  8
_0-1_作画層１
  6
CONTINUOUS
 62
    7
 10
70.412376219907856
 20
215.94460983773402
 11
70.528811461607091
 21
216.06104584237269
  0
LINE
  8
_0-1_作画層１
  6
CONTINUOUS
 62
    7
 10
70.370964629331695
 20
216.01632843514614
 11
70.469603545347326
 21
216.11496735116174
  0
LINE
  8
_0-1_作画層１
  6
CONTINUOUS
 62
    7
 10
70.329553038755535
 20
216.08806610604455
 11
70.410792357603185
 21
216.16930542489223
  0
LINE
  8
_0-1_作画層１
  6
CONTINUOUS
 62
    7
 10
70.288141448179346
 20
216.15978394051723
 11
70.352396208921533
 21
216.22403870125942
  0
LINE
  8
_0-1_作画層１
  6
CONTINUOUS
 62
    7
 10
70.246729857603185
 20
216.23152161141564
 11
70.294416625181299
 21
216.27918854256799
  0
LINE
  8
_0-1_作画層１
  6
CONTINUOUS
 62
    7
 10
70.205318267026996
 20
216.30323944588832
 11
70.236832244077789
 21
216.33473358651332
  0
LINE
  8
_0-1_作画層１
  6
CONTINUOUS
 62
    7
 10
70.163906676450836
 20
216.37495728036097
 11
70.179643828550439
 21
216.39069443246058
  0
LINE
  8
_0-1_作画層１
  6
CONTINUOUS
 62
    7
 10
70.122495085874675
 20
216.44669495125942
 11
70.122851378599279
 21
216.44705124398402
  0
ARC
  8
_0-1_作画層１
  6
CONTINUOUS
 62
    7
 10
78.041123778501628
 20
224.36797638436477
 40
11.199999999999912
 50
224.99999999999952
 51
315.0000000000004
  0
ARC
  8
_0-1_作画層１
  6
CONTINUOUS
 62
    7
 10
78.0411237785016
 20
224.36797638436485
 40
11.999998474121091
 50
241.41824340820324
 51
315.00000000000017
  0
ARC
  8
_0-1_作画層１
  6
CONTINUOUS
 62
    7
 10
78.0411237785016
 20
224.36797638436488
 40
11.199999999999998
 50
224.36732482910168
 51
315.00000000000011
  0
TEXT
  8
_0-d_0_1
 62
    7
 10
45.134885648652585
 20
251.00327013865052
 40
5
 41
1
 50
0
  1
OFF
  0
TEXT
  8
_0-d_0_1
 62
    7
 10
103.88488564865258
 20
243.50327013865052
 40
5
 41
1
 50
0
  1
PL
  0
TEXT
  8
_0-d_0_1
 62
    7
 10
102.63488564865258
 20
188.50327013865052
 40
5
 41
1
 50
0
  1
OUT
  0
TEXT
  8
_0-d_0_1
 62
    7
 10
52.634885648652585
 20
188.50327013865052
 40
5
 41
1
 50
0
  1
SPARE
  0
TEXT
  8
_0-d_0_1
 62
    7
 10
66.384885648652585
 20
251.00327013865052
 40
5
 41
1
 50
0
  1
ON
  0
TEXT
  8
_0-7_注記層１
 62
    7
 10
363.75
 20
28
 40
3.5
 41
1
 50
0
  1
２４時間タイムスイッチ
  0
TEXT
  8
_0-7_注記層１
 62
    7
 10
345.54112377850163
 20
26.867976384364852
 40
4
 41
1
 50
0
  1
平野
  0
TEXT
  8
_0-7_注記層１
 62
    7
 10
306.25
 20
243
 40
3.5
 41
1
 50
0
  1
200時間（リチウム電池使用）
  0
TEXT
  8
_0-7_注記層１
 62
    7
 10
363.75
 20
17.25
 40
5
 41
1
 50
0
  1
ST-702S-001-02
  0
TEXT
  8
_0-7_注記層１
 62
    7
 10
306.25
 20
258
 40
3.5
 41
1
 50
0
  1
AC100V 又は AC200V
  0
TEXT
  8
_0-7_注記層１
 62
    7
 10
306.25
 20
248
 40
3.5
 41
1
 50
0
  1
50Hz/60Hz共用
  0
TEXT
  8
_0-7_注記層１
 62
    7
 10
306.25
 20
228
 40
3.5
 41
1
 50
0
  1
35%RH～85％RH
  0
TEXT
  8
_0-7_注記層１
 62
    7
 10
306.25
 20
213
 40
3.5
 41
1
 50
0
  1
1日24回　ON-OFF動作
  0
TEXT
  8
_0-7_注記層１
 62
    7
 10
306.25
 20
188
 40
3.5
 41
1
 50
0
  1
H89×W72×D77mm
  0
LINE
  8
_0-1_作画層１
  6
CONTINUOUS
 62
    7
 10
114.05439379836763
 20
170.07986590790509
 11
42.054363280789516
 21
170.07986590790509
  0
LINE
  8
_0-1_作画層１
  6
CONTINUOUS
 62
    7
 10
112.55432131911958
 20
171.57864960215935
 11
43.554363280789516
 21
171.57864960215935
  0
LINE
  8
_0-1_作画層１
  6
CONTINUOUS
 62
    7
 10
98.054363280789488
 20
170.07986590790509
 11
98.054363280789488
 21
171.57864960215935
  0
LINE
  8
_0-1_作画層１
  6
CONTINUOUS
 62
    7
 10
92.054480582865992
 20
170.07986590790509
 11
92.054480582865992
 21
171.57864960215935
  0
LINE
  8
_0-1_作画層１
  6
CONTINUOUS
 62
    7
 10
58.054363280789516
 20
170.07986590790509
 11
58.054363280789516
 21
171.57864960215935
  0
LINE
  8
_0-1_作画層１
  6
CONTINUOUS
 62
    7
 10
64.054286033297672
 20
170.07986590790509
 11
64.054286033297672
 21
171.57864960215935
  0
CIRCLE
  8
_0-1_作画層１
  6
CONTINUOUS
 62
    7
 10
54.854363280789471
 20
180.07986590790509
 40
3.5
  0
CIRCLE
  8
_0-1_作画層１
  6
CONTINUOUS
 62
    7
 10
66.004363280789505
 20
180.07986590790509
 40
3.5
  0
CIRCLE
  8
_0-1_作画層１
  6
CONTINUOUS
 62
    7
 10
90.104363280789499
 20
180.07986590790509
 40
3.5
  0
CIRCLE
  8
_0-1_作画層１
  6
CONTINUOUS
 62
    7
 10
101.25436328078951
 20
180.07986590790509
 40
3.5
  0
LINE
  8
_0-1_作画層１
  6
CONTINUOUS
 62
    7
 10
50.604363280789471
 20
175.33151928821226
 11
59.104363280789471
 21
175.33151928821226
  0
LINE
  8
_0-1_作画層１
  6
CONTINUOUS
 62
    7
 10
61.754363280789505
 20
175.33151928821226
 11
70.254363280789505
 21
175.33151928821226
  0
LINE
  8
_0-1_作画層１
  6
CONTINUOUS
 62
    7
 10
85.854363280789499
 20
175.33151928821226
 11
94.354363280789499
 21
175.33151928821226
  0
LINE
  8
_0-1_作画層１
  6
CONTINUOUS
 62
    7
 10
97.004363280789505
 20
175.33151928821226
 11
105.50436328078951
 21
175.33151928821226
  0
LINE
  8
_0-1_作画層１
  6
CONTINUOUS
 62
    7
 10
42.054363280789516
 20
187.82990019746705
 11
42.054363280789516
 21
170.07986590790509
  0
LINE
  8
_0-1_作画層１
  6
CONTINUOUS
 62
    7
 10
43.554363280789516
 20
185.89340753941673
 11
43.554363280789516
 21
171.57864960215935
  0
LINE
  8
_0-1_作画層１
  6
CONTINUOUS
 62
    7
 10
50.604363280789471
 20
171.57864960215935
 11
50.604363280789471
 21
185.79193914765403
  0
LINE
  8
_0-1_作画層１
  6
CONTINUOUS
 62
    7
 10
59.104363280789471
 20
171.57864960215935
 11
59.104363280789471
 21
185.84642337038076
  0
LINE
  8
_0-1_作画層１
  6
CONTINUOUS
 62
    7
 10
61.754363280789505
 20
171.57864960215935
 11
61.754363280789505
 21
185.75653267870649
  0
LINE
  8
_0-1_作画層１
  6
CONTINUOUS
 62
    7
 10
70.254363280789505
 20
171.57864960215935
 11
70.254363280789505
 21
185.81756609255615
  0
LINE
  8
_0-1_作画層１
  6
CONTINUOUS
 62
    7
 10
85.854363280789499
 20
171.57864960215935
 11
85.854363280789499
 21
185.81756609255615
  0
LINE
  8
_0-1_作画層１
  6
CONTINUOUS
 62
    7
 10
97.004363280789505
 20
171.57864960215935
 11
97.004363280789505
 21
185.75653267870649
  0
LINE
  8
_0-1_作画層１
  6
CONTINUOUS
 62
    7
 10
94.354363280789499
 20
171.57864960215935
 11
94.354363280789499
 21
185.75653267870649
  0
LINE
  8
_0-1_作画層１
  6
CONTINUOUS
 62
    7
 10
105.50436328078951
 20
171.57864960215935
 11
105.50436328078951
 21
185.71505831294786
  0
LINE
  8
_0-1_作画層１
  6
CONTINUOUS
 62
    7
 10
114.05439379836763
 20
170.07986590790509
 11
114.05439379836763
 21
187.82986586519166
  0
LINE
  8
_0-1_作画層１
  6
CONTINUOUS
 62
    7
 10
112.55432131911958
 20
185.89337419208795
 11
112.55432131911958
 21
171.47864960215935
  0
LINE
  8
_0-1_作画層１
  6
CONTINUOUS
 62
    7
 10
42.041127593198894
 20
156.86797638436485
 11
114.04115429607974
 21
156.86795888683457
  0
LINE
  8
_0-1_作画層１
  6
CONTINUOUS
 62
    7
 10
42.041127635912289
 20
119.36796875497032
 11
114.04115433879313
 21
119.36795158883265
  0
LINE
  8
_0-1_作画層１
  6
CONTINUOUS
 62
    7
 10
73.041123778501628
 20
142.86796899339257
 11
73.041123778501628
 21
156.8679688507097
  0
LINE
  8
_0-1_作画層１
  6
CONTINUOUS
 62
    7
 10
83.041123778501614
 20
142.86796660920766
 11
83.041123778501614
 21
156.86796642049805
  0
LINE
  8
_0-1_作画層１
  6
CONTINUOUS
 62
    7
 10
93.66612382121501
 20
143.99296407601116
 11
61.791123821214967
 21
143.99297167560059
  0
LINE
  8
_0-1_作画層１
  6
CONTINUOUS
 62
    7
 10
61.791123778501571
 20
142.86797167560061
 11
61.791123778501571
 21
143.99297167560059
  0
LINE
  8
_0-1_作画層１
  6
CONTINUOUS
 62
    7
 10
93.666123778501614
 20
142.86796407601119
 11
93.666123778501614
 21
143.99296407601116
  0
LINE
  8
_0-1_作画層１
  6
CONTINUOUS
 62
    7
 10
93.66612382121501
 20
147.99296407601116
 11
61.791123821214967
 21
147.99297167560059
  0
LINE
  8
_0-1_作画層１
  6
CONTINUOUS
 62
    7
 10
93.666123778501614
 20
147.99296407601116
 11
93.666123778501614
 21
148.61796407601119
  0
LINE
  8
_0-1_作画層１
  6
CONTINUOUS
 62
    7
 10
93.66612382121501
 20
148.61796407601116
 11
61.791123821214967
 21
148.61797167560059
  0
LINE
  8
_0-1_作画層１
  6
CONTINUOUS
 62
    7
 10
61.791123778501571
 20
147.99297167560059
 11
61.791123778501571
 21
148.61797167560059
  0
LINE
  8
_0-1_作画層１
  6
CONTINUOUS
 62
    7
 10
63.041123778501571
 20
147.99297137757745
 11
63.041123778501571
 21
143.99297137757748
  0
LINE
  8
_0-1_作画層１
  6
CONTINUOUS
 62
    7
 10
71.791123778501571
 20
147.99296929141568
 11
71.791123778501571
 21
143.9929643740343
  0
LINE
  8
_0-1_作画層１
  6
CONTINUOUS
 62
    7
 10
64.916123778501571
 20
147.99297093054278
 11
64.916123778501571
 21
143.9929643740343
  0
LINE
  8
_0-1_作画層１
  6
CONTINUOUS
 62
    7
 10
92.416123778501614
 20
147.99296437403427
 11
92.416123778501614
 21
143.99296437403427
  0
LINE
  8
_0-1_作画層１
  6
CONTINUOUS
 62
    7
 10
85.541123778501614
 20
147.99296601316141
 11
85.541123778501614
 21
143.9929643740343
  0
LINE
  8
_0-1_作画層１
  6
CONTINUOUS
 62
    7
 10
78.666123778501571
 20
147.99296765228851
 11
78.666123778501571
 21
143.9929643740343
  0
ARC
  8
_0-1_作画層１
  6
CONTINUOUS
 62
    7
 10
105.4161237785016
 20
144.99296061894304
 40
1.5000000000000142
 50
90.000013660373455
 51
179.99999999999892
  0
LINE
  8
_0-1_作画層１
  6
CONTINUOUS
 62
    7
 10
105.41612342087386
 20
146.49296061894302
 11
105.66612337816046
 21
146.49296067854763
  0
ARC
  8
_0-1_作画層１
  6
CONTINUOUS
 62
    7
 10
105.66612370558525
 20
144.99296060563134
 40
1.5000000729163292
 50
0.0000027851981984
 51
90.00001250670492
  0
LINE
  8
_0-1_作画層１
  6
CONTINUOUS
 62
    7
 10
103.91612377850159
 20
142.8679753412849
 11
103.91612377850159
 21
144.99296061894307
  0
LINE
  8
_0-1_作画層１
  6
CONTINUOUS
 62
    7
 10
107.16612377850159
 20
142.86797456642481
 11
107.16612377850159
 21
144.99296067854766
  0
LINE
  8
_0-1_作画層１
  6
CONTINUOUS
 62
    7
 10
53.041123778501628
 20
142.86797376176236
 11
53.041123778501628
 21
148.36797638436485
  0
ARC
  8
_0-1_作画層１
  6
CONTINUOUS
 62
    7
 10
52.041123778501628
 20
148.36797638436485
 40
1
 50
0
 51
90.00000000000081
  0
LINE
  8
_0-1_作画層１
  6
CONTINUOUS
 62
    7
 10
48.041123778501628
 20
142.86797495385483
 11
48.041123778501628
 21
145.86797638436485
  0
ARC
  8
_0-1_作画層１
  6
CONTINUOUS
 62
    7
 10
47.041123778501628
 20
145.86797638436485
 40
1
 50
0
 51
90.00000000000081
  0
LINE
  8
_0-1_作画層１
  6
CONTINUOUS
 62
    7
 10
52.041123778501628
 20
149.36797638436485
 11
46.541123778501628
 21
149.36797638436485
  0
ARC
  8
_0-1_作画層１
  6
CONTINUOUS
 62
    7
 10
46.5411237785016
 20
148.36797638436485
 40
1
 50
89.99999999999919
 51
180
  0
LINE
  8
_0-1_作画層１
  6
CONTINUOUS
 62
    7
 10
47.041123778501628
 20
146.86797638436485
 11
46.541123778501628
 21
146.86797638436485
  0
LINE
  8
_0-1_作画層１
  6
CONTINUOUS
 62
    7
 10
45.541123778501628
 20
148.36797638436485
 11
45.541123778501628
 21
147.86797638436485
  0
ARC
  8
_0-1_作画層１
  6
CONTINUOUS
 62
    7
 10
46.5411237785016
 20
147.86797638436485
 40
1
 50
180
 51
270.0000000000008
  0
LINE
  8
_0-1_作画層１
  6
CONTINUOUS
 62
    7
 10
55.541123778501628
 20
142.86797376176236
 11
55.541123778501628
 21
148.36797638436485
  0
ARC
  8
_0-1_作画層１
  6
CONTINUOUS
 62
    7
 10
54.541123778501628
 20
148.36797638436485
 40
1
 50
0
 51
90.00000000000081
  0
LINE
  8
_0-1_作画層１
  6
CONTINUOUS
 62
    7
 10
54.541123778501628
 20
149.36797638436485
 11
49.041123778501628
 21
149.36797638436485
  0
LINE
  8
_0-1_作画層１
  6
CONTINUOUS
 62
    7
 10
42.041127593198894
 20
140.36797638436485
 11
114.04115429607974
 21
140.36795921822716
  0
LINE
  8
_0-1_作画層１
  6
CONTINUOUS
 62
    7
 10
73.291123821215024
 20
140.36796893378792
 11
42.041127593198894
 21
140.36797638436485
  0
LINE
  8
_0-1_作画層１
  6
CONTINUOUS
 62
    7
 10
42.041127593198894
 20
134.36796875497029
 11
42.041127593198894
 21
156.86797638436485
  0
LINE
  8
_0-1_作画層１
  6
CONTINUOUS
 62
    7
 10
42.041127593198894
 20
134.36796875497029
 11
114.04115433879312
 21
134.36795158883263
  0
LINE
  8
_0-1_作画層１
  6
CONTINUOUS
 62
    7
 10
114.04115429607974
 20
134.36795158883263
 11
114.04115429607974
 21
156.86795888683457
  0
LINE
  8
_0-1_作画層１
  6
CONTINUOUS
 62
    7
 10
114.04115429607972
 20
142.86795921822716
 11
42.041127635912289
 21
142.86797638436485
  0
LINE
  8
_0-1_作画層１
  6
CONTINUOUS
 62
    7
 10
42.041127593198894
 20
108.86796875497032
 11
42.041127593198894
 21
119.36797638436485
  0
LINE
  8
_0-1_作画層１
  6
CONTINUOUS
 62
    7
 10
114.04115429607974
 20
108.86795158883263
 11
114.04115429607974
 21
119.36795888683457
  0
LINE
  8
_0-1_作画層１
  6
CONTINUOUS
 62
    7
 10
111.79113140789615
 20
134.36795212527969
 11
111.79113140789615
 21
119.36797638436485
  0
LINE
  8
_0-1_作画層１
  6
CONTINUOUS
 62
    7
 10
44.291127593198894
 20
134.36796821852872
 11
44.291127593198894
 21
119.36797638436485
  0
LINE
  8
_0-1_作画層１
  6
CONTINUOUS
 62
    7
 10
64.041046531009783
 20
120.3679635097829
 11
58.041123778501628
 21
119.36797638436485
  0
LINE
  8
_0-1_作画層１
  6
CONTINUOUS
 62
    7
 10
92.041201025993445
 20
120.36796350978287
 11
98.0411237785016
 21
119.36797638436485
  0
LINE
  8
_0-1_作画層１
  6
CONTINUOUS
 62
    7
 10
92.041241080578104
 20
120.36795683401877
 11
64.041046531009783
 21
120.3679635097829
  0
LINE
  8
_0-1_作画層１
  6
CONTINUOUS
 62
    7
 10
94.341123778501611
 20
105.36800103578493
 11
94.341123778501611
 21
117.36800103578493
  0
LINE
  8
_0-1_作画層１
  6
CONTINUOUS
 62
    7
 10
94.341123778501611
 20
117.36800103578493
 11
94.341123778501611
 21
109.36800103578493
  0
LINE
  8
_0-1_作画層１
  6
CONTINUOUS
 62
    7
 10
96.991123778501617
 20
105.36800103578493
 11
96.991123778501617
 21
117.36800103578493
  0
LINE
  8
_0-1_作画層１
  6
CONTINUOUS
 62
    7
 10
96.991123778501617
 20
117.36800103578493
 11
96.991123778501617
 21
109.36800103578493
  0
ARC
  8
_0-1_作画層１
  6
CONTINUOUS
 62
    7
 10
99.716123778501625
 20
111.34600355631066
 40
1.5000000000000142
 50
90.00000000000054
 51
179.99999999999892
  0
LINE
  8
_0-1_作画層１
  6
CONTINUOUS
 62
    7
 10
99.716123778501611
 20
112.84600355631069
 11
102.96612377850161
 21
112.84600355631069
  0
ARC
  8
_0-1_作画層１
  6
CONTINUOUS
 62
    7
 10
102.9661237785016
 20
111.34600355631066
 40
1.5000000000000284
 50
0.0000000000010856
 51
89.99999999999946
  0
LINE
  8
_0-1_作画層１
  6
CONTINUOUS
 62
    7
 10
98.216123778501611
 20
111.34600355631069
 11
98.216123778501611
 21
110.84600355631069
  0
ARC
  8
_0-1_作画層１
  6
CONTINUOUS
 62
    7
 10
98.716123778501597
 20
110.84600355631068
 40
0.4999999999999856
 50
179.99999999999838
 51
270.00000000000159
  0
LINE
  8
_0-1_作画層１
  6
CONTINUOUS
 62
    7
 10
98.716123778501611
 20
110.34600355631069
 11
103.96612377850161
 21
110.34600355631069
  0
LINE
  8
_0-1_作画層１
  6
CONTINUOUS
 62
    7
 10
104.46612377850161
 20
111.34600355631069
 11
104.46612377850161
 21
110.84600355631069
  0
ARC
  8
_0-1_作画層１
  6
CONTINUOUS
 62
    7
 10
103.96612377850163
 20
110.84600355631068
 40
0.4999999999999856
 50
269.99999999999835
 51
0.0000000000016666
  0
ARC
  8
_0-1_作画層１
  6
CONTINUOUS
 62
    7
 10
98.410488454722085
 20
110.49360355631082
 40
0.5000000000001421
 50
270.00000000000489
 51
296.58704853183519
  0
ARC
  8
_0-1_作画層１
  6
CONTINUOUS
 62
    7
 10
98.759911057735152
 20
109.86800355630947
 40
0.499999999998792
 50
269.99999999998209
 51
288.45144842303034
  0
LINE
  8
_0-1_作画層１
  6
CONTINUOUS
 62
    7
 10
98.918161531463284
 20
109.39370745937886
 11
99.701586025539967
 21
109.65509965324252
  0
ARC
  8
_0-1_作画層１
  6
CONTINUOUS
 62
    7
 10
99.859836499268312
 20
109.18080355631029
 40
0.5000000000003842
 50
90.000000000004903
 51
108.45144842299523
  0
LINE
  8
_0-1_作画層１
  6
CONTINUOUS
 62
    7
 10
98.634266933034539
 20
110.04647584229131
 11
99.047980623968684
 21
110.25353127033004
  0
ARC
  8
_0-1_作画層１
  6
CONTINUOUS
 62
    7
 10
99.271759102281138
 20
109.80640355631054
 40
0.5000000000001423
 50
90.000000000004903
 51
116.58704853183521
  0
LINE
  8
_0-1_作画層１
  6
CONTINUOUS
 62
    7
 10
99.859836499268269
 20
109.68080355631068
 11
102.822411057735
 21
109.68080355631068
  0
ARC
  8
_0-1_作画層１
  6
CONTINUOUS
 62
    7
 10
102.82241105773494
 20
109.18080355631028
 40
0.5000000000003979
 50
71.548551577005298
 51
89.999999999993491
  0
LINE
  8
_0-1_作画層１
  6
CONTINUOUS
 62
    7
 10
102.98066153146328
 20
109.65509965324252
 11
103.76408602553997
 21
109.39370745937885
  0
ARC
  8
_0-1_作画層１
  6
CONTINUOUS
 62
    7
 10
103.92233649926814
 20
109.86800355631001
 40
0.4999999999993328
 50
251.54855157698523
 51
270.00000000001307
  0
ARC
  8
_0-1_作画層１
  6
CONTINUOUS
 62
    7
 10
103.95925910228114
 20
110.49360355631082
 40
0.5000000000001421
 50
243.41295146816481
 51
269.99999999999511
  0
LINE
  8
_0-1_作画層１
  6
CONTINUOUS
 62
    7
 10
103.73548062396868
 20
110.04647584229131
 11
103.32176693303452
 21
110.25353127033004
  0
LINE
  8
_0-1_作画層１
  6
CONTINUOUS
 62
    7
 10
99.271759102281095
 20
110.30640355631068
 11
103.09798845472211
 21
110.30640355631068
  0
ARC
  8
_0-1_作画層１
  6
CONTINUOUS
 62
    7
 10
103.0979884547221
 20
109.80640355631066
 40
0.5000000000000277
 50
63.412951468161879
 51
89.999999999998352
  0
LINE
  8
_0-1_作画層１
  6
CONTINUOUS
 62
    7
 10
105.49112377850162
 20
109.36800355631068
 11
98.216123778501611
 21
109.36800355631068
  0
LINE
  8
_0-1_作画層１
  6
CONTINUOUS
 62
    7
 10
105.49112377850162
 20
109.36800355631068
 11
103.92233649926825
 21
109.36800355631068
  0
LINE
  8
_0-1_作画層１
  6
CONTINUOUS
 62
    7
 10
105.49112377850162
 20
109.99360355631067
 11
103.9592591022811
 21
109.99360355631067
  0
LINE
  8
_0-1_作画層１
  6
CONTINUOUS
 62
    7
 10
96.991123778501617
 20
109.99360355631067
 11
98.410488454722127
 21
109.99360355631067
  0
LINE
  8
_0-1_作画層１
  6
CONTINUOUS
 62
    7
 10
96.991123778501617
 20
109.36800355631068
 11
98.759911057734996
 21
109.36800355631068
  0
ARC
  8
_0-1_作画層１
  6
CONTINUOUS
 62
    7
 10
88.56612377850162
 20
111.34600103578491
 40
1.5000000000000142
 50
90.00000000000054
 51
179.99999999999892
  0
LINE
  8
_0-1_作画層１
  6
CONTINUOUS
 62
    7
 10
88.566123778501606
 20
112.84600103578494
 11
91.816123778501606
 21
112.84600103578494
  0
ARC
  8
_0-1_作画層１
  6
CONTINUOUS
 62
    7
 10
91.816123778501591
 20
111.34600103578491
 40
1.5000000000000284
 50
0.0000000000010856
 51
89.99999999999946
  0
LINE
  8
_0-1_作画層１
  6
CONTINUOUS
 62
    7
 10
87.066123778501606
 20
111.34600103578494
 11
87.066123778501606
 21
110.84600103578494
  0
ARC
  8
_0-1_作画層１
  6
CONTINUOUS
 62
    7
 10
87.566123778501591
 20
110.84600103578492
 40
0.4999999999999856
 50
179.99999999999838
 51
270.00000000000159
  0
LINE
  8
_0-1_作画層１
  6
CONTINUOUS
 62
    7
 10
87.566123778501606
 20
110.34600103578494
 11
92.816123778501606
 21
110.34600103578494
  0
LINE
  8
_0-1_作画層１
  6
CONTINUOUS
 62
    7
 10
93.316123778501606
 20
111.34600103578494
 11
93.316123778501606
 21
110.84600103578494
  0
ARC
  8
_0-1_作画層１
  6
CONTINUOUS
 62
    7
 10
92.81612377850162
 20
110.84600103578492
 40
0.4999999999999856
 50
269.99999999999835
 51
0.0000000000016666
  0
ARC
  8
_0-1_作画層１
  6
CONTINUOUS
 62
    7
 10
87.260488454722079
 20
110.49360103578506
 40
0.5000000000001421
 50
270.00000000000489
 51
296.58704853183519
  0
ARC
  8
_0-1_作画層１
  6
CONTINUOUS
 62
    7
 10
87.609911057735147
 20
109.86800103578372
 40
0.499999999998792
 50
269.99999999998209
 51
288.45144842303034
  0
LINE
  8
_0-1_作画層１
  6
CONTINUOUS
 62
    7
 10
87.768161531463278
 20
109.39370493885311
 11
88.551586025539962
 21
109.65509713271676
  0
ARC
  8
_0-1_作画層１
  6
CONTINUOUS
 62
    7
 10
88.709836499268306
 20
109.18080103578454
 40
0.5000000000003842
 50
90.000000000004903
 51
108.45144842299523
  0
LINE
  8
_0-1_作画層１
  6
CONTINUOUS
 62
    7
 10
87.484266933034533
 20
110.04647332176556
 11
87.897980623968678
 21
110.25352874980429
  0
ARC
  8
_0-1_作画層１
  6
CONTINUOUS
 62
    7
 10
88.121759102281132
 20
109.80640103578479
 40
0.5000000000001423
 50
90.000000000004903
 51
116.58704853183521
  0
LINE
  8
_0-1_作画層１
  6
CONTINUOUS
 62
    7
 10
88.709836499268263
 20
109.68080103578492
 11
91.67241105773499
 21
109.68080103578492
  0
ARC
  8
_0-1_作画層１
  6
CONTINUOUS
 62
    7
 10
91.672411057734934
 20
109.18080103578453
 40
0.5000000000003979
 50
71.548551577005298
 51
89.999999999993491
  0
LINE
  8
_0-1_作画層１
  6
CONTINUOUS
 62
    7
 10
91.830661531463278
 20
109.65509713271676
 11
92.614086025539962
 21
109.39370493885309
  0
ARC
  8
_0-1_作画層１
  6
CONTINUOUS
 62
    7
 10
92.772336499268135
 20
109.86800103578426
 40
0.4999999999993328
 50
251.54855157698523
 51
270.00000000001307
  0
ARC
  8
_0-1_作画層１
  6
CONTINUOUS
 62
    7
 10
92.809259102281132
 20
110.49360103578506
 40
0.5000000000001421
 50
243.41295146816481
 51
269.99999999999511
  0
LINE
  8
_0-1_作画層１
  6
CONTINUOUS
 62
    7
 10
92.585480623968678
 20
110.04647332176556
 11
92.171766933034519
 21
110.25352874980429
  0
LINE
  8
_0-1_作画層１
  6
CONTINUOUS
 62
    7
 10
88.121759102281089
 20
110.30640103578493
 11
91.947988454722108
 21
110.30640103578493
  0
ARC
  8
_0-1_作画層１
  6
CONTINUOUS
 62
    7
 10
91.947988454722093
 20
109.8064010357849
 40
0.5000000000000277
 50
63.412951468161879
 51
89.999999999998352
  0
LINE
  8
_0-1_作画層１
  6
CONTINUOUS
 62
    7
 10
94.341123778501611
 20
109.36800103578493
 11
87.066123778501606
 21
109.36800103578493
  0
LINE
  8
_0-1_作画層１
  6
CONTINUOUS
 62
    7
 10
94.341123778501611
 20
109.36800103578493
 11
92.772336499268249
 21
109.36800103578493
  0
LINE
  8
_0-1_作画層１
  6
CONTINUOUS
 62
    7
 10
94.341123778501611
 20
109.99360103578492
 11
92.809259102281089
 21
109.99360103578492
  0
LINE
  8
_0-1_作画層１
  6
CONTINUOUS
 62
    7
 10
85.841123778501611
 20
109.99360103578492
 11
87.260488454722122
 21
109.99360103578492
  0
LINE
  8
_0-1_作画層１
  6
CONTINUOUS
 62
    7
 10
85.841123778501611
 20
109.36800103578493
 11
87.60991105773499
 21
109.36800103578493
  0
LINE
  8
_0-1_作画層１
  6
CONTINUOUS
 62
    7
 10
61.741123778501617
 20
105.36800103578493
 11
61.741123778501617
 21
117.36800103578493
  0
LINE
  8
_0-1_作画層１
  6
CONTINUOUS
 62
    7
 10
61.741123778501617
 20
117.36800103578493
 11
61.741123778501617
 21
109.36800103578493
  0
LINE
  8
_0-1_作画層１
  6
CONTINUOUS
 62
    7
 10
59.091123778501583
 20
105.36800103578493
 11
59.091123778501583
 21
117.36800103578493
  0
LINE
  8
_0-1_作画層１
  6
CONTINUOUS
 62
    7
 10
59.091123778501583
 20
117.36800103578493
 11
59.091123778501583
 21
109.36800103578493
  0
ARC
  8
_0-1_作画層１
  6
CONTINUOUS
 62
    7
 10
56.366123778501589
 20
111.34600355631066
 40
1.5000000000000213
 50
0.0000000000010856
 51
89.999999999999204
  0
LINE
  8
_0-1_作画層１
  6
CONTINUOUS
 62
    7
 10
56.366123778501617
 20
112.84600355631069
 11
53.116123778501617
 21
112.84600355631069
  0
ARC
  8
_0-1_作画層１
  6
CONTINUOUS
 62
    7
 10
53.116123778501617
 20
111.34600355631066
 40
1.5000000000000284
 50
90.00000000000081
 51
179.99999999999892
  0
LINE
  8
_0-1_作画層１
  6
CONTINUOUS
 62
    7
 10
57.866123778501617
 20
111.34600355631069
 11
57.866123778501617
 21
110.84600355631069
  0
ARC
  8
_0-1_作画層１
  6
CONTINUOUS
 62
    7
 10
57.366123778501617
 20
110.84600355631068
 40
0.4999999999999926
 50
269.9999999999992
 51
0.0000000000016284
  0
LINE
  8
_0-1_作画層１
  6
CONTINUOUS
 62
    7
 10
57.366123778501617
 20
110.34600355631069
 11
52.116123778501617
 21
110.34600355631069
  0
LINE
  8
_0-1_作画層１
  6
CONTINUOUS
 62
    7
 10
51.616123778501617
 20
111.34600355631069
 11
51.616123778501617
 21
110.84600355631069
  0
ARC
  8
_0-1_作画層１
  6
CONTINUOUS
 62
    7
 10
52.116123778501589
 20
110.84600355631068
 40
0.4999999999999856
 50
179.99999999999838
 51
270.0000000000008
  0
ARC
  8
_0-1_作画層１
  6
CONTINUOUS
 62
    7
 10
57.671759102281129
 20
110.49360355631082
 40
0.5000000000001421
 50
243.41295146816481
 51
269.99999999999511
  0
ARC
  8
_0-1_作画層１
  6
CONTINUOUS
 62
    7
 10
57.322336499268062
 20
109.86800355630947
 40
0.499999999998792
 50
251.54855157697051
 51
270.00000000001876
  0
LINE
  8
_0-1_作画層１
  6
CONTINUOUS
 62
    7
 10
57.164086025539916
 20
109.39370745937886
 11
56.380661531463261
 21
109.65509965324252
  0
ARC
  8
_0-1_作画層１
  6
CONTINUOUS
 62
    7
 10
56.222411057734917
 20
109.18080355631029
 40
0.5000000000003842
 50
71.548551577004758
 51
89.999999999995097
  0
LINE
  8
_0-1_作画層１
  6
CONTINUOUS
 62
    7
 10
57.447980623968675
 20
110.04647584229131
 11
57.03426693303453
 21
110.25353127033004
  0
ARC
  8
_0-1_作画層１
  6
CONTINUOUS
 62
    7
 10
56.810488454722076
 20
109.80640355631054
 40
0.5000000000001423
 50
63.412951468164792
 51
89.999999999995111
  0
LINE
  8
_0-1_作画層１
  6
CONTINUOUS
 62
    7
 10
56.222411057734945
 20
109.68080355631068
 11
53.259836499268204
 21
109.68080355631068
  0
ARC
  8
_0-1_作画層１
  6
CONTINUOUS
 62
    7
 10
53.25983649926826
 20
109.18080355631028
 40
0.5000000000003979
 50
90.000000000006509
 51
108.45144842299474
  0
LINE
  8
_0-1_作画層１
  6
CONTINUOUS
 62
    7
 10
53.101586025539916
 20
109.65509965324252
 11
52.318161531463261
 21
109.39370745937885
  0
ARC
  8
_0-1_作画層１
  6
CONTINUOUS
 62
    7
 10
52.159911057735087
 20
109.86800355631001
 40
0.4999999999993304
 50
269.99999999998613
 51
288.45144842301397
  0
ARC
  8
_0-1_作画層１
  6
CONTINUOUS
 62
    7
 10
52.122988454722076
 20
110.49360355631082
 40
0.5000000000001421
 50
270.00000000000489
 51
296.58704853183519
  0
LINE
  8
_0-1_作画層１
  6
CONTINUOUS
 62
    7
 10
52.34676693303453
 20
110.04647584229131
 11
52.760480623968704
 21
110.25353127033004
  0
LINE
  8
_0-1_作画層１
  6
CONTINUOUS
 62
    7
 10
56.810488454722133
 20
110.30640355631068
 11
52.984259102281101
 21
110.30640355631068
  0
ARC
  8
_0-1_作画層１
  6
CONTINUOUS
 62
    7
 10
52.984259102281101
 20
109.80640355631066
 40
0.5000000000000277
 50
90.000000000001634
 51
116.58704853183816
  0
LINE
  8
_0-1_作画層１
  6
CONTINUOUS
 62
    7
 10
50.591123778501583
 20
109.36800355631068
 11
57.866123778501617
 21
109.36800355631068
  0
LINE
  8
_0-1_作画層１
  6
CONTINUOUS
 62
    7
 10
50.591123778501583
 20
109.36800355631068
 11
52.159911057734973
 21
109.36800355631068
  0
LINE
  8
_0-1_作画層１
  6
CONTINUOUS
 62
    7
 10
50.591123778501583
 20
109.99360355631067
 11
52.122988454722133
 21
109.99360355631067
  0
LINE
  8
_0-1_作画層１
  6
CONTINUOUS
 62
    7
 10
59.091123778501583
 20
109.99360355631067
 11
57.671759102281101
 21
109.99360355631067
  0
LINE
  8
_0-1_作画層１
  6
CONTINUOUS
 62
    7
 10
59.091123778501583
 20
109.36800355631068
 11
57.322336499268204
 21
109.36800355631068
  0
ARC
  8
_0-1_作画層１
  6
CONTINUOUS
 62
    7
 10
67.516123778501594
 20
111.34600103578491
 40
1.5000000000000213
 50
0.0000000000010856
 51
89.999999999999204
  0
LINE
  8
_0-1_作画層１
  6
CONTINUOUS
 62
    7
 10
67.516123778501594
 20
112.84600103578494
 11
64.266123778501594
 21
112.84600103578494
  0
ARC
  8
_0-1_作画層１
  6
CONTINUOUS
 62
    7
 10
64.266123778501623
 20
111.34600103578491
 40
1.5000000000000284
 50
90.00000000000081
 51
179.99999999999892
  0
LINE
  8
_0-1_作画層１
  6
CONTINUOUS
 62
    7
 10
69.016123778501594
 20
111.34600103578494
 11
69.016123778501594
 21
110.84600103578494
  0
ARC
  8
_0-1_作画層１
  6
CONTINUOUS
 62
    7
 10
68.516123778501623
 20
110.84600103578492
 40
0.4999999999999926
 50
269.9999999999992
 51
0.0000000000016284
  0
LINE
  8
_0-1_作画層１
  6
CONTINUOUS
 62
    7
 10
68.516123778501594
 20
110.34600103578494
 11
63.266123778501594
 21
110.34600103578494
  0
LINE
  8
_0-1_作画層１
  6
CONTINUOUS
 62
    7
 10
62.766123778501594
 20
111.34600103578494
 11
62.766123778501594
 21
110.84600103578494
  0
ARC
  8
_0-1_作画層１
  6
CONTINUOUS
 62
    7
 10
63.266123778501594
 20
110.84600103578492
 40
0.4999999999999856
 50
179.99999999999838
 51
270.0000000000008
  0
ARC
  8
_0-1_作画層１
  6
CONTINUOUS
 62
    7
 10
68.821759102281135
 20
110.49360103578506
 40
0.5000000000001421
 50
243.41295146816481
 51
269.99999999999511
  0
ARC
  8
_0-1_作画層１
  6
CONTINUOUS
 62
    7
 10
68.472336499268067
 20
109.86800103578372
 40
0.499999999998792
 50
251.54855157697051
 51
270.00000000001876
  0
LINE
  8
_0-1_作画層１
  6
CONTINUOUS
 62
    7
 10
68.31408602553995
 20
109.39370493885311
 11
67.530661531463238
 21
109.65509713271676
  0
ARC
  8
_0-1_作画層１
  6
CONTINUOUS
 62
    7
 10
67.372411057734894
 20
109.18080103578454
 40
0.5000000000003842
 50
71.548551577004758
 51
89.999999999995097
  0
LINE
  8
_0-1_作画層１
  6
CONTINUOUS
 62
    7
 10
68.597980623968681
 20
110.04647332176556
 11
68.184266933034536
 21
110.25352874980429
  0
ARC
  8
_0-1_作画層１
  6
CONTINUOUS
 62
    7
 10
67.960488454722082
 20
109.80640103578479
 40
0.5000000000001423
 50
63.412951468164792
 51
89.999999999995111
  0
LINE
  8
_0-1_作画層１
  6
CONTINUOUS
 62
    7
 10
67.372411057734951
 20
109.68080103578492
 11
64.409836499268238
 21
109.68080103578492
  0
ARC
  8
_0-1_作画層１
  6
CONTINUOUS
 62
    7
 10
64.409836499268295
 20
109.18080103578453
 40
0.5000000000003979
 50
90.000000000006509
 51
108.45144842299474
  0
LINE
  8
_0-1_作画層１
  6
CONTINUOUS
 62
    7
 10
64.25158602553995
 20
109.65509713271676
 11
63.468161531463238
 21
109.39370493885309
  0
ARC
  8
_0-1_作画層１
  6
CONTINUOUS
 62
    7
 10
63.309911057735093
 20
109.86800103578426
 40
0.4999999999993304
 50
269.99999999998613
 51
288.45144842301397
  0
ARC
  8
_0-1_作画層１
  6
CONTINUOUS
 62
    7
 10
63.272988454722082
 20
110.49360103578506
 40
0.5000000000001421
 50
270.00000000000489
 51
296.58704853183519
  0
LINE
  8
_0-1_作画層１
  6
CONTINUOUS
 62
    7
 10
63.496766933034536
 20
110.04647332176556
 11
63.910480623968681
 21
110.25352874980429
  0
LINE
  8
_0-1_作画層１
  6
CONTINUOUS
 62
    7
 10
67.96048845472211
 20
110.30640103578493
 11
64.134259102281106
 21
110.30640103578493
  0
ARC
  8
_0-1_作画層１
  6
CONTINUOUS
 62
    7
 10
64.134259102281135
 20
109.8064010357849
 40
0.5000000000000277
 50
90.000000000001634
 51
116.58704853183816
  0
LINE
  8
_0-1_作画層１
  6
CONTINUOUS
 62
    7
 10
61.741123778501617
 20
109.36800103578493
 11
69.016123778501594
 21
109.36800103578493
  0
LINE
  8
_0-1_作画層１
  6
CONTINUOUS
 62
    7
 10
61.741123778501617
 20
109.36800103578493
 11
63.309911057734951
 21
109.36800103578493
  0
LINE
  8
_0-1_作画層１
  6
CONTINUOUS
 62
    7
 10
61.741123778501617
 20
109.99360103578492
 11
63.27298845472211
 21
109.99360103578492
  0
LINE
  8
_0-1_作画層１
  6
CONTINUOUS
 62
    7
 10
70.241123778501617
 20
109.99360103578492
 11
68.821759102281078
 21
109.99360103578492
  0
LINE
  8
_0-1_作画層１
  6
CONTINUOUS
 62
    7
 10
70.241123778501617
 20
109.36800103578493
 11
68.472336499268238
 21
109.36800103578493
  0
LINE
  8
_0-1_作画層１
  6
CONTINUOUS
 62
    7
 10
105.49112377850162
 20
105.36800547778772
 11
85.841123778501611
 21
105.36800103578493
  0
LINE
  8
_0-1_作画層１
  6
CONTINUOUS
 62
    7
 10
50.591123778501611
 20
105.36800547778772
 11
70.241123778501617
 21
105.36800103578493
  0
LINE
  8
_0-1_作画層１
  6
CONTINUOUS
 62
    7
 10
94.341123778501611
 20
117.36800103578493
 11
96.991123778501617
 21
117.36800103578493
  0
LINE
  8
_0-1_作画層１
  6
CONTINUOUS
 62
    7
 10
70.241123778501617
 20
118.86796203156979
 11
70.241123778501617
 21
109.36800103578493
  0
LINE
  8
_0-1_作画層１
  6
CONTINUOUS
 62
    7
 10
85.841123778501611
 20
118.86795831224134
 11
85.841123778501611
 21
109.36800103578493
  0
LINE
  8
_0-1_作画層１
  6
CONTINUOUS
 62
    7
 10
61.741123778501617
 20
117.36800103578493
 11
59.091123778501583
 21
117.36800103578493
  0
LINE
  8
_0-1_作画層１
  6
CONTINUOUS
 62
    7
 10
50.591123778501583
 20
118.86796671649313
 11
50.591123778501583
 21
105.36800355631068
  0
LINE
  8
_0-1_作画層１
  6
CONTINUOUS
 62
    7
 10
105.49112377850162
 20
118.867953627318
 11
105.49112377850162
 21
105.36800355631068
  0
LINE
  8
_0-1_作画層１
  6
CONTINUOUS
 62
    7
 10
70.241123778501617
 20
108.86796203156979
 11
70.241123778501617
 21
105.36800103578493
  0
LINE
  8
_0-1_作画層１
  6
CONTINUOUS
 62
    7
 10
85.841123778501611
 20
108.86795831224134
 11
85.841123778501611
 21
105.36800103578493
  0
LINE
  8
_0-1_作画層１
  6
CONTINUOUS
 62
    7
 10
71.241123778501617
 20
108.8679617931513
 11
42.041127593198894
 21
108.86796875497032
  0
LINE
  8
_0-1_作画層１
  6
CONTINUOUS
 62
    7
 10
84.841123778501611
 20
108.86795855065982
 11
114.04115429607975
 21
108.86795158883263
  0
LINE
  8
_0-1_作画層１
  6
CONTINUOUS
 62
    7
 10
71.241123778501617
 20
117.86796203156979
 11
71.241123778501617
 21
108.86796203156979
  0
LINE
  8
_0-1_作画層１
  6
CONTINUOUS
 62
    7
 10
71.241123778501617
 20
117.86796203156979
 11
71.241123778501617
 21
108.86796203156979
  0
LINE
  8
_0-1_作画層１
  6
CONTINUOUS
 62
    7
 10
84.841123778501611
 20
117.86795878907832
 11
71.241123778501617
 21
117.86796203156979
  0
LINE
  8
_0-1_作画層１
  6
CONTINUOUS
 62
    7
 10
84.841123778501611
 20
117.86795878907832
 11
84.841123778501611
 21
108.86795831224134
  0
LINE
  8
_0-1_作画層１
  6
CONTINUOUS
 62
    7
 10
84.841123778501611
 20
117.86795878907832
 11
84.841123778501611
 21
108.86795831224134
  0
LINE
  8
_0-1_作画層１
  6
CONTINUOUS
 62
    7
 10
44.291127593198894
 20
79.867975837567229
 11
44.291127593198894
 21
108.86796821852872
  0
LINE
  8
_0-1_作画層１
  6
CONTINUOUS
 62
    7
 10
111.79113140789615
 20
79.867959433637765
 11
111.79113140789615
 21
108.86795212527969
  0
LINE
  8
_0-1_作画層１
  6
CONTINUOUS
 62
    7
 10
111.79113140789615
 20
79.867959433637751
 11
44.291127593198894
 21
79.867975837567229
  0
LINE
  8
_0-1_作画層１
  6
CENTER
 62
    7
 10
78.041123778501628
 20
78.367997365188273
 11
78.041123778501628
 21
160.36798973580625
  0
TEXT
  8
_0-7_注記層１
 62
    7
 10
54.541123778501628
 20
122.36797638436485
 40
4
 41
1
 50
0
  1
電　源
  0
TEXT
  8
_0-7_注記層１
 62
    7
 10
89.541123778501614
 20
122.36797638436485
 40
4
 41
1
 50
0
  1
負　荷
  0
LINE
  8
_0-1_作画層１
  6
CONTINUOUS
 62
    7
 10
216.55475321528198
 20
239.33110765628123
 11
216.55475708958426
 21
255.58111528567576
  0
LINE
  8
_0-1_作画層１
  6
CONTINUOUS
 62
    7
 10
140.55473283049906
 20
185.8311114282651
 11
140.55475032802934
 21
257.83113813114596
  0
LINE
  8
_0-1_作画層１
  6
CONTINUOUS
 62
    7
 10
160.55475762603132
 20
257.83113813114596
 11
140.55475032802934
 21
257.83113813114596
  0
LINE
  8
_0-1_作画層１
  6
CONTINUOUS
 62
    7
 10
160.55474045989362
 20
185.8311114282651
 11
140.55473283049906
 21
185.8311114282651
  0
LINE
  8
_0-1_作画層１
  6
CONTINUOUS
 62
    7
 10
188.55474099633525
 20
188.0811114709785
 11
188.55475708958426
 21
255.58111528567576
  0
LINE
  8
_0-1_作画層１
  6
CONTINUOUS
 62
    7
 10
149.5547489535486
 20
253.45610761356784
 11
147.9297485959209
 21
253.45610761356784
  0
ARC
  8
_0-1_作画層１
  6
CONTINUOUS
 62
    7
 10
147.92974859592096
 20
251.95610761356784
 40
1.5
 50
90.000000000002174
 51
179.9999863396271
  0
LINE
  8
_0-1_作画層１
  6
CONTINUOUS
 62
    7
 10
146.42974859592096
 20
251.95610797119556
 11
146.42974853631631
 21
251.70610801390896
  0
LINE
  8
_0-1_作画層１
  6
CONTINUOUS
 62
    7
 10
149.5547481786885
 20
250.20610761356784
 11
147.92974853631631
 21
250.20610761356784
  0
ARC
  8
_0-1_作画層１
  6
CONTINUOUS
 62
    7
 10
147.9297486092326
 20
251.70610768648419
 40
1.5000000729163292
 50
179.99998749329561
 51
269.99999721480179
  0
LINE
  8
_0-1_作画層１
  6
CONTINUOUS
 62
    7
 10
149.55474618194091
 20
241.83113817385936
 11
149.55474999663676
 21
257.83113813114596
  0
ARC
  8
_0-1_作画層１
  6
CONTINUOUS
 62
    7
 10
149.92974859592096
 20
191.70610761356784
 40
1.5
 50
180.00001366037287
 51
269.99999999999784
  0
LINE
  8
_0-1_作画層１
  6
CONTINUOUS
 62
    7
 10
148.42974859592096
 20
191.70610725594011
 11
148.42974853631631
 21
191.95610721322672
  0
ARC
  8
_0-1_作画層１
  6
CONTINUOUS
 62
    7
 10
149.9297486092326
 20
191.95610754065149
 40
1.5000000729163292
 50
90.000002785198191
 51
180.00001250670445
  0
LINE
  8
_0-1_作画層１
  6
CONTINUOUS
 62
    7
 10
150.92974513885278
 20
237.45610765628123
 11
150.92973753926339
 21
205.58110765628123
  0
LINE
  8
_0-1_作画層１
  6
CONTINUOUS
 62
    7
 10
152.05473753926336
 20
205.58110761356784
 11
150.92973753926339
 21
205.58110761356784
  0
LINE
  8
_0-1_作画層１
  6
CONTINUOUS
 62
    7
 10
152.05474513885275
 20
237.45610761356784
 11
150.92974513885278
 21
237.45610761356784
  0
LINE
  8
_0-1_作画層１
  6
CONTINUOUS
 62
    7
 10
149.55474618194091
 20
241.83113813114596
 11
150.05474570510393
 21
241.83113813114596
  0
LINE
  8
_0-1_作画層１
  6
CONTINUOUS
 62
    7
 10
152.05473283049909
 20
185.8311114709785
 11
152.05474570510384
 21
239.83113765430898
  0
ARC
  8
_0-1_作画層１
  6
CONTINUOUS
 62
    7
 10
150.05474570510393
 20
239.83113813114605
 40
1.9999999999999147
 50
359.99998633962417
 51
90.000000000000838
  0
LINE
  8
_0-1_作画層１
  6
CONTINUOUS
 62
    7
 10
149.55474230763315
 20
225.58110761356784
 11
154.55474230763318
 21
225.58110761356784
  0
LINE
  8
_0-1_作画層１
  6
CONTINUOUS
 62
    7
 10
149.55474051949449
 20
218.08110761356784
 11
154.55474230763318
 21
218.08110761356784
  0
LINE
  8
_0-1_作画層１
  6
CONTINUOUS
 62
    7
 10
149.55474230763315
 20
226.58110761356784
 11
154.55474230763318
 21
226.58110761356784
  0
LINE
  8
_0-1_作画層１
  6
CONTINUOUS
 62
    7
 10
149.55474051949449
 20
217.08110761356784
 11
154.55474230763318
 21
217.08110761356784
  0
LINE
  8
_0-1_作画層１
  6
CONTINUOUS
 62
    7
 10
149.55474051949449
 20
218.08110765628123
 11
149.55474028107602
 21
217.08110765628123
  0
LINE
  8
_0-1_作画層１
  6
CONTINUOUS
 62
    7
 10
149.55474230763321
 20
225.58110765628123
 11
149.55474254605167
 21
226.58110765628123
  0
LINE
  8
_0-1_作画層１
  6
CONTINUOUS
 62
    7
 10
154.55474028107602
 20
217.08110765628123
 11
154.55473283049909
 21
185.8311114282651
  0
LINE
  8
_0-1_作画層１
  6
CONTINUOUS
 62
    7
 10
154.55474230763318
 20
225.58110765628123
 11
154.55474051949452
 21
218.08110765628123
  0
LINE
  8
_0-1_作画層１
  6
CONTINUOUS
 62
    7
 10
154.55474254605167
 20
226.58110765628123
 11
154.55474999663679
 21
257.83113813114596
  0
LINE
  8
_0-1_作画層１
  6
CONTINUOUS
 62
    7
 10
146.92974513885275
 20
237.45610765628123
 11
146.92973753926339
 21
205.58110765628123
  0
LINE
  8
_0-1_作画層１
  6
CONTINUOUS
 62
    7
 10
146.92974513885275
 20
237.45610761356784
 11
146.30474513885275
 21
237.45610761356784
  0
LINE
  8
_0-1_作画層１
  6
CONTINUOUS
 62
    7
 10
146.30474513885275
 20
237.45610765628123
 11
146.30473753926339
 21
205.58110765628123
  0
LINE
  8
_0-1_作画層１
  6
CONTINUOUS
 62
    7
 10
146.92973753926339
 20
205.58110761356784
 11
146.30473753926333
 21
205.58110761356784
  0
LINE
  8
_0-1_作画層１
  6
CONTINUOUS
 62
    7
 10
146.9297378372865
 20
206.83110761356784
 11
150.9297378372865
 21
206.83110761356784
  0
LINE
  8
_0-1_作画層１
  6
CONTINUOUS
 62
    7
 10
146.92973992344827
 20
215.58110761356784
 11
150.92974484082967
 21
215.58110761356784
  0
LINE
  8
_0-1_作画層１
  6
CONTINUOUS
 62
    7
 10
146.92973828432116
 20
208.70610761356784
 11
150.92974484082967
 21
208.70610761356784
  0
LINE
  8
_0-1_作画層１
  6
CONTINUOUS
 62
    7
 10
146.92974484082964
 20
236.20610761356784
 11
150.92974484082967
 21
236.20610761356784
  0
LINE
  8
_0-1_作画層１
  6
CONTINUOUS
 62
    7
 10
146.92974320170254
 20
229.33110761356784
 11
150.92974484082967
 21
229.33110761356784
  0
LINE
  8
_0-1_作画層１
  6
CONTINUOUS
 62
    7
 10
146.92974156257543
 20
222.45610761356784
 11
150.92974484082967
 21
222.45610761356784
  0
LINE
  8
_0-1_作画層１
  6
CONTINUOUS
 62
    7
 10
152.05473387357907
 20
190.20610761356784
 11
149.9297485959209
 21
190.20610761356784
  0
LINE
  8
_0-1_作画層１
  6
CONTINUOUS
 62
    7
 10
152.05473464843917
 20
193.45610761356784
 11
149.92974853631631
 21
193.45610761356784
  0
LINE
  8
_0-1_作画層１
  6
CONTINUOUS
 62
    7
 10
149.55473545310156
 20
241.83110761356784
 11
144.05473283049906
 21
241.83110761356784
  0
ARC
  8
_0-1_作画層１
  6
CONTINUOUS
 62
    7
 10
144.05473283049912
 20
242.83110761356787
 40
1.0000000000000284
 50
180.00000000000162
 51
269.99999999999835
  0
LINE
  8
_0-1_作画層１
  6
CONTINUOUS
 62
    7
 10
149.55473426100912
 20
246.83110761356787
 11
146.55473283049906
 21
246.83110761356787
  0
ARC
  8
_0-1_作画層１
  6
CONTINUOUS
 62
    7
 10
146.55473283049912
 20
247.83110761356792
 40
1.0000000000000284
 50
180.0000000000033
 51
269.99999999999835
  0
LINE
  8
_0-1_作画層１
  6
CONTINUOUS
 62
    7
 10
143.05473283049906
 20
242.83110761356784
 11
143.05473283049906
 21
248.33110761356787
  0
ARC
  8
_0-1_作画層１
  6
CONTINUOUS
 62
    7
 10
144.05473283049912
 20
248.33110761356781
 40
1.0000000000000284
 50
90.000000000001634
 51
179.99999999999676
  0
LINE
  8
_0-1_作画層１
  6
CONTINUOUS
 62
    7
 10
145.55473283049906
 20
247.83110761356787
 11
145.55473283049906
 21
248.33110761356787
  0
LINE
  8
_0-1_作画層１
  6
CONTINUOUS
 62
    7
 10
144.05473283049906
 20
249.33110761356787
 11
144.55473283049906
 21
249.33110761356787
  0
ARC
  8
_0-1_作画層１
  6
CONTINUOUS
 62
    7
 10
144.55473283049906
 20
248.33110761356781
 40
1.0000000000000284
 50
0.0000000000032569
 51
89.99999999999838
  0
LINE
  8
_0-1_作画層１
  6
CONTINUOUS
 62
    7
 10
160.55475762603132
 20
257.83113817385936
 11
160.55474045989365
 21
185.8311114709785
  0
LINE
  8
_0-1_作画層１
  6
CONTINUOUS
 62
    7
 10
178.55474099633523
 20
188.0811114709785
 11
178.55475708958426
 21
255.58111528567576
  0
LINE
  8
_0-1_作画層１
  6
CONTINUOUS
 62
    7
 10
180.55474689719196
 20
212.83110765628123
 11
180.55475118872479
 21
230.83110765628123
  0
LINE
  8
_0-1_作画層１
  6
CONTINUOUS
 62
    7
 10
194.55473283049909
 20
211.83110761356784
 11
194.55473283049909
 21
231.83110761356784
  0
LINE
  8
_0-1_作画層１
  6
CONTINUOUS
 62
    7
 10
194.05473283049909
 20
211.79946204394759
 11
194.05473283049909
 21
231.83110761356784
  0
LINE
  8
_0-1_作画層１
  6
CONTINUOUS
 62
    7
 10
193.55473283049909
 20
211.7678164743273
 11
193.55473283049909
 21
231.89439875280837
  0
LINE
  8
_0-1_作画層１
  6
CONTINUOUS
 62
    7
 10
193.05473283049909
 20
211.73617090470705
 11
193.05473283049909
 21
231.92604432242862
  0
LINE
  8
_0-1_作画層１
  6
CONTINUOUS
 62
    7
 10
192.55473283049909
 20
211.7045253350868
 11
192.55473283049909
 21
231.95768989204888
  0
LINE
  8
_0-1_作画層１
  6
CONTINUOUS
 62
    7
 10
192.05473283049909
 20
211.67287976546655
 11
192.05473283049909
 21
231.98933546166913
  0
LINE
  8
_0-1_作画層１
  6
CONTINUOUS
 62
    7
 10
191.55473283049909
 20
211.64123419584629
 11
191.55473283049909
 21
232.02098103128938
  0
LINE
  8
_0-1_作画層１
  6
CONTINUOUS
 62
    7
 10
191.05473283049909
 20
211.60958862622604
 11
191.05473283049909
 21
232.05262660090963
  0
LINE
  8
_0-1_作画層１
  6
CONTINUOUS
 62
    7
 10
190.55473283049909
 20
211.57794305660579
 11
190.55473283049909
 21
232.08427217052989
  0
LINE
  8
_0-1_作画層１
  6
CONTINUOUS
 62
    7
 10
190.05473283049909
 20
211.54629748698554
 11
190.05473283049909
 21
232.11591774015014
  0
LINE
  8
_0-1_作画層１
  6
CONTINUOUS
 62
    7
 10
189.55473283049909
 20
211.51465191736528
 11
189.55473283049909
 21
232.14756330977039
  0
LINE
  8
_0-1_作画層１
  6
CONTINUOUS
 62
    7
 10
189.05473283049909
 20
211.48300634774503
 11
189.05473283049909
 21
232.17920887939064
  0
LINE
  8
_0-1_作画層１
  6
CONTINUOUS
 62
    7
 10
188.55473283049909
 20
211.45136077812478
 11
188.55473283049909
 21
232.2108544490109
  0
LINE
  8
_0-1_作画層１
  6
CONTINUOUS
 62
    7
 10
188.05473283049909
 20
211.41971520850453
 11
188.05473283049909
 21
232.24250001863115
  0
LINE
  8
_0-1_作画層１
  6
CONTINUOUS
 62
    7
 10
187.55473283049909
 20
211.38806963888428
 11
187.55473283049909
 21
232.2741455882514
  0
LINE
  8
_0-1_作画層１
  6
CONTINUOUS
 62
    7
 10
187.05473283049909
 20
211.35642406926402
 11
187.05473283049909
 21
232.30579115787165
  0
LINE
  8
_0-1_作画層１
  6
CONTINUOUS
 62
    7
 10
186.55473283049909
 20
211.32477849964377
 11
186.55473283049909
 21
232.33743672749191
  0
LINE
  8
_0-1_作画層１
  6
CONTINUOUS
 62
    7
 10
186.05473283049909
 20
211.29313293002352
 11
186.05473283049909
 21
232.36908229711216
  0
LINE
  8
_0-1_作画層１
  6
CONTINUOUS
 62
    7
 10
185.55473283049909
 20
211.26148736040327
 11
185.55473283049909
 21
232.40072786673241
  0
LINE
  8
_0-1_作画層１
  6
CONTINUOUS
 62
    7
 10
185.05473283049909
 20
211.22984179078301
 11
185.05473283049909
 21
232.43237343635266
  0
LINE
  8
_0-1_作画層１
  6
CONTINUOUS
 62
    7
 10
184.55473283049909
 20
211.19819622116276
 11
184.55473283049909
 21
232.46401900597292
  0
LINE
  8
_0-1_作画層１
  6
CONTINUOUS
 62
    7
 10
184.05473283049909
 20
211.16655065154251
 11
184.05473283049909
 21
232.49566457559317
  0
LINE
  8
_0-1_作画層１
  6
CONTINUOUS
 62
    7
 10
183.55473283049909
 20
211.13490508192226
 11
183.55473283049909
 21
232.52731014521342
  0
LINE
  8
_0-1_作画層１
  6
CONTINUOUS
 62
    7
 10
183.05473283049909
 20
211.103259512302
 11
183.05473283049909
 21
232.55895571483367
  0
LINE
  8
_0-1_作画層１
  6
CONTINUOUS
 62
    7
 10
182.55473283049909
 20
211.07161394268175
 11
182.55473283049909
 21
232.59060128445392
  0
LINE
  8
_0-1_作画層１
  6
CONTINUOUS
 62
    7
 10
182.05473283049909
 20
211.0399683730615
 11
182.05473283049909
 21
232.62224685407418
  0
LINE
  8
_0-1_作画層１
  6
CONTINUOUS
 62
    7
 10
181.55473283049909
 20
211.00832280344125
 11
181.55473283049909
 21
232.65389242369443
  0
LINE
  8
_0-1_作画層１
  6
CONTINUOUS
 62
    7
 10
181.05473283049909
 20
210.97667723382099
 11
181.05473283049909
 21
232.68553799331468
  0
LINE
  8
_0-1_作画層１
  6
CONTINUOUS
 62
    7
 10
180.55473283049909
 20
210.94503166420074
 11
180.55473283049909
 21
232.71718356293493
  0
LINE
  8
_0-1_作画層１
  6
CONTINUOUS
 62
    7
 10
179.05473283049909
 20
221.83110761356784
 11
179.05473283049909
 21
210.85009495533998
  0
LINE
  8
_0-1_作画層１
  6
CONTINUOUS
 62
    7
 10
179.55473283049909
 20
221.83110761356784
 11
179.55473283049909
 21
210.88174052496024
  0
LINE
  8
_0-1_作画層１
  6
CONTINUOUS
 62
    7
 10
180.05473283049909
 20
221.83110761356784
 11
180.05473283049909
 21
210.91338609458049
  0
LINE
  8
_0-1_作画層１
  6
CONTINUOUS
 62
    7
 10
179.05473283049909
 20
221.83110761356784
 11
179.05473283049909
 21
232.81212027179569
  0
LINE
  8
_0-1_作画層１
  6
CONTINUOUS
 62
    7
 10
179.55473283049909
 20
221.83110761356784
 11
179.55473283049909
 21
232.78047470217544
  0
LINE
  8
_0-1_作画層１
  6
CONTINUOUS
 62
    7
 10
180.05473283049909
 20
221.83110761356784
 11
180.05473283049909
 21
232.74882913255519
  0
LINE
  8
_0-1_作画層１
  6
CONTINUOUS
 62
    7
 10
175.55474725481972
 20
214.33110765628123
 11
175.55475083109707
 21
229.33110765628123
  0
LINE
  8
_0-1_作画層１
  6
CONTINUOUS
 62
    7
 10
173.05474725481972
 20
214.33110765628123
 11
173.05475083109707
 21
229.33110765628123
  0
LINE
  8
_0-1_作画層１
  6
CONTINUOUS
 62
    7
 10
175.55475083109707
 20
229.33110761356784
 11
173.05475083109707
 21
229.33110761356784
  0
LINE
  8
_0-1_作画層１
  6
CONTINUOUS
 62
    7
 10
175.55474725481972
 20
214.33110761356784
 11
173.05474725481972
 21
214.33110761356784
  0
LINE
  8
_0-1_作画層１
  6
CONTINUOUS
 62
    7
 10
173.55475023505082
 20
226.83110761356784
 11
175.55475083109707
 21
226.83110761356784
  0
LINE
  8
_0-1_作画層１
  6
CONTINUOUS
 62
    7
 10
173.55474785086594
 20
216.83110765628123
 11
173.55475023505085
 21
226.83110765628123
  0
LINE
  8
_0-1_作画層１
  6
CONTINUOUS
 62
    7
 10
173.55474785086594
 20
216.83110761356784
 11
175.55475083109707
 21
216.83110761356784
  0
LINE
  8
_0-1_作画層１
  6
CENTER
 62
    7
 10
136.55470231291707
 20
221.83110761356784
 11
215.55473283049909
 21
221.83110761356784
  0
LINE
  8
_0-1_作画層１
  6
CONTINUOUS
 62
    7
 10
213.55475321528198
 20
239.33110765628123
 11
213.55474487063481
 21
204.33110765628123
  0
LINE
  8
_0-1_作画層１
  6
CONTINUOUS
 62
    7
 10
217.55474487063481
 20
204.33110761356784
 11
213.55474487063481
 21
204.33110761356784
  0
LINE
  8
_0-1_作画層１
  6
CONTINUOUS
 62
    7
 10
215.55474487063481
 20
204.33110765628123
 11
215.55474534747179
 21
206.33110765628123
  0
LINE
  8
_0-1_作画層１
  6
CONTINUOUS
 62
    7
 10
216.85474534747181
 20
206.33110761356784
 11
217.55474518057886
 21
205.63110761356785
  0
LINE
  8
_0-1_作画層１
  6
CONTINUOUS
 62
    7
 10
215.55474534747179
 20
206.33110761356784
 11
216.85474534747181
 21
206.33110761356784
  0
LINE
  8
_0-1_作画層１
  6
CONTINUOUS
 62
    7
 10
213.55475142714332
 20
231.83110761356784
 11
194.55473283049909
 21
231.83110761356784
  0
LINE
  8
_0-1_作画層１
  6
CONTINUOUS
 62
    7
 10
213.5547466587735
 20
211.83110761356784
 11
194.55473283049909
 21
211.83110761356784
  0
LINE
  8
_0-1_作画層１
  6
CONTINUOUS
 62
    7
 10
216.55474093673061
 20
188.0811114282651
 11
216.55473819491888
 21
176.58111528567576
  0
LINE
  8
_0-1_作画層１
  6
CONTINUOUS
 62
    7
 10
216.55474093673061
 20
188.0811114282651
 11
216.55474093673061
 21
198.0811114282651
  0
LINE
  8
_0-1_作画層１
  6
CONTINUOUS
 62
    7
 10
217.55474518057886
 20
205.63110761356785
 11
217.55474518057886
 21
199.63110761356785
  0
LINE
  8
_0-1_作画層１
  6
CONTINUOUS
 62
    7
 10
216.55474093673061
 20
198.0811114282651
 11
217.55474518057886
 21
199.63110761356785
  0
LINE
  8
_0-1_作画層１
  6
CONTINUOUS
 62
    7
 10
216.55474093673061
 20
194.5811114709785
 11
191.55474093673061
 21
194.5811114709785
  0
LINE
  8
_0-1_作画層１
  6
CONTINUOUS
 62
    7
 10
191.55474087712599
 20
188.08111151369189
 11
191.55474242684616
 21
194.58111147097816
  0
ARC
  8
_0-1_作画層１
  6
CONTINUOUS
 62
    7
 10
192.34214299194142
 20
190.44923823310268
 40
0.9074999999999987
 50
270
 51
359.99999999999818
  0
LINE
  8
_0-1_作画層１
  6
CONTINUOUS
 62
    7
 10
193.24964299194141
 20
190.44923823310265
 11
193.24964299194141
 21
192.41548823310265
  0
ARC
  8
_0-1_作画層１
  6
CONTINUOUS
 62
    7
 10
192.34214299194136
 20
192.41548823310265
 40
0.9075000000000557
 50
0
 51
89.999999999996419
  0
LINE
  8
_0-1_作画層１
  6
CONTINUOUS
 62
    7
 10
192.34214299194142
 20
189.54173823310268
 11
192.03964299194141
 21
189.54173823310268
  0
ARC
  8
_0-1_作画層１
  6
CONTINUOUS
 62
    7
 10
192.03964299194132
 20
189.8442382331026
 40
0.3024999999999237
 50
179.99999999998383
 51
270.00000000001626
  0
LINE
  8
_0-1_作画層１
  6
CONTINUOUS
 62
    7
 10
191.7371429919414
 20
189.84423823310269
 11
191.7371429919414
 21
193.02048823310267
  0
LINE
  8
_0-1_作画層１
  6
CONTINUOUS
 62
    7
 10
192.34214299194142
 20
193.32298823310268
 11
192.03964299194141
 21
193.32298823310268
  0
ARC
  8
_0-1_作画層１
  6
CONTINUOUS
 62
    7
 10
192.03964299194149
 20
193.02048823310258
 40
0.3025000000000944
 50
90.000000000016172
 51
179.99999999998386
  0
ARC
  8
_0-1_作画層１
  6
CONTINUOUS
 62
    7
 10
191.41068499194014
 20
190.18039760398946
 40
0.3025000000012553
 50
333.41295146822677
 51
359.99999999995697
  0
LINE
  8
_0-1_作画層１
  6
CONTINUOUS
 62
    7
 10
191.7131849919414
 20
190.18039760398923
 11
191.7131849919414
 21
192.49526636221603
  0
ARC
  8
_0-1_作画層１
  6
CONTINUOUS
 62
    7
 10
191.4106849919404
 20
192.49526636221583
 40
0.3025000000010139
 50
0.000000000037683
 51
26.587048531790067
  0
LINE
  8
_0-1_作画層１
  6
CONTINUOUS
 62
    7
 10
216.55473819491888
 20
176.58111528567576
 11
217.55473819491888
 21
176.58111528567576
  0
LINE
  8
_0-1_作画層１
  6
CONTINUOUS
 62
    7
 10
217.55474518057886
 20
176.58111524296237
 11
217.55474518057886
 21
171.58111528567576
  0
LINE
  8
_0-1_作画層１
  6
CONTINUOUS
 62
    7
 10
217.55474518057886
 20
171.58111528567576
 11
192.55474518057886
 21
171.58111528567576
  0
LINE
  8
_0-1_作画層１
  6
CONTINUOUS
 62
    7
 10
192.55475559947345
 20
170.08111528567576
 11
183.55475559947345
 21
170.08111528567576
  0
LINE
  8
_0-1_作画層１
  6
CONTINUOUS
 62
    7
 10
183.55475559947345
 20
170.08111528567576
 11
183.55475559947345
 21
186.08111528567576
  0
LINE
  8
_0-1_作画層１
  6
CONTINUOUS
 62
    7
 10
192.55475559947345
 20
170.08111528567576
 11
192.55475559947345
 21
171.58111528567576
  0
LINE
  8
_0-1_作画層１
  6
CONTINUOUS
 62
    7
 10
214.23193073569226
 20
171.58111528567576
 11
217.55474518057886
 21
171.58111528567576
  0
LINE
  8
_0-1_作画層１
  6
CONTINUOUS
 62
    7
 10
192.53474518057885
 20
171.59111528567576
 11
192.53474518057885
 21
171.47989897993003
  0
LINE
  8
_0-1_作画層１
  6
CONTINUOUS
 62
    7
 10
192.50960937921863
 20
171.63972445348671
 11
192.50960937921863
 21
171.52850814774098
  0
ARC
  8
_0-1_作画層１
  6
CONTINUOUS
 62
    7
 10
203.43109452100148
 20
178.0439809241968
 40
12.654441347655336
 50
148.79493755412449
 51
169.91940201245768
  0
ARC
  8
_0-1_作画層１
  6
CONTINUOUS
 62
    7
 10
203.43109452100148
 20
178.0439809241968
 40
12.654441347655336
 50
169.91940201245768
 51
210.76529805997376
  0
LINE
  8
_0-1_作画層１
  6
CONTINUOUS
 62
    7
 10
160.55475708958426
 20
255.58111524296237
 11
216.55475708958426
 21
255.58111524296237
  0
LINE
  8
_0-1_作画層１
  6
CONTINUOUS
 62
    7
 10
160.55474099633525
 20
188.0811114282651
 11
216.55474093673061
 21
188.0811114282651
  0
LINE
  8
_0-1_作画層１
  6
CONTINUOUS
 62
    7
 10
216.55475321528198
 20
239.33110761356784
 11
213.55475321528198
 21
239.33110761356784
  0
LINE
  8
_0-1_作画層１
  6
CONTINUOUS
 62
    7
 10
183.55475559947345
 20
171.18111528567576
 11
183.55475559947345
 21
170.08111528567576
  0
LINE
  8
_0-1_作画層１
  6
CONTINUOUS
 62
    7
 10
183.55475559947345
 20
170.08111528567576
 11
182.05475559947345
 21
170.08111528567576
  0
LINE
  8
_0-1_作画層１
  6
CONTINUOUS
 62
    7
 10
182.05475559947345
 20
170.08111528567576
 11
182.05475559947345
 21
171.58111528567576
  0
LINE
  8
_0-1_作画層１
  6
CONTINUOUS
 62
    7
 10
182.05475559947345
 20
171.58111528567576
 11
183.55475559947345
 21
171.58111528567576
  0
LINE
  8
_0-1_作画層１
  6
CONTINUOUS
 62
    7
 10
183.55475559947345
 20
186.08111528567576
 11
192.55475559947345
 21
186.08111528567576
  0
LINE
  8
_0-1_作画層１
  6
CONTINUOUS
 62
    7
 10
185.05475559947345
 20
188.03113415799669
 11
185.05475559947345
 21
186.08111528567576
  0
LINE
  8
_0-1_作画層１
  6
CONTINUOUS
 62
    7
 10
185.05475559947345
 20
186.08111528567576
 11
185.05475559947345
 21
188.0811114709785
  0
LINE
  8
_0-1_作画層１
  6
CONTINUOUS
 62
    7
 10
192.55475559947345
 20
186.08111528567576
 11
192.55475559947345
 21
184.60027968819921
  0
LINE
  8
_0-7_注記層１
  6
CONTINUOUS
 62
    4
 10
42.041146666685222
 20
268.48334808893338
 11
114.04110089031802
 21
268.48334808893338
  0
LINE
  8
_0-7_注記層１
  6
CONTINUOUS
 62
    4
 10
42.041146666685222
 20
268.48334808893338
 11
43.972998319263354
 21
269.00098617913841
  0
LINE
  8
_0-7_注記層１
  6
CONTINUOUS
 62
    4
 10
42.041146666685222
 20
268.48334808893338
 11
43.972998319263354
 21
267.96570999872836
  0
LINE
  8
_0-7_注記層１
  6
CONTINUOUS
 62
    4
 10
114.04110089031802
 20
268.48334808893338
 11
112.10924923773989
 21
267.96570999872836
  0
LINE
  8
_0-7_注記層１
  6
CONTINUOUS
 62
    4
 10
114.04110089031802
 20
268.48334808893338
 11
112.10924923773989
 21
269.00098617913841
  0
TEXT
  8
_0-7_注記層１
 62
    7
 10
76.791123778501628
 20
268.98334808893338
 40
2.5
 41
1
 50
0
  1
72
  0
LINE
  8
_0-7_注記層１
  6
CONTINUOUS
 62
    4
 10
140.55475032802934
 20
268.48334808893338
 11
160.55475762603132
 21
268.48334808893338
  0
LINE
  8
_0-7_注記層１
  6
CONTINUOUS
 62
    4
 10
140.55475032802934
 20
268.48334808893338
 11
142.48660198060747
 21
269.00098617913841
  0
LINE
  8
_0-7_注記層１
  6
CONTINUOUS
 62
    4
 10
140.55475032802934
 20
268.48334808893338
 11
142.48660198060747
 21
267.96570999872836
  0
LINE
  8
_0-7_注記層１
  6
CONTINUOUS
 62
    4
 10
160.55475762603132
 20
268.48334808893338
 11
158.62290597345319
 21
267.96570999872836
  0
LINE
  8
_0-7_注記層１
  6
CONTINUOUS
 62
    4
 10
160.55475762603132
 20
268.48334808893338
 11
158.62290597345319
 21
269.00098617913841
  0
TEXT
  8
_0-7_注記層１
 62
    7
 10
149.30475397703034
 20
268.98334808893338
 40
2.5
 41
1
 50
0
  1
20
  0
LINE
  8
_0-7_注記層１
  6
CONTINUOUS
 62
    4
 10
160.55475762603132
 20
268.48334808893338
 11
188.55475708958426
 21
268.48334808893338
  0
LINE
  8
_0-7_注記層１
  6
CONTINUOUS
 62
    4
 10
160.55475762603132
 20
268.48334808893338
 11
162.48660927860945
 21
269.00098617913841
  0
LINE
  8
_0-7_注記層１
  6
CONTINUOUS
 62
    4
 10
160.55475762603132
 20
268.48334808893338
 11
162.48660927860945
 21
267.96570999872836
  0
LINE
  8
_0-7_注記層１
  6
CONTINUOUS
 62
    4
 10
188.55475708958426
 20
268.48334808893338
 11
186.62290543700612
 21
267.96570999872836
  0
LINE
  8
_0-7_注記層１
  6
CONTINUOUS
 62
    4
 10
188.55475708958426
 20
268.48334808893338
 11
186.62290543700612
 21
269.00098617913841
  0
TEXT
  8
_0-7_注記層１
 62
    7
 10
173.30475735780777
 20
268.98334808893338
 40
2.5
 41
1
 50
0
  1
28
  0
LINE
  8
_0-7_注記層１
  6
CONTINUOUS
 62
    4
 10
188.55475708958426
 20
268.48334808893338
 11
216.55475708958426
 21
268.48334808893338
  0
LINE
  8
_0-7_注記層１
  6
CONTINUOUS
 62
    4
 10
188.55475708958426
 20
268.48334808893338
 11
190.48660874216239
 21
269.00098617913841
  0
LINE
  8
_0-7_注記層１
  6
CONTINUOUS
 62
    4
 10
188.55475708958426
 20
268.48334808893338
 11
190.48660874216239
 21
267.96570999872836
  0
LINE
  8
_0-7_注記層１
  6
CONTINUOUS
 62
    4
 10
216.55475708958426
 20
268.48334808893338
 11
214.6229054370061
 21
267.96570999872836
  0
LINE
  8
_0-7_注記層１
  6
CONTINUOUS
 62
    4
 10
216.55475708958426
 20
268.48334808893338
 11
214.6229054370061
 21
269.00098617913841
  0
LINE
  8
_0-7_注記層１
  6
CONTINUOUS
 62
    4
 10
216.55475708958426
 20
268.48334808893338
 11
211.55475708958426
 21
268.48334808893338
  0
LINE
  8
_0-7_注記層１
  6
CONTINUOUS
 62
    4
 10
217.55474518057883
 20
268.48334808893338
 11
222.55474518057883
 21
268.48334808893338
  0
LINE
  8
_0-7_注記層１
  6
CONTINUOUS
 62
    4
 10
216.55475708958426
 20
268.48334808893338
 11
217.55474518057883
 21
268.48334808893338
  0
LINE
  8
_0-7_注記層１
  6
CONTINUOUS
 62
    4
 10
216.55475708958426
 20
268.48334808893338
 11
214.6229054370061
 21
267.96570999872836
  0
LINE
  8
_0-7_注記層１
  6
CONTINUOUS
 62
    4
 10
216.55475708958426
 20
268.48334808893338
 11
214.6229054370061
 21
269.00098617913841
  0
LINE
  8
_0-7_注記層１
  6
CONTINUOUS
 62
    4
 10
217.55474518057883
 20
268.48334808893338
 11
219.48659683315699
 21
269.00098617913841
  0
LINE
  8
_0-7_注記層１
  6
CONTINUOUS
 62
    4
 10
217.55474518057883
 20
268.48334808893338
 11
219.48659683315699
 21
267.96570999872836
  0
TEXT
  8
_0-7_注記層１
 62
    7
 10
216.42975113508155
 20
268.98334808893338
 40
2.5
 41
1
 50
0
  1
1
  0
TEXT
  8
_0-7_注記層１
 62
    7
 10
201.30475708958426
 20
268.98334808893338
 40
2.5
 41
1
 50
0
  1
(28)
  0
LINE
  8
_0-7_注記層１
  6
CONTINUOUS
 62
    4
 10
217.55474518057883
 20
270.48334808893338
 11
217.55474518057883
 21
206.31497623943494
  0
LINE
  8
_0-7_注記層１
  6
CONTINUOUS
 62
    4
 10
33.195416671968673
 20
257.86797256966759
 11
33.195416671968673
 21
185.86801453133751
  0
LINE
  8
_0-7_注記層１
  6
CONTINUOUS
 62
    4
 10
33.195416671968673
 20
257.86797256966759
 11
33.713054762173726
 21
255.93612091708945
  0
LINE
  8
_0-7_注記層１
  6
CONTINUOUS
 62
    4
 10
33.195416671968673
 20
257.86797256966759
 11
32.677778581763619
 21
255.93612091708945
  0
LINE
  8
_0-7_注記層１
  6
CONTINUOUS
 62
    4
 10
33.195416671968673
 20
185.86801453133751
 11
32.677778581763619
 21
187.79986618391564
  0
LINE
  8
_0-7_注記層１
  6
CONTINUOUS
 62
    4
 10
33.195416671968673
 20
185.86801453133751
 11
33.713054762173726
 21
187.79986618391564
  0
TEXT
  8
_0-7_注記層１
 62
    7
 10
32.695416671968673
 20
220.61799355050255
 40
2.5
 41
1
 50
90
  1
72
  0
LINE
  8
_0-7_注記層１
  6
CONTINUOUS
 62
    4
 10
222.76375571224054
 20
204.33110761356784
 11
222.76375571224054
 21
239.33110761356784
  0
LINE
  8
_0-7_注記層１
  6
CONTINUOUS
 62
    4
 10
222.76375571224054
 20
204.33110761356784
 11
222.24611762203548
 21
206.26295926614597
  0
LINE
  8
_0-7_注記層１
  6
CONTINUOUS
 62
    4
 10
222.76375571224054
 20
204.33110761356784
 11
223.28139380244556
 21
206.26295926614597
  0
LINE
  8
_0-7_注記層１
  6
CONTINUOUS
 62
    4
 10
222.76375571224054
 20
239.33110761356784
 11
223.28139380244556
 21
237.39925596098971
  0
LINE
  8
_0-7_注記層１
  6
CONTINUOUS
 62
    4
 10
222.76375571224054
 20
239.33110761356784
 11
222.24611762203548
 21
237.39925596098971
  0
LINE
  8
_0-7_注記層１
  6
CONTINUOUS
 62
    4
 10
224.76375571224054
 20
204.33110761356784
 11
218.1438120852988
 21
204.33110761356784
  0
TEXT
  8
_0-7_注記層１
 62
    7
 10
222.26375571224054
 20
220.58110761356784
 40
2.5
 41
1
 50
90
  1
35
  0
LINE
  8
_0-7_注記層１
  6
CONTINUOUS
 62
    4
 10
230.09540538108283
 20
188.0811114282651
 11
230.09540538108283
 21
255.58111524296237
  0
LINE
  8
_0-7_注記層１
  6
CONTINUOUS
 62
    4
 10
230.09540538108283
 20
188.0811114282651
 11
229.5777672908778
 21
190.01296308084324
  0
LINE
  8
_0-7_注記層１
  6
CONTINUOUS
 62
    4
 10
230.09540538108283
 20
188.0811114282651
 11
230.61304347128788
 21
190.01296308084324
  0
LINE
  8
_0-7_注記層１
  6
CONTINUOUS
 62
    4
 10
230.09540538108283
 20
255.58111524296237
 11
230.61304347128788
 21
253.64926359038424
  0
LINE
  8
_0-7_注記層１
  6
CONTINUOUS
 62
    4
 10
230.09540538108283
 20
255.58111524296237
 11
229.5777672908778
 21
253.64926359038424
  0
TEXT
  8
_0-7_注記層１
 62
    7
 10
229.59540538108283
 20
219.33111333561374
 40
2.5
 41
1
 50
90
  1
68
  0
LINE
  8
_0-7_注記層１
  6
CONTINUOUS
 62
    4
 10
42.041146666685222
 20
270.48334808893338
 11
42.041146666685222
 21
257.17620345125533
  0
LINE
  8
_0-7_注記層１
  6
CONTINUOUS
 62
    4
 10
31.195416671968673
 20
257.86797256966759
 11
42.788913741501204
 21
257.86797256966759
  0
LINE
  8
_0-7_注記層１
  6
CONTINUOUS
 62
    4
 10
114.04110089031802
 20
270.48334808893338
 11
114.04110089031802
 21
257.57793767968508
  0
LINE
  8
_0-7_注記層１
  6
CONTINUOUS
 62
    4
 10
140.55475032802934
 20
270.48334808893338
 11
140.55475032802934
 21
258.34688210128877
  0
LINE
  8
_0-7_注記層１
  6
CONTINUOUS
 62
    4
 10
160.55475762603132
 20
270.48334808893338
 11
160.55475762603132
 21
258.44731565839618
  0
LINE
  8
_0-7_注記層１
  6
CONTINUOUS
 62
    4
 10
188.55475708958426
 20
270.48334808893338
 11
188.55475708958426
 21
256.23777740203275
  0
LINE
  8
_0-7_注記層１
  6
CONTINUOUS
 62
    4
 10
224.76375571224054
 20
239.33110761356784
 11
217.13947651422447
 21
239.33110761356784
  0
LINE
  8
_0-7_注記層１
  6
CONTINUOUS
 62
    4
 10
232.09540538108283
 20
255.58111524296237
 11
217.02602379230683
 21
255.58111524296237
  0
LINE
  8
_0-7_注記層１
  6
CONTINUOUS
 62
    4
 10
216.55475708958426
 20
270.48334808893338
 11
216.55475708958426
 21
256.14292348698689
  0
LINE
  8
_0-7_注記層１
  6
CONTINUOUS
 62
    4
 10
232.09540538108283
 20
188.0811114282651
 11
217.16365496315774
 21
188.0811114282651
  0
LINE
  8
_0-7_注記層１
  6
CONTINUOUS
 62
    4
 10
31.195416671968673
 20
185.86801453133751
 11
42.531552751413358
 21
185.86801453133751
  0
LINE
  8
_0-7_注記層１
  6
CONTINUOUS
 62
    4
 10
131.58891715065283
 20
257.83113813114596
 11
131.58891715065283
 21
170.08111528567576
  0
LINE
  8
_0-7_注記層１
  6
CONTINUOUS
 62
    4
 10
131.58891715065283
 20
257.83113813114596
 11
132.10655524085786
 21
255.89928647856783
  0
LINE
  8
_0-7_注記層１
  6
CONTINUOUS
 62
    4
 10
131.58891715065283
 20
257.83113813114596
 11
131.07127906044781
 21
255.89928647856783
  0
LINE
  8
_0-7_注記層１
  6
CONTINUOUS
 62
    4
 10
131.58891715065283
 20
170.08111528567576
 11
131.07127906044781
 21
172.0129669382539
  0
LINE
  8
_0-7_注記層１
  6
CONTINUOUS
 62
    4
 10
131.58891715065283
 20
170.08111528567576
 11
132.10655524085786
 21
172.0129669382539
  0
LINE
  8
_0-7_注記層１
  6
CONTINUOUS
 62
    4
 10
129.58891715065283
 20
257.83113813114596
 11
139.8746856120157
 21
257.83113813114596
  0
TEXT
  8
_0-7_注記層１
 62
    7
 10
131.08891715065283
 20
210.83112670841086
 40
2.5
 41
1
 50
90
  1
89
  0
LINE
  8
_0-7_注記層１
  6
CONTINUOUS
 62
    4
 10
129.58891715065283
 20
170.08111528567576
 11
181.49184083840646
 21
170.08111528567576
  0
LINE
  8
_0-7_注記層１
  6
CONTINUOUS
 62
    4
 10
140.55475032802934
 20
275.62741135409266
 11
217.55474518057883
 21
275.62741135409266
  0
LINE
  8
_0-7_注記層１
  6
CONTINUOUS
 62
    4
 10
140.55475032802934
 20
275.62741135409266
 11
142.48660198060747
 21
276.14504944429768
  0
LINE
  8
_0-7_注記層１
  6
CONTINUOUS
 62
    4
 10
140.55475032802934
 20
275.62741135409266
 11
142.48660198060747
 21
275.10977326388763
  0
LINE
  8
_0-7_注記層１
  6
CONTINUOUS
 62
    4
 10
217.55474518057883
 20
275.62741135409266
 11
215.6228935280007
 21
275.10977326388763
  0
LINE
  8
_0-7_注記層１
  6
CONTINUOUS
 62
    4
 10
217.55474518057883
 20
275.62741135409266
 11
215.6228935280007
 21
276.14504944429768
  0
LINE
  8
_0-7_注記層１
  6
CONTINUOUS
 62
    4
 10
140.55475032802934
 20
277.62741135409266
 11
140.55475032802934
 21
270.20399927029149
  0
LINE
  8
_0-7_注記層１
  6
CONTINUOUS
 62
    4
 10
217.55474518057883
 20
277.62741135409266
 11
217.55474518057883
 21
270.20399927029149
  0
TEXT
  8
_0-7_注記層１
 62
    7
 10
177.80474775430412
 20
276.12741135409266
 40
2.5
 41
1
 50
0
  1
77
  0
TEXT
  8
_0-7_注記層１
 62
    7
 10
272.5
 20
28
 40
3.5
 41
1
 50
0
  1
2017.10.24
  0
ENDSEC
  0
EOF
