  0
SECTION
  2
HEADER
  9
$ACADVER
  1
AC1009
  9
$INSBASE
 10
0
 20
0
 30
0
  9
$EXTMIN
 10
0
 20
0
  9
$EXTMAX
 10
420
 20
297
  9
$LIMMIN
 10
0
 20
0
  9
$LIMMAX
 10
420
 20
297
  9
$LTSCALE
 40
1
  0
ENDSEC
  0
SECTION
  2
TABLES
  0
TABLE
  2
LTYPE
 70
     9
  0
LTYPE
  2
CONTINUOUS
 70
    64
  3
実線
 72
    65
 73
     0
 40
0.0
  0
LTYPE
  2
DASHED1
 70
    64
  3
--  --  --  --  --  --  --  --  
 72
    65
 73
     2
 40
2.5
 49
1.25
 49
-1.25
  0
LTYPE
  2
DASHED2
 70
    64
  3
----    ----    ----    ----    
 72
    65
 73
     2
 40
5.0
 49
2.5
 49
-2.5
  0
LTYPE
  2
DASHED3
 70
    64
  3
------  ------  ------  ------  
 72
    65
 73
     2
 40
5.0
 49
3.75
 49
-1.25
  0
LTYPE
  2
CENTER1
 70
    64
  3
----- - ----- - ----- - ----- - 
 72
    65
 73
     4
 40
10.0
 49
6.25
 49
-1.25
 49
1.25
 49
-1.25
  0
LTYPE
  2
CENTER2
 70
    64
  3
----------  --  ----------  --  
 72
    65
 73
     4
 40
20.0
 49
12.5
 49
-2.5
 49
2.5
 49
-2.5
  0
LTYPE
  2
PHANTOM1
 70
    64
  3
--- - - --- - - --- - - --- - - 
 72
    65
 73
     6
 40
10.0
 49
3.25
 49
-1.25
 49
1.25
 49
-1.25
 49
1.25
 49
-1.25
  0
LTYPE
  2
PHANTOM2
 70
    64
  3
--------  -  -  --------  -  -  
 72
    65
 73
     6
 40
20.0
 49
10.0
 49
-2.5
 49
1.25
 49
-2.5
 49
1.25
 49
-2.5
  0
LTYPE
  2
DOT
 70
    64
  3
-   -   -   -   -   -   -   -   
 72
    65
 73
     2
 40
2.5
 49
0.625
 49
-1.875
  0
LTYPE
  2
DUMMY
 70
    64
  3
ダミー
 72
    65
 73
     0
 40
0.0
  0
LTYPE
  2
RAND1
 70
    64
  3
ランダム線1
 72
    65
 73
     4
 40
10.0
 49
1.0
 49
-2.0
 49
3.0
 49
-4.0
  0
LTYPE
  2
RAND2
 70
    64
  3
ランダム線2
 72
    65
 73
     4
 40
14.0
 49
2.0
 49
-3.0
 49
4.0
 49
-5.0
  0
LTYPE
  2
RAND3
 70
    64
  3
ランダム線3
 72
    65
 73
     4
 40
18.0
 49
3.0
 49
-4.0
 49
5.0
 49
-6.0
  0
LTYPE
  2
RAND4
 70
    64
  3
ランダム線4
 72
    65
 73
     4
 40
22.0
 49
4.0
 49
-5.0
 49
6.0
 49
-7.0
  0
LTYPE
  2
RAND5
 70
    64
  3
ランダム線5
 72
    65
 73
     4
 40
26.0
 49
5.0
 49
-6.0
 49
7.0
 49
-8.0
  0
LTYPE
  2
LONG1
 70
    64
  3
----------  --  ----------  --  
 72
    65
 73
     4
 40
40.0
 49
32.5
 49
-2.5
 49
2.5
 49
-2.5
  0
LTYPE
  2
LONG2
 70
    64
  3
--------  -  -  --------  -  -  
 72
    65
 73
     6
 40
40.0
 49
30.0
 49
-2.5
 49
1.25
 49
-2.5
 49
1.25
 49
-2.5
  0
LTYPE
  2
LONG3
 70
    64
  3
+++++++++++++++..+++++++++++++++
 72
    65
 73
     2
 40
40.0
 49
37.5
 49
-2.5
  0
LTYPE
  2
LONG4
 70
    64
  3
+++++++++++++++..+++++++++++++++
 72
    65
 73
     2
 40
80.0
 49
75.0
 49
-5.0
  0
LTYPE
  2
LONG5
 70
    64
  3
----------  --  ----------  --  
 72
    65
 73
     4
 40
60.0
 49
37.5
 49
-7.5
 49
7.5
 49
-7.5
  0
LTYPE
  2
dashed
 70
   64
  3
-------   -------------   ------
 72
   65
 73
    2
 40
7.5
 49
6
 49
-1.5
  0
LTYPE
  2
dashed_spaced
 70
   64
  3
----        --------        ----
 72
   65
 73
    2
 40
12
 49
6
 49
-6
  0
LTYPE
  2
long_dashed_dotted
 70
   64
  3
------------- --- --------------
 72
   65
 73
    4
 40
15.25
 49
12
 49
-1.5
 49
0.25
 49
-1.5
  0
LTYPE
  2
long_dashed_double-dotted
 70
   64
  3
----------- --- --- ------------
 72
   65
 73
    6
 40
17
 49
12
 49
-1.5
 49
0.25
 49
-1.5
 49
0.25
 49
-1.5
  0
LTYPE
  2
long_dashed_triplicate-dotted
 70
   64
  3
--------- --- --- --- ----------
 72
   65
 73
    8
 40
18.75
 49
12
 49
-1.5
 49
0.25
 49
-1.5
 49
0.25
 49
-1.5
 49
0.25
 49
-1.5
  0
LTYPE
  2
dotted
 70
   64
  3
   -       -       -       -    
 72
   65
 73
    2
 40
1.75
 49
0.25
 49
-1.5
  0
LTYPE
  2
chain
 70
   64
  3
-------------- -- --------------
 72
   65
 73
    4
 40
18.5
 49
12
 49
-1.5
 49
3.5
 49
-1.5
  0
LTYPE
  2
chain_double_dash
 70
   64
  3
------------ -- -- -------------
 72
   65
 73
    6
 40
23.5
 49
12
 49
-1.5
 49
3.5
 49
-1.5
 49
3.5
 49
-1.5
  0
LTYPE
  2
dashed_dotted
 70
   64
  3
-----------     -     ----------
 72
   65
 73
    4
 40
9.25
 49
6
 49
-1.5
 49
0.25
 49
-1.5
  0
LTYPE
  2
double-dashed_dotted
 70
   64
  3
------   -----------   -   -----
 72
   65
 73
    6
 40
16.75
 49
6
 49
-1.5
 49
6
 49
-1.5
 49
0.25
 49
-1.5
  0
LTYPE
  2
dashed_double-dotted
 70
   64
  3
---------    -    -    ---------
 72
   65
 73
    6
 40
11
 49
6
 49
-1.5
 49
0.25
 49
-1.5
 49
0.25
 49
-1.5
  0
LTYPE
  2
double-dashed_double-dotted
 70
   64
  3
-----   ---------   -   -   ----
 72
   65
 73
    8
 40
18.5
 49
6
 49
-1.5
 49
6
 49
-1.5
 49
0.25
 49
-1.5
 49
0.25
 49
-1.5
  0
LTYPE
  2
dashed_triplicate-dotted
 70
   64
  3
-------    -    -    -    ------
 72
   65
 73
    8
 40
12.75
 49
6
 49
-1.5
 49
0.25
 49
-1.5
 49
0.25
 49
-1.5
 49
0.25
 49
-1.5
  0
LTYPE
  2
double-dashed_triplicate-dotted
 70
   64
  3
-----  ---------  -  -  -  -----
 72
   65
 73
   10
 40
20.25
 49
6
 49
-1.5
 49
6
 49
-1.5
 49
0.25
 49
-1.5
 49
0.25
 49
-1.5
 49
0.25
 49
-1.5
  0
LTYPE
  2
undefined
 70
   64
  3
--------------------------------
 72
   65
 73
    0
 40
0
  0
LTYPE
  2
DASHED
 70
   64
  3
----        --------        ----
 72
   65
 73
    2
 40
4
 49
2
 49
-2
  0
LTYPE
  2
DOT_18
 70
   64
  3
---           -----           --
 72
   65
 73
    2
 40
3
 49
1
 49
-2
  0
LTYPE
  2
DASHDOT
 70
   64
  3
---------    ------    ---------
 72
   65
 73
    4
 40
17
 49
10
 49
-2
 49
3
 49
-2
  0
LTYPE
  2
DIVIDE
 70
   64
  3
-----------  --  --  -----------
 72
   65
 73
    6
 40
30
 49
20
 49
-2
 49
2
 49
-2
 49
2
 49
-2
  0
LTYPE
  2
CENTER
 70
   64
  3
-------------  --  -------------
 72
   65
 73
    4
 40
13
 49
10
 49
-1
 49
1
 49
-1
  0
LTYPE
  2
_
 70
   64
  3
                                
 72
   65
 73
    0
 40
0
  0
LTYPE
  2
__23
 70
   64
  3
                                
 72
   65
 73
    0
 40
0
  0
LTYPE
  2
__24
 70
   64
  3
                                
 72
   65
 73
    0
 40
0
  0
LTYPE
  2
__25
 70
   64
  3
                                
 72
   65
 73
    0
 40
0
  0
LTYPE
  2
__26
 70
   64
  3
                                
 72
   65
 73
    0
 40
0
  0
LTYPE
  2
__27
 70
   64
  3
                                
 72
   65
 73
    0
 40
0
  0
LTYPE
  2
__28
 70
   64
  3
                                
 72
   65
 73
    0
 40
0
  0
LTYPE
  2
__29
 70
   64
  3
                                
 72
   65
 73
    0
 40
0
  0
LTYPE
  2
__30
 70
   64
  3
                                
 72
   65
 73
    0
 40
0
  0
LTYPE
  2
__31
 70
   64
  3
                                
 72
   65
 73
    0
 40
0
  0
LTYPE
  2
__32
 70
   64
  3
                                
 72
   65
 73
    0
 40
0
  0
ENDTAB
  0
TABLE
  2
STYLE
  5
3
100
AcDbSymbolTable
 70
     1
  0
STYLE
  5
10
100
AcDbSymbolTableRecord
100
AcDbTextStyleTableRecord
  2
STANDARD
 70
     0
 40
0.0
 41
1.0
 50
0.0
 71
     0
 42
0.2
  3
txt
  4
bigfont.shx
  0
STYLE
  5
26
100
AcDbSymbolTableRecord
100
AcDbTextStyleTableRecord
  2
TATEGAKI
 70
    68
 40
0.0
 41
1.0
 50
0.0
 71
     0
 42
1.0
  3
txt
  4
bigfont.shx
  0
ENDTAB
  0
TABLE
  2
LAYER
 70
    5
  0
LAYER
  2
_0-1_作画層１
 70
   64
 62
    7
  6
CONTINUOUS
  0
LAYER
  2
_0-7_注記層１
 70
   64
 62
    7
  6
CONTINUOUS
  0
LAYER
  2
_0-9_寸法線層１
 70
   64
 62
    7
  6
CONTINUOUS
  0
LAYER
  2
_0-d_0_1
 70
   64
 62
    7
  6
CONTINUOUS
  0
LAYER
  2
ADD_LINE
 70
   64
 62
    7
  6
CONTINUOUS
  0
ENDTAB
  0
ENDSEC
  0
SECTION
  2
BLOCKS
  0
BLOCK
  2
-000-_D0
 70
   64
 10
0
 20
0
 30
0
  0
LINE
  8
_0-9_寸法線層１
  6
CONTINUOUS
 62
    7
 10
149.49997329711914
 20
272.11797638436485
 11
177.49996614456177
 21
272.11797638436485
  0
TEXT
  8
_0-9_寸法線層１
 62
    7
 10
161.61174115318667
 20
273.11797638436485
 40
3
 41
1
 50
0
  1
28
  0
LINE
  8
_0-9_寸法線層１
  6
CONTINUOUS
 62
    7
 10
149.49997329711914
 20
263.83771514892578
 11
149.49997329711914
 21
274.11797638436485
  0
LINE
  8
_0-9_寸法線層１
  6
CONTINUOUS
 62
    7
 10
177.49996614456177
 20
266.49996948242187
 11
177.49996614456177
 21
274.11797638436485
  0
ENDBLK
  0
BLOCK
  2
-001-_D1
 70
   64
 10
0
 20
0
 30
0
  0
LINE
  8
_0-9_寸法線層１
  6
CONTINUOUS
 62
    7
 10
177.49996614456177
 20
272.11797638436485
 11
219.50000381469727
 21
272.11797638436485
  0
TEXT
  8
_0-9_寸法線層１
 62
    7
 10
196.61175641197573
 20
273.11797638436485
 40
3
 41
1
 50
0
  1
42
  0
LINE
  8
_0-9_寸法線層１
  6
CONTINUOUS
 62
    7
 10
177.49996614456177
 20
266.49996948242187
 11
177.49996614456177
 21
274.11797638436485
  0
LINE
  8
_0-9_寸法線層１
  6
CONTINUOUS
 62
    7
 10
219.50000381469727
 20
258.49999237060547
 11
219.50000381469727
 21
274.11797638436485
  0
ENDBLK
  0
BLOCK
  2
-002-_D2
 70
   64
 10
0
 20
0
 30
0
  0
LINE
  8
_0-9_寸法線層１
  6
CONTINUOUS
 62
    7
 10
149.49997329711914
 20
277.11797638436485
 11
219.50000381469727
 21
277.11797638436485
  0
TEXT
  8
_0-9_寸法線層１
 62
    7
 10
182.61175998825442
 20
278.11797638436485
 40
3
 41
1
 50
0
  1
70
  0
LINE
  8
_0-9_寸法線層１
  6
CONTINUOUS
 62
    7
 10
149.49997329711914
 20
263.83771514892578
 11
149.49997329711914
 21
279.11797638436485
  0
LINE
  8
_0-9_寸法線層１
  6
CONTINUOUS
 62
    7
 10
219.50000381469727
 20
258.49999237060547
 11
219.50000381469727
 21
279.11797638436485
  0
ENDBLK
  0
BLOCK
  2
-003-_D3
 70
   64
 10
0
 20
0
 30
0
  0
LINE
  8
_0-9_寸法線層１
  6
CONTINUOUS
 62
    7
 10
317.5
 20
61.249988555908203
 11
317.5
 21
129.75000381469727
  0
TEXT
  8
_0-9_寸法線層１
 62
    7
 10
316.5
 20
92.861767617648951
 40
3
 41
1
 50
90
  1
137
  0
LINE
  8
_0-9_寸法線層１
  6
CONTINUOUS
 62
    7
 10
306.24999618530273
 20
61.249988555908203
 11
319.5
 21
61.249988555908203
  0
LINE
  8
_0-9_寸法線層１
  6
CONTINUOUS
 62
    7
 10
306.24999618530273
 20
129.75000381469727
 11
319.5
 21
129.75000381469727
  0
ENDBLK
  0
BLOCK
  2
-004-_D4
 70
   64
 10
0
 20
0
 30
0
  0
LINE
  8
_0-9_寸法線層１
  6
CONTINUOUS
 62
    7
 10
252.5
 20
65.500006468987479
 11
252.5
 21
125.49999061107285
  0
TEXT
  8
_0-9_寸法線層１
 62
    7
 10
251.5
 20
92.861769972376379
 40
3
 41
1
 50
90
  1
120
  0
LINE
  8
_0-9_寸法線層１
  6
CONTINUOUS
 62
    7
 10
266.25000320475573
 20
65.500006468987479
 11
250.5
 21
65.500006468987479
  0
LINE
  8
_0-9_寸法線層１
  6
CONTINUOUS
 62
    7
 10
286.78781285702519
 20
125.49999061107285
 11
250.5
 21
125.49999061107285
  0
ENDBLK
  0
BLOCK
  2
-005-_D5
 70
   64
 10
0
 20
0
 30
0
  0
TEXT
  8
_0-9_寸法線層１
 62
    7
 10
289.76800757691149
 20
120.49694273344436
 40
3
 41
1
 50
-28.482074978254666
  1
φ7
  0
LINE
  8
_0-9_寸法線層１
  6
CONTINUOUS
 62
    7
 10
285.52601780197301
 20
121.66073722655533
 11
293.92895204279745
 21
117.10171946353245
  0
ENDBLK
  0
BLOCK
  2
-006-_D6
 70
   64
 10
0
 20
0
 30
0
  0
LINE
  8
_0-9_寸法線層１
  6
CONTINUOUS
 62
    7
 10
25.000000000000014
 20
102.5
 11
121
 21
102.5
  0
TEXT
  8
_0-9_寸法線層１
 62
    7
 10
71.111771432346217
 20
103.5
 40
3
 41
1
 50
0
  1
96
  0
LINE
  8
_0-9_寸法線層１
  6
CONTINUOUS
 62
    7
 10
25.000000000000014
 20
124.5
 11
25.000000000000014
 21
100.5
  0
LINE
  8
_0-9_寸法線層１
  6
CONTINUOUS
 62
    7
 10
121
 20
124.5
 11
121
 21
100.5
  0
ENDBLK
  0
BLOCK
  2
-007-_D7
 70
   64
 10
0
 20
0
 30
0
  0
LINE
  8
_0-9_寸法線層１
  6
CONTINUOUS
 62
    7
 10
17.5
 20
267
 11
17.5
 21
125
  0
TEXT
  8
_0-9_寸法線層１
 62
    7
 10
16.5
 20
193.36177143234622
 40
3
 41
1
 50
90
  1
142
  0
LINE
  8
_0-9_寸法線層１
  6
CONTINUOUS
 62
    7
 10
24.500000000000014
 20
267
 11
15.5
 21
267
  0
LINE
  8
_0-9_寸法線層１
  6
CONTINUOUS
 62
    7
 10
24.500000000000014
 20
125
 11
15.5
 21
125
  0
ENDBLK
  0
BLOCK
  2
-008-_D8
 70
   64
 10
0
 20
0
 30
0
  0
LINE
  8
_0-9_寸法線層１
  6
CONTINUOUS
 62
    7
 10
17.5
 20
125
 11
17.5
 21
111.99321985009966
  0
TEXT
  8
_0-9_寸法線層１
 62
    7
 10
16.5
 20
115.10838135739604
 40
3
 41
1
 50
90
  1
(13)
  0
LINE
  8
_0-9_寸法線層１
  6
CONTINUOUS
 62
    7
 10
27.5
 20
125
 11
15.5
 21
125
  0
LINE
  8
_0-9_寸法線層１
  6
CONTINUOUS
 62
    7
 10
47.917815765136403
 20
111.99321985009966
 11
15.5
 21
111.99321985009966
  0
ENDBLK
  0
BLOCK
  2
-009-_D9
 70
   64
 10
0
 20
0
 30
0
  0
LINE
  8
_0-9_寸法線層１
  6
CONTINUOUS
 62
    7
 10
261.24999809265137
 20
42.5
 11
306.74999809265137
 21
42.5
  0
TEXT
  8
_0-9_寸法線層１
 62
    7
 10
282.11176952499761
 20
43.5
 40
3
 41
1
 50
0
  1
91
  0
LINE
  8
_0-9_寸法線層１
  6
CONTINUOUS
 62
    7
 10
261.24999809265137
 20
62.999980926513672
 11
261.24999809265137
 21
40.5
  0
LINE
  8
_0-9_寸法線層１
  6
CONTINUOUS
 62
    7
 10
306.74999809265137
 20
62.999980926513672
 11
306.74999809265137
 21
40.5
  0
ENDBLK
  0
BLOCK
  2
-010-_D10
 70
   64
 10
0
 20
0
 30
0
  0
LINE
  8
_0-9_寸法線層１
  6
CONTINUOUS
 62
    7
 10
264.25000320475573
 20
47.5
 11
303.75000320475573
 21
47.5
  0
TEXT
  8
_0-9_寸法線層１
 62
    7
 10
282.11177463710197
 20
48.5
 40
3
 41
1
 50
0
  1
79
  0
LINE
  8
_0-9_寸法線層１
  6
CONTINUOUS
 62
    7
 10
264.25000320475573
 20
67.500006468987479
 11
264.25000320475573
 21
45.5
  0
LINE
  8
_0-9_寸法線層１
  6
CONTINUOUS
 62
    7
 10
303.75000320475573
 20
67.500006468987479
 11
303.75000320475573
 21
45.5
  0
ENDBLK
  0
ENDSEC
  0
SECTION
  2
ENTITIES
  0
TEXT
  8
_0-7_注記層１
 62
    7
 10
271.25
 20
263
 40
3.5
 41
1
 50
0
  1
型　　 　番
  0
TEXT
  8
_0-7_注記層１
 62
    7
 10
271.25
 20
253
 40
3.5
 41
1
 50
0
  1
許容電圧変動範囲
  0
TEXT
  8
_0-7_注記層１
 62
    7
 10
271.25
 20
248
 40
3.5
 41
1
 50
0
  1
周　　波　　数
  0
TEXT
  8
_0-7_注記層１
 62
    7
 10
271.25
 20
243
 40
3.5
 41
1
 50
0
  1
停　電　補　償
  0
TEXT
  8
_0-7_注記層１
 62
    7
 10
271.25
 20
258
 40
3.5
 41
1
 50
0
  1
電  源  電  圧
  0
TEXT
  8
_0-7_注記層１
 62
    7
 10
268.75
 20
272.25
 40
5
 41
1
 50
0
  1
規　格
  0
LINE
  8
_0-1_作画層１
  6
CONTINUOUS
 62
    7
 10
266.25
 20
272.25
 11
286.25
 21
272.25
  0
TEXT
  8
_0-7_注記層１
 62
    7
 10
301.125
 20
28
 40
3.5
 41
1
 50
0
  1
1/1
  0
TEXT
  8
_0-7_注記層１
 62
    7
 10
335.25
 20
30.5
 40
3.5
 41
1
 50
0
  1
承認
  0
TEXT
  8
_0-7_注記層１
 62
    7
 10
273.75
 20
17.25
 40
5
 41
1
 50
0
  1
スナオ電気株式会社
  0
LINE
  8
_0-1_作画層１
  6
CONTINUOUS
 62
    7
 10
268.75
 20
34.75
 11
268.75
 21
14.75
  0
LINE
  8
_0-1_作画層１
  6
CONTINUOUS
 62
    7
 10
293.75
 20
34.75
 11
293.75
 21
24.75
  0
LINE
  8
_0-1_作画層１
  6
CONTINUOUS
 62
    7
 10
313.75
 20
34.75
 11
313.75
 21
24.75
  0
LINE
  8
_0-1_作画層１
  6
CONTINUOUS
 62
    7
 10
333.75
 20
34.75
 11
333.75
 21
24.75
  0
LINE
  8
_0-1_作画層１
  6
CONTINUOUS
 62
    7
 10
358.75
 20
14.75
 11
358.75
 21
34.75
  0
LINE
  8
_0-1_作画層１
  6
CONTINUOUS
 62
    7
 10
413.75
 20
292.25
 11
16.25
 21
292.25
  0
LINE
  8
_0-1_作画層１
  6
CONTINUOUS
 62
    7
 10
16.25
 20
14.75
 11
16.25
 21
292.25
  0
LINE
  8
_0-1_作画層１
  6
CONTINUOUS
 62
    7
 10
413.75
 20
14.75
 11
16.25
 21
14.75
  0
LINE
  8
_0-1_作画層１
  6
CONTINUOUS
 62
    7
 10
413.75
 20
34.75
 11
268.75
 21
34.75
  0
LINE
  8
_0-1_作画層１
  6
CONTINUOUS
 62
    7
 10
413.75
 20
24.75
 11
268.75
 21
24.75
  0
LINE
  8
_0-1_作画層１
  6
CONTINUOUS
 62
    7
 10
413.75
 20
14.75
 11
413.75
 21
292.25
  0
TEXT
  8
_0-7_注記層１
 62
    7
 10
363.75
 20
28
 40
3.5
 41
1
 50
0
  1
カレンダータイマー
  0
TEXT
  8
_0-7_注記層１
 62
    7
 10
318.5
 20
28
 40
3.5
 41
1
 50
0
  1
ゴトウ
  0
LINE
  8
_0-1_作画層１
  6
CONTINUOUS
 62
    7
 10
381.25
 20
267.25
 11
268.75
 21
267.25
  0
LINE
  8
_0-1_作画層１
  6
CONTINUOUS
 62
    7
 10
381.25
 20
262.25
 11
268.75
 21
262.25
  0
LINE
  8
_0-1_作画層１
  6
CONTINUOUS
 62
    7
 10
381.25
 20
257.25
 11
268.75
 21
257.25
  0
LINE
  8
_0-1_作画層１
  6
CONTINUOUS
 62
    7
 10
381.25
 20
252.25
 11
268.75
 21
252.25
  0
LINE
  8
_0-1_作画層１
  6
CONTINUOUS
 62
    7
 10
381.25
 20
247.25
 11
268.75
 21
247.25
  0
LINE
  8
_0-1_作画層１
  6
CONTINUOUS
 62
    7
 10
381.25
 20
242.25
 11
268.75
 21
242.25
  0
TEXT
  8
_0-7_注記層１
 62
    7
 10
43.75
 20
277.25
 40
5
 41
1
 50
0
  1
外形寸法
  0
LINE
  8
_0-1_作画層１
  6
CONTINUOUS
 62
    7
 10
41.25
 20
277.25
 11
66.25
 21
277.25
  0
ARC
  8
_0-1_作画層１
  6
CONTINUOUS
 62
    7
 10
34.25
 20
268.75
 40
3
 50
89.99999999999946
 51
180
  0
LINE
  8
_0-1_作画層１
  6
CONTINUOUS
 62
    7
 10
34.25
 20
271.75
 11
124.24999999999999
 21
271.75
  0
ARC
  8
_0-1_作画層１
  6
CONTINUOUS
 62
    7
 10
124.25
 20
268.75
 40
3
 50
0
 51
90.000000000000284
  0
LINE
  8
_0-1_作画層１
  6
CONTINUOUS
 62
    7
 10
127.25
 20
268.75
 11
127.24999999999999
 21
132.75
  0
ARC
  8
_0-1_作画層１
  6
CONTINUOUS
 62
    7
 10
124.25000000000001
 20
132.74999999999997
 40
2.9999999999999716
 50
269.99999999999943
 51
0.0000000000005852
  0
ARC
  8
_0-1_作画層１
  6
CONTINUOUS
 62
    7
 10
34.25
 20
268.75508260033854
 40
1
 50
89.999999999999588
 51
180
  0
LINE
  8
_0-1_作画層１
  6
CONTINUOUS
 62
    7
 10
34.25
 20
269.75508260033854
 11
124.25
 21
269.75508260033854
  0
ARC
  8
_0-1_作画層１
  6
CONTINUOUS
 62
    7
 10
124.25000000000001
 20
268.75508260033854
 40
0.9999999999999856
 50
0
 51
90.00000000000081
  0
LINE
  8
_0-1_作画層１
  6
CONTINUOUS
 62
    7
 10
125.25
 20
268.75508260033854
 11
125.24999999999999
 21
133.64442719099992
  0
ARC
  8
_0-1_作画層１
  6
CONTINUOUS
 62
    7
 10
124.25
 20
133.64442719099989
 40
0.9999999999999856
 50
269.9999999999992
 51
0.0000000000016284
  0
ARC
  8
_0-1_作画層１
  6
CONTINUOUS
 62
    7
 10
35.75
 20
267.25
 40
1
 50
89.999999999999588
 51
180
  0
LINE
  8
_0-1_作画層１
  6
CONTINUOUS
 62
    7
 10
35.75
 20
268.25
 11
122.74999999999999
 21
268.25
  0
ARC
  8
_0-1_作画層１
  6
CONTINUOUS
 62
    7
 10
122.75
 20
267.25
 40
1
 50
0
 51
90.00000000000081
  0
LINE
  8
_0-d_0_1
  6
CONTINUOUS
 62
    7
 10
176.74999237060547
 20
270.74996948242187
 11
183.74996614456177
 21
270.74996948242187
  0
LINE
  8
_0-d_0_1
  6
CONTINUOUS
 62
    7
 10
176.74999237060547
 20
270.74996948242187
 11
176.74999237060547
 21
128.7499885559082
  0
LINE
  8
_0-d_0_1
  6
CONTINUOUS
 62
    7
 10
183.74996614456177
 20
270.74996948242187
 11
183.74996614456177
 21
128.7499885559082
  0
LINE
  8
_0-d_0_1
  6
CONTINUOUS
 62
    7
 10
176.74999237060547
 20
128.7499885559082
 11
183.74996614456177
 21
128.7499885559082
  0
LINE
  8
_0-d_0_1
  6
CONTINUOUS
 62
    7
 10
176.74999237060547
 20
128.74999618530273
 11
183.74996614456177
 21
128.74999618530273
  0
LINE
  8
_0-d_0_1
  6
CONTINUOUS
 62
    7
 10
225.75000381469727
 20
143.24997329711914
 11
225.75000381469727
 21
134.2499885559082
  0
LINE
  8
_0-d_0_1
  6
CONTINUOUS
 62
    7
 10
183.74996614456177
 20
130.64999008178711
 11
223.75
 21
131.04999160766602
  0
LINE
  8
_0-d_0_1
  6
CONTINUOUS
 62
    7
 10
223.75
 20
143.24997329711914
 11
225.75000381469727
 21
143.24997329711914
  0
LINE
  8
_0-d_0_1
  6
CONTINUOUS
 62
    7
 10
223.75
 20
134.2499885559082
 11
225.75000381469727
 21
134.2499885559082
  0
LINE
  8
_0-d_0_1
  6
CONTINUOUS
 62
    7
 10
225.75000381469727
 20
262.74999237060547
 11
225.75000381469727
 21
246.74996566772458
  0
LINE
  8
_0-d_0_1
  6
CONTINUOUS
 62
    7
 10
183.74996614456177
 20
268.84997940063477
 11
223.75
 21
268.44999313354492
  0
LINE
  8
_0-d_0_1
  6
CONTINUOUS
 62
    7
 10
223.75
 20
268.44999313354492
 11
223.75
 21
131.04999160766602
  0
LINE
  8
_0-d_0_1
  6
CONTINUOUS
 62
    7
 10
223.75
 20
262.74999237060547
 11
225.75000381469727
 21
262.74999237060547
  0
LINE
  8
_0-d_0_1
  6
CONTINUOUS
 62
    7
 10
223.75
 20
246.74996566772458
 11
225.75000381469727
 21
246.74996566772458
  0
LINE
  8
_0-d_0_1
  6
CONTINUOUS
 62
    7
 10
224.75
 20
202.74999427795413
 11
224.75
 21
198.7499809265137
  0
LINE
  8
_0-d_0_1
  6
CONTINUOUS
 62
    7
 10
223.75
 20
198.7499809265137
 11
224.75
 21
198.7499809265137
  0
LINE
  8
_0-d_0_1
  6
CONTINUOUS
 62
    7
 10
223.75
 20
202.74999427795413
 11
224.75
 21
202.74999427795413
  0
LINE
  8
_0-d_0_1
  6
CONTINUOUS
 62
    7
 10
176.74999237060547
 20
271.75
 11
176.74999237060547
 21
129.74997329711914
  0
LINE
  8
_0-d_0_1
  6
CONTINUOUS
 62
    7
 10
174.74998569488525
 20
271.75
 11
176.74999237060547
 21
271.75
  0
LINE
  8
_0-d_0_1
  6
CONTINUOUS
 62
    7
 10
176.74999237060547
 20
129.74997329711914
 11
174.74998569488525
 21
129.74997329711914
  0
LINE
  8
_0-d_0_1
  6
CONTINUOUS
 62
    7
 10
174.74998569488525
 20
271.75
 11
174.74998569488525
 21
129.74997329711914
  0
LINE
  8
_0-d_0_1
  6
CONTINUOUS
 62
    7
 10
174.74998569488525
 20
269.74999237060547
 11
155.74997329711914
 21
268.08771514892578
  0
LINE
  8
_0-d_0_1
  6
CONTINUOUS
 62
    7
 10
174.74998569488525
 20
131.74998092651367
 11
166.74998378753662
 21
132.44991683959961
  0
LINE
  8
_0-d_0_1
  6
CONTINUOUS
 62
    7
 10
155.74997329711914
 20
176.2499809265137
 11
155.74997329711914
 21
268.08771514892578
  0
LINE
  8
_0-d_0_1
  6
CONTINUOUS
 62
    7
 10
166.74998378753662
 20
167.74997711181643
 11
166.74998378753662
 21
132.44991683959961
  0
LINE
  8
_0-d_0_1
  6
CONTINUOUS
 62
    7
 10
155.74999809265137
 20
176.2499809265137
 11
161.51185607910156
 21
174.70608139038089
  0
LINE
  8
_0-d_0_1
  6
CONTINUOUS
 62
    7
 10
176.7499676266234
 20
186.24996566772464
 11
176.7499676266234
 21
256.24999618530273
  0
LINE
  8
_0-d_0_1
  6
CONTINUOUS
 62
    7
 10
158.7499828338623
 20
212.74997806549075
 11
164.74997806549072
 21
212.24997615814212
  0
LINE
  8
_0-d_0_1
  6
CONTINUOUS
 62
    7
 10
158.7499828338623
 20
229.74998378753659
 11
164.74997806549072
 21
230.249960899353
  0
LINE
  8
_0-d_0_1
  6
CONTINUOUS
 62
    7
 10
163.24997234344482
 20
247.74999427795407
 11
162.24996948242187
 21
230.04164123535153
  0
LINE
  8
_0-d_0_1
  6
CONTINUOUS
 62
    7
 10
163.24997234344482
 20
247.74999427795407
 11
163.24997234344482
 21
230.12497901916501
  0
LINE
  8
_0-d_0_1
  6
CONTINUOUS
 62
    7
 10
163.24997234344482
 20
247.74999427795407
 11
164.74997806549072
 21
247.74999427795407
  0
LINE
  8
_0-d_0_1
  6
CONTINUOUS
 62
    7
 10
164.74997806549072
 20
224.99998092651364
 11
166.74998378753662
 21
224.99998092651364
  0
LINE
  8
_0-d_0_1
  6
CONTINUOUS
 62
    7
 10
164.74997806549072
 20
217.49998092651364
 11
166.74998378753662
 21
217.49998092651364
  0
LINE
  8
_0-d_0_1
  6
CONTINUOUS
 62
    7
 10
164.74997806549072
 20
247.74999427795407
 11
164.74997806549072
 21
212.24997615814212
  0
LINE
  8
_0-d_0_1
  6
CONTINUOUS
 62
    7
 10
166.74995899200439
 20
222.24998426437375
 11
175.2499874830246
 21
222.24998426437375
  0
LINE
  8
_0-d_0_1
  6
CONTINUOUS
 62
    7
 10
158.7499828338623
 20
229.73291110992429
 11
158.7499828338623
 21
212.74997806549075
  0
ARC
  8
_0-d_0_1
  6
CONTINUOUS
 62
    7
 10
159.75865273785087
 20
167.92617627745267
 40
6.9999999999998632
 50
356.81216430664011
 51
76.243179321289816
  0
LINE
  8
_0-d_0_1
  6
CONTINUOUS
 62
    7
 10
157.7499828338623
 20
213.7499809265137
 11
158.7499828338623
 21
213.7499809265137
  0
LINE
  8
_0-d_0_1
  6
CONTINUOUS
 62
    7
 10
157.7499828338623
 20
228.74998092651364
 11
158.7499828338623
 21
228.74998092651364
  0
LINE
  8
_0-d_0_1
  6
CONTINUOUS
 62
    7
 10
157.7499828338623
 20
228.74998092651364
 11
157.7499828338623
 21
213.7499809265137
  0
LINE
  8
_0-d_0_1
  6
CONTINUOUS
 62
    7
 10
49.343482920413408
 20
219.88359192246804
 11
42.361915537600908
 21
219.33115986222634
  0
LINE
  8
_0-d_0_1
  6
CONTINUOUS
 62
    7
 10
42.296520182376298
 20
220.32901779050241
 11
49.290456721072587
 21
220.69258156651864
  0
LINE
  8
_0-d_0_1
  6
CONTINUOUS
 62
    7
 10
49.562280604129228
 20
217.93267849320779
 11
42.631805369143876
 21
216.92481211060891
  0
LINE
  8
_0-d_0_1
  6
CONTINUOUS
 62
    7
 10
42.501285502200517
 20
217.91625717515359
 11
49.456464716678056
 21
218.736471446699
  0
LINE
  8
_0-d_0_1
  6
CONTINUOUS
 62
    7
 10
49.908216425662431
 20
216.00025156373391
 11
43.058494517093095
 21
214.54126337403665
  0
LINE
  8
_0-d_0_1
  6
CONTINUOUS
 62
    7
 10
42.863403269534501
 20
215.52205255860696
 11
49.750047632937822
 21
216.79540041322122
  0
LINE
  8
_0-d_0_1
  6
CONTINUOUS
 62
    7
 10
50.379793116336259
 20
214.09458616608987
 11
43.640155741458329
 21
212.190732749647
  0
LINE
  8
_0-d_0_1
  6
CONTINUOUS
 62
    7
 10
43.38133997607747
 20
213.1566579663218
 11
50.16996187854329
 21
214.87769726151834
  0
LINE
  8
_0-d_0_1
  6
CONTINUOUS
 62
    7
 10
50.974988886599931
 20
212.22384718293557
 11
44.374305674319658
 21
209.88327196473489
  0
LINE
  8
_0-d_0_1
  6
CONTINUOUS
 62
    7
 10
44.052867838626298
 20
210.83020380372415
 11
50.714397379641923
 21
212.99155119294534
  0
LINE
  8
_0-d_0_1
  6
CONTINUOUS
 62
    7
 10
51.69127649951497
 20
210.39603689545999
 11
45.257801005130204
 21
207.62877634400735
  0
LINE
  8
_0-d_0_1
  6
CONTINUOUS
 62
    7
 10
44.875122019534501
 20
208.55265501374612
 11
51.381017634158525
 21
211.14505365723977
  0
LINE
  8
_0-d_0_1
  6
CONTINUOUS
 62
    7
 10
52.525567957644853
 20
208.61898783082376
 11
46.28685755420247
 21
205.43688753480325
  0
LINE
  8
_0-d_0_1
  6
CONTINUOUS
 62
    7
 10
45.844562479739579
 20
206.33375814790139
 11
52.166990229373368
 21
209.34611585969338
  0
LINE
  8
_0-d_0_1
  6
CONTINUOUS
 62
    7
 10
46.957065531497392
 20
204.18301370973001
 11
53.068935343509111
 21
207.60242536897073
  0
LINE
  8
_0-d_0_1
  6
CONTINUOUS
 62
    7
 10
66.346114107852372
 20
195.16699198121438
 11
63.33375639606038
 21
188.84456423158059
  0
LINE
  8
_0-d_0_1
  6
CONTINUOUS
 62
    7
 10
62.436885782962236
 20
189.28685930604348
 11
65.618986078982743
 21
195.52556970948586
  0
LINE
  8
_0-d_0_1
  6
CONTINUOUS
 62
    7
 10
68.145051905398759
 20
194.38101938599954
 11
65.552653261905107
 21
187.87512377137551
  0
LINE
  8
_0-d_0_1
  6
CONTINUOUS
 62
    7
 10
64.628774592166337
 20
188.25780275697122
 11
67.396035143618974
 21
194.69127825135598
  0
LINE
  8
_0-d_0_1
  6
CONTINUOUS
 62
    7
 10
69.991549441104326
 20
193.71439913148293
 11
67.830202051883134
 21
187.05286959046731
  0
LINE
  8
_0-d_0_1
  6
CONTINUOUS
 62
    7
 10
66.883270212893876
 20
187.37430742616067
 11
69.22384543109456
 21
193.97499063844094
  0
LINE
  8
_0-d_0_1
  6
CONTINUOUS
 62
    7
 10
71.877695509677324
 20
193.1699636303843
 11
70.15665621448079
 21
186.38134172791848
  0
LINE
  8
_0-d_0_1
  6
CONTINUOUS
 62
    7
 10
69.190730997805986
 20
186.64015749329934
 11
71.094584414248857
 21
193.37979486817727
  0
LINE
  8
_0-d_0_1
  6
CONTINUOUS
 62
    7
 10
73.795398661380204
 20
192.75004938477883
 11
72.522050806765947
 21
185.86339739198098
  0
LINE
  8
_0-d_0_1
  6
CONTINUOUS
 62
    7
 10
71.541261622195634
 20
186.05849626893411
 11
73.0002498118929
 21
192.90821817750344
  0
LINE
  8
_0-d_0_1
  6
CONTINUOUS
 62
    7
 10
75.736469694857988
 20
192.45646646851907
 11
74.916255423312577
 21
185.50128725404153
  0
LINE
  8
_0-d_0_1
  6
CONTINUOUS
 62
    7
 10
73.9248103587679
 20
185.63180712098489
 11
74.932676741366777
 21
192.56228235597024
  0
LINE
  8
_0-d_0_1
  6
CONTINUOUS
 62
    7
 10
77.692579814677629
 20
192.2904584729136
 11
77.329016038661393
 21
185.29652193421731
  0
LINE
  8
_0-d_0_1
  6
CONTINUOUS
 62
    7
 10
76.331158110385331
 20
185.36191728944192
 11
76.883590170627031
 21
192.34348467225442
  0
LINE
  8
_0-d_0_1
  6
CONTINUOUS
 62
    7
 10
79.6553652374796
 20
192.25274256104836
 11
79.750000604873094
 21
185.25000551576028
  0
LINE
  8
_0-d_0_1
  6
CONTINUOUS
 62
    7
 10
78.749999293570909
 20
185.25000551576028
 11
78.844634660964402
 21
192.25274256104836
  0
LINE
  8
_0-d_0_1
  6
CONTINUOUS
 62
    7
 10
81.616409727816972
 20
192.34348467225442
 11
82.168841788058657
 21
185.36192873353372
  0
LINE
  8
_0-d_0_1
  6
CONTINUOUS
 62
    7
 10
81.170983859782609
 20
185.29652193421731
 11
80.807420083766374
 21
192.2904584729136
  0
LINE
  8
_0-d_0_1
  6
CONTINUOUS
 62
    7
 10
83.567323157077212
 20
192.56228235597024
 11
84.575198122744936
 21
185.63180712098489
  0
LINE
  8
_0-d_0_1
  6
CONTINUOUS
 62
    7
 10
83.583753058200259
 20
185.50128725404153
 11
82.763530203586001
 21
192.45646646851907
  0
LINE
  8
_0-d_0_1
  6
CONTINUOUS
 62
    7
 10
85.499750086551089
 20
192.90821817750344
 11
86.958746859317202
 21
186.05849626893411
  0
LINE
  8
_0-d_0_1
  6
CONTINUOUS
 62
    7
 10
85.977940508609194
 20
185.86340502137551
 11
84.704609820132632
 21
192.75004938477883
  0
LINE
  8
_0-d_0_1
  6
CONTINUOUS
 62
    7
 10
87.405424067263979
 20
193.37979486817727
 11
89.309260317569155
 21
186.64015749329934
  0
LINE
  8
_0-d_0_1
  6
CONTINUOUS
 62
    7
 10
88.343343683963198
 20
186.38134172791848
 11
86.622304388766665
 21
193.1699636303843
  0
LINE
  8
_0-d_0_1
  6
CONTINUOUS
 62
    7
 10
89.276154467349429
 20
193.97499063844094
 11
91.616729685550112
 21
187.37430742616067
  0
LINE
  8
_0-d_0_1
  6
CONTINUOUS
 62
    7
 10
90.669797846560854
 20
187.05286959046731
 11
88.508450457339663
 21
193.71439913148293
  0
LINE
  8
_0-d_0_1
  6
CONTINUOUS
 62
    7
 10
91.103964754825014
 20
194.69127825135598
 11
93.871233889346499
 21
188.25780275697122
  0
LINE
  8
_0-d_0_1
  6
CONTINUOUS
 62
    7
 10
92.947346636538882
 20
187.87512377137551
 11
90.354947993045229
 21
194.38101938599954
  0
LINE
  8
_0-d_0_1
  6
CONTINUOUS
 62
    7
 10
92.881013819461245
 20
195.52556970948586
 11
96.063114115481753
 21
189.28685930604348
  0
LINE
  8
_0-d_0_1
  6
CONTINUOUS
 62
    7
 10
95.166243502383608
 20
188.84456423158059
 11
92.153885790591616
 21
195.16699198121438
  0
LINE
  8
_0-d_0_1
  6
CONTINUOUS
 62
    7
 10
100.74790377307453
 20
201.3253705822886
 11
105.76650995898761
 21
196.44060304993997
  0
LINE
  8
_0-d_0_1
  6
CONTINUOUS
 62
    7
 10
105.05939860034503
 20
195.73350122804055
 11
100.1746310679964
 21
200.75209787721047
  0
LINE
  8
_0-d_0_1
  6
CONTINUOUS
 62
    7
 10
102.07041926074542
 20
202.77620485658059
 11
107.39775271106281
 21
198.23012712830911
  0
LINE
  8
_0-d_0_1
  6
CONTINUOUS
 62
    7
 10
106.73839182544269
 20
197.47829225892434
 11
101.53585238147296
 21
202.16666963929543
  0
LINE
  8
_0-d_0_1
  6
CONTINUOUS
 62
    7
 10
103.29519266772785
 20
204.31042269105325
 11
108.90845293689289
 21
200.12250307435403
  0
LINE
  8
_0-d_0_1
  6
CONTINUOUS
 62
    7
 10
108.29969782519855
 20
199.3291547619761
 11
102.80165857959308
 21
203.66723039979348
  0
LINE
  8
_0-d_0_1
  6
CONTINUOUS
 62
    7
 10
104.41701311755695
 20
205.92146471375833
 11
110.29215807605304
 21
202.10964372987161
  0
LINE
  8
_0-d_0_1
  6
CONTINUOUS
 62
    7
 10
109.73659510303058
 20
201.27817133302102
 11
103.96659083056964
 21
205.24737146729836
  0
LINE
  8
_0-d_0_1
  6
CONTINUOUS
 62
    7
 10
105.43106455493488
 20
207.60242536897073
 11
111.5429343669466
 21
204.18301370973001
  0
LINE
  8
_0-d_0_1
  6
CONTINUOUS
 62
    7
 10
111.04294199634113
 20
203.31699159974465
 11
105.0256995647005
 21
206.90031984681497
  0
LINE
  8
_0-d_0_1
  6
CONTINUOUS
 62
    7
 10
106.33300966907062
 20
209.34611585969338
 11
112.65542597461261
 21
206.33375814790139
  0
LINE
  8
_0-d_0_1
  6
CONTINUOUS
 62
    7
 10
112.21314234424152
 20
205.43688753480325
 11
105.97443194079914
 21
208.61898783082376
  0
LINE
  8
_0-d_0_1
  6
CONTINUOUS
 62
    7
 10
107.11898226428546
 20
211.14505365723977
 11
113.62487787890949
 21
208.55265501374612
  0
LINE
  8
_0-d_0_1
  6
CONTINUOUS
 62
    7
 10
113.24220652270832
 20
207.62877634400735
 11
106.80873293567218
 21
210.39603689545999
  0
LINE
  8
_0-d_0_1
  6
CONTINUOUS
 62
    7
 10
107.78560251880207
 20
212.99155119294534
 11
114.44712061572589
 21
210.83020380372415
  0
LINE
  8
_0-d_0_1
  6
CONTINUOUS
 62
    7
 10
114.12569422412433
 20
209.88327196473489
 11
107.52501101184406
 21
212.22384718293557
  0
LINE
  8
_0-d_0_1
  6
CONTINUOUS
 62
    7
 10
108.3300380199007
 20
214.87769726151834
 11
115.11865992236652
 21
213.1566579663218
  0
LINE
  8
_0-d_0_1
  6
CONTINUOUS
 62
    7
 10
114.85983652759113
 20
212.190732749647
 11
108.12020678210773
 21
214.09458616608987
  0
LINE
  8
_0-d_0_1
  6
CONTINUOUS
 62
    7
 10
108.74996180224933
 20
216.79540041322122
 11
115.63660425830402
 21
215.52205255860696
  0
LINE
  8
_0-d_0_1
  6
CONTINUOUS
 62
    7
 10
115.44150538135089
 20
214.54126337403665
 11
108.59178347278156
 21
216.00025156373391
  0
LINE
  8
_0-d_0_1
  6
CONTINUOUS
 62
    7
 10
109.04353518176593
 20
218.736471446699
 11
115.99871439624347
 21
217.91625717515359
  0
LINE
  8
_0-d_0_1
  6
CONTINUOUS
 62
    7
 10
115.86820215869464
 20
216.92481211060891
 11
108.9377097575716
 21
217.93267849320779
  0
LINE
  8
_0-d_0_1
  6
CONTINUOUS
 62
    7
 10
109.20955080676593
 20
220.69258156651864
 11
116.20348734546222
 21
220.32901779050241
  0
LINE
  8
_0-d_0_1
  6
CONTINUOUS
 62
    7
 10
116.13808436084308
 20
219.33115986222634
 11
109.15651697803058
 21
219.88359192246804
  0
LINE
  8
_0-d_0_1
  6
CONTINUOUS
 62
    7
 10
109.24725908923664
 20
222.65536698932061
 11
116.24999613452472
 21
222.75000235671411
  0
LINE
  8
_0-d_0_1
  6
CONTINUOUS
 62
    7
 10
116.24999613452472
 20
221.75000104541192
 11
109.24725908923664
 21
221.84463641280541
  0
LINE
  8
_0-d_0_1
  6
CONTINUOUS
 62
    7
 10
109.15651697803058
 20
224.61641147965798
 11
116.13808436084308
 21
225.16884353989968
  0
LINE
  8
_0-d_0_1
  6
CONTINUOUS
 62
    7
 10
116.20348734546222
 20
224.17098561162362
 11
109.20955080676593
 21
223.80742183560739
  0
LINE
  8
_0-d_0_1
  6
CONTINUOUS
 62
    7
 10
108.9377097575716
 20
226.56732490891824
 11
115.86820215869464
 21
227.57519129151711
  0
LINE
  8
_0-d_0_1
  6
CONTINUOUS
 62
    7
 10
115.99871439624347
 20
226.58374622697244
 11
109.04353518176593
 21
225.76353195542703
  0
LINE
  8
_0-d_0_1
  6
CONTINUOUS
 62
    7
 10
108.59178347278156
 20
228.49975183839211
 11
115.44150538135089
 21
229.95874002808938
  0
LINE
  8
_0-d_0_1
  6
CONTINUOUS
 62
    7
 10
115.63660425830402
 20
228.97795084351907
 11
108.74996180224933
 21
227.70460298890481
  0
LINE
  8
_0-d_0_1
  6
CONTINUOUS
 62
    7
 10
108.12020678210773
 20
230.40541723603616
 11
114.85983652759113
 21
232.30927065247903
  0
LINE
  8
_0-d_0_1
  6
CONTINUOUS
 62
    7
 10
115.11865992236652
 20
231.34334543580422
 11
108.3300380199007
 21
229.62230614060769
  0
LINE
  8
_0-d_0_1
  6
CONTINUOUS
 62
    7
 10
107.52501101184406
 20
232.27615621919045
 11
114.12569422412433
 21
234.61673143739114
  0
LINE
  8
_0-d_0_1
  6
CONTINUOUS
 62
    7
 10
114.44712061572589
 20
233.66979959840188
 11
107.78560251880207
 21
231.50845220918069
  0
LINE
  8
_0-d_0_1
  6
CONTINUOUS
 62
    7
 10
106.80873293567218
 20
234.10396650666604
 11
113.24220652270832
 21
236.87122705811868
  0
LINE
  8
_0-d_0_1
  6
CONTINUOUS
 62
    7
 10
113.62487787890949
 20
235.94734838837991
 11
107.11898226428546
 21
233.35494974488626
  0
LINE
  8
_0-d_0_1
  6
CONTINUOUS
 62
    7
 10
105.97443194079914
 20
235.88101557130227
 11
112.21314234424152
 21
239.06311586732278
  0
LINE
  8
_0-d_0_1
  6
CONTINUOUS
 62
    7
 10
112.65542597461261
 20
238.16624525422463
 11
106.33300966907062
 21
235.15388754243264
  0
LINE
  8
_0-d_0_1
  6
CONTINUOUS
 62
    7
 10
105.0256995647005
 20
237.59968355531106
 11
111.04294199634113
 21
241.18301180238137
  0
LINE
  8
_0-d_0_1
  6
CONTINUOUS
 62
    7
 10
111.5429343669466
 20
240.31698969239602
 11
105.43106455493488
 21
236.8975780331553
  0
LINE
  8
_0-d_0_1
  6
CONTINUOUS
 62
    7
 10
103.96659083056964
 20
239.25263193482766
 11
109.73659510303058
 21
243.22183206910501
  0
LINE
  8
_0-d_0_1
  6
CONTINUOUS
 62
    7
 10
110.29215807605304
 20
242.39035967225442
 11
104.41701311755695
 21
238.5785386883677
  0
LINE
  8
_0-d_0_1
  6
CONTINUOUS
 62
    7
 10
102.80165857959308
 20
240.83277300233254
 11
108.29969782519855
 21
245.17085626954446
  0
LINE
  8
_0-d_0_1
  6
CONTINUOUS
 62
    7
 10
108.90845293689289
 20
244.377500327772
 11
103.29519266772785
 21
240.18958071107278
  0
LINE
  8
_0-d_0_1
  6
CONTINUOUS
 62
    7
 10
101.53585238147296
 20
242.33333376283059
 11
106.73839182544269
 21
247.02171114320168
  0
LINE
  8
_0-d_0_1
  6
CONTINUOUS
 62
    7
 10
107.39775271106281
 20
246.26987627381692
 11
102.07041926074542
 21
241.72379854554543
  0
LINE
  8
_0-d_0_1
  6
CONTINUOUS
 62
    7
 10
100.1746310679964
 20
243.74790552491555
 11
105.05939860034503
 21
248.76649454469094
  0
LINE
  8
_0-d_0_1
  6
CONTINUOUS
 62
    7
 10
105.76650995898761
 20
248.05940035218606
 11
100.74790377307453
 21
243.17463281983743
  0
LINE
  8
_0-d_0_1
  6
CONTINUOUS
 62
    7
 10
98.723806330447573
 20
245.07042101258645
 11
103.26987452197589
 21
250.39775446290383
  0
LINE
  8
_0-d_0_1
  6
CONTINUOUS
 62
    7
 10
104.02170939136066
 20
249.73839357728372
 11
99.333332010989565
 21
244.53586176270852
  0
LINE
  8
_0-d_0_1
  6
CONTINUOUS
 62
    7
 10
97.189569422488589
 20
246.29519441956887
 11
101.37749857593097
 21
251.90845468873391
  0
LINE
  8
_0-d_0_1
  6
CONTINUOUS
 62
    7
 10
102.17085451770343
 20
251.29968050355325
 11
97.832761713748354
 21
245.80166033143411
  0
LINE
  8
_0-d_0_1
  6
CONTINUOUS
 62
    7
 10
95.578536936526675
 20
247.41701486939797
 11
99.390357920413393
 21
253.29215982789407
  0
LINE
  8
_0-d_0_1
  6
CONTINUOUS
 62
    7
 10
100.22183985400714
 20
252.73657778138528
 11
96.252630182986636
 21
246.96659258241067
  0
LINE
  8
_0-d_0_1
  6
CONTINUOUS
 62
    7
 10
93.897567698245425
 20
248.4310663067759
 11
97.316987940554995
 21
254.54293611878762
  0
LINE
  8
_0-d_0_1
  6
CONTINUOUS
 62
    7
 10
98.183010050540346
 20
254.04294374818215
 11
94.599691340213198
 21
248.02570131654153
  0
LINE
  8
_0-d_0_1
  6
CONTINUOUS
 62
    7
 10
92.153885790591616
 20
249.33301142091165
 11
95.166243502383608
 21
255.65544679993997
  0
LINE
  8
_0-d_0_1
  6
CONTINUOUS
 62
    7
 10
96.063114115481753
 20
255.21314409608254
 11
92.881013819461245
 21
248.97443369264016
  0
LINE
  8
_0-d_0_1
  6
CONTINUOUS
 62
    7
 10
90.354947993045229
 20
250.11898401612649
 11
92.947346636538882
 21
256.62487963075051
  0
LINE
  8
_0-d_0_1
  6
CONTINUOUS
 62
    7
 10
93.871233889346499
 20
256.24220827454934
 11
91.103964754825014
 21
249.80873468751321
  0
LINE
  8
_0-d_0_1
  6
CONTINUOUS
 62
    7
 10
88.508450457339663
 20
250.78560427064309
 11
90.669797846560854
 21
257.44712236756692
  0
LINE
  8
_0-d_0_1
  6
CONTINUOUS
 62
    7
 10
91.616729685550112
 20
257.12569597596536
 11
89.276154467349429
 21
250.52501276368508
  0
LINE
  8
_0-d_0_1
  6
CONTINUOUS
 62
    7
 10
86.622304388766665
 20
251.33003977174172
 11
88.343343683963198
 21
258.11866167420754
  0
LINE
  8
_0-d_0_1
  6
CONTINUOUS
 62
    7
 10
89.309260317569155
 20
257.85983827943215
 11
87.405424067263979
 21
251.12020853394876
  0
LINE
  8
_0-d_0_1
  6
CONTINUOUS
 62
    7
 10
84.704609820132632
 20
251.74996355409036
 11
85.977940508609194
 21
258.63660601014504
  0
LINE
  8
_0-d_0_1
  6
CONTINUOUS
 62
    7
 10
86.958746859317202
 20
258.44150713319192
 11
85.499750086551089
 21
251.59178522462258
  0
LINE
  8
_0-d_0_1
  6
CONTINUOUS
 62
    7
 10
82.763530203586001
 20
252.04353693360696
 11
83.583753058200259
 21
258.9987161480845
  0
LINE
  8
_0-d_0_1
  6
CONTINUOUS
 62
    7
 10
84.575198122744936
 20
258.86820391053567
 11
83.567323157077212
 21
251.93771150941262
  0
LINE
  8
_0-d_0_1
  6
CONTINUOUS
 62
    7
 10
80.807420083766374
 20
252.20955255860696
 11
81.170983859782609
 21
259.20348909730325
  0
LINE
  8
_0-d_0_1
  6
CONTINUOUS
 62
    7
 10
82.168841788058657
 20
259.13808611268411
 11
81.616409727816972
 21
252.15651872987161
  0
LINE
  8
_0-d_0_1
  6
CONTINUOUS
 62
    7
 10
78.844634660964402
 20
252.24726084107766
 11
78.749999293570909
 21
259.24999788636575
  0
LINE
  8
_0-d_0_1
  6
CONTINUOUS
 62
    7
 10
79.750000604873094
 20
259.24999788636575
 11
79.6553652374796
 21
252.24726084107766
  0
LINE
  8
_0-d_0_1
  6
CONTINUOUS
 62
    7
 10
76.883590170627031
 20
252.15651872987161
 11
76.331149527316484
 21
259.13808611268411
  0
LINE
  8
_0-d_0_1
  6
CONTINUOUS
 62
    7
 10
77.329016038661393
 20
259.20348909730325
 11
77.692579814677629
 21
252.20955255860696
  0
LINE
  8
_0-d_0_1
  6
CONTINUOUS
 62
    7
 10
74.932676741366777
 20
251.93771150941262
 11
73.9248103587679
 21
258.86820391053567
  0
LINE
  8
_0-d_0_1
  6
CONTINUOUS
 62
    7
 10
74.916255423312577
 20
258.9987161480845
 11
75.736469694857988
 21
252.04353693360696
  0
LINE
  8
_0-d_0_1
  6
CONTINUOUS
 62
    7
 10
73.0002498118929
 20
251.59178522462258
 11
71.541261622195634
 21
258.44150713319192
  0
LINE
  8
_0-d_0_1
  6
CONTINUOUS
 62
    7
 10
72.522050806765947
 20
258.63660601014504
 11
73.795398661380204
 21
251.74996355409036
  0
LINE
  8
_0-d_0_1
  6
CONTINUOUS
 62
    7
 10
71.094584414248857
 20
251.12020853394876
 11
69.190730997805986
 21
257.85983827943215
  0
LINE
  8
_0-d_0_1
  6
CONTINUOUS
 62
    7
 10
70.15665621448079
 20
258.11866167420754
 11
71.877695509677324
 21
251.33003977174172
  0
LINE
  8
_0-d_0_1
  6
CONTINUOUS
 62
    7
 10
69.22384543109456
 20
250.52501276368508
 11
66.883270212893876
 21
257.12569597596536
  0
LINE
  8
_0-d_0_1
  6
CONTINUOUS
 62
    7
 10
67.830202051883134
 20
257.44712236756692
 11
69.991549441104326
 21
250.78560427064309
  0
LINE
  8
_0-d_0_1
  6
CONTINUOUS
 62
    7
 10
67.396035143618974
 20
249.80871752137551
 11
64.628774592166337
 21
256.24220827454934
  0
LINE
  8
_0-d_0_1
  6
CONTINUOUS
 62
    7
 10
65.552653261905107
 20
256.62487963075051
 11
68.145051905398759
 21
250.11898401612649
  0
LINE
  8
_0-d_0_1
  6
CONTINUOUS
 62
    7
 10
65.618986078982743
 20
248.97443369264016
 11
62.436885782962236
 21
255.21314409608254
  0
LINE
  8
_0-d_0_1
  6
CONTINUOUS
 62
    7
 10
63.33375639606038
 20
255.65544679993997
 11
66.346114107852372
 21
249.33301142091165
  0
LINE
  8
_0-d_0_1
  6
CONTINUOUS
 62
    7
 10
63.900318094973954
 20
248.02570131654153
 11
60.316989847903642
 21
254.04294374818215
  0
LINE
  8
_0-d_0_1
  6
CONTINUOUS
 62
    7
 10
61.183011957888993
 20
254.54293611878762
 11
64.602423617129716
 21
248.4310663067759
  0
LINE
  8
_0-d_0_1
  6
CONTINUOUS
 62
    7
 10
62.247369715457353
 20
246.96659258241067
 11
58.278169581180009
 21
252.73657778138528
  0
LINE
  8
_0-d_0_1
  6
CONTINUOUS
 62
    7
 10
59.109641978030595
 20
253.29215982789407
 11
62.921462961917314
 21
247.41701486939797
  0
LINE
  8
_0-d_0_1
  6
CONTINUOUS
 62
    7
 10
60.66722864795247
 20
245.80166033143411
 11
56.329153010135087
 21
251.29968050355325
  0
LINE
  8
_0-d_0_1
  6
CONTINUOUS
 62
    7
 10
57.122501322513017
 20
251.90845468873391
 11
61.310420939212236
 21
246.29519441956887
  0
LINE
  8
_0-d_0_1
  6
CONTINUOUS
 62
    7
 10
59.166667887454423
 20
244.53586176270852
 11
54.478290507083329
 21
249.73839357728372
  0
LINE
  8
_0-d_0_1
  6
CONTINUOUS
 62
    7
 10
55.230125376468095
 20
250.39775446290383
 11
59.776203104739579
 21
245.07042101258645
  0
LINE
  8
_0-d_0_1
  6
CONTINUOUS
 62
    7
 10
53.440601298098954
 20
248.76649454469094
 11
58.325368830447587
 21
243.74790552491555
  0
LINE
  8
_0-d_0_1
  6
CONTINUOUS
 62
    7
 10
52.166990229373368
 20
235.15388754243264
 11
45.844562479739579
 21
238.16624525422463
  0
LINE
  8
_0-d_0_1
  6
CONTINUOUS
 62
    7
 10
46.28685755420247
 20
239.06311586732278
 11
52.525567957644853
 21
235.88100603455911
  0
LINE
  8
_0-d_0_1
  6
CONTINUOUS
 62
    7
 10
51.381017634158525
 20
233.35494974488626
 11
44.87511439013997
 21
235.94734838837991
  0
LINE
  8
_0-d_0_1
  6
CONTINUOUS
 62
    7
 10
45.257801005130204
 20
236.87122705811868
 11
51.691266962771806
 21
234.10396650666604
  0
LINE
  8
_0-d_0_1
  6
CONTINUOUS
 62
    7
 10
50.714397379641923
 20
231.50845220918069
 11
44.052867838626298
 21
233.66979101533303
  0
LINE
  8
_0-d_0_1
  6
CONTINUOUS
 62
    7
 10
44.374305674319658
 20
234.61672285432229
 11
50.974988886599931
 21
232.27615621919045
  0
LINE
  8
_0-d_0_1
  6
CONTINUOUS
 62
    7
 10
50.16996187854329
 20
229.62230614060769
 11
43.38133997607747
 21
231.34334543580422
  0
LINE
  8
_0-d_0_1
  6
CONTINUOUS
 62
    7
 10
43.640155741458329
 20
232.30927065247903
 11
50.379793116336259
 21
230.40541723603616
  0
LINE
  8
_0-d_0_1
  6
CONTINUOUS
 62
    7
 10
49.750047632937822
 20
227.70460298890481
 11
42.86339564013997
 21
228.97795084351907
  0
LINE
  8
_0-d_0_1
  6
CONTINUOUS
 62
    7
 10
43.058494517093095
 20
229.95874002808938
 11
49.908216425662431
 21
228.49975183839211
  0
LINE
  8
_0-d_0_1
  6
CONTINUOUS
 62
    7
 10
49.456464716678056
 20
225.76353195542703
 11
42.501285502200517
 21
226.58374622697244
  0
LINE
  8
_0-d_0_1
  6
CONTINUOUS
 62
    7
 10
42.631805369143876
 20
227.57519129151711
 11
49.562280604129228
 21
226.56732490891824
  0
LINE
  8
_0-d_0_1
  6
CONTINUOUS
 62
    7
 10
49.290456721072587
 20
223.80742183560739
 11
42.296520182376298
 21
224.17098561162362
  0
LINE
  8
_0-d_0_1
  6
CONTINUOUS
 62
    7
 10
42.361915537600908
 20
225.16884353989968
 11
49.343482920413408
 21
224.61641147965798
  0
ARC
  8
_0-d_0_1
  6
CONTINUOUS
 62
    7
 10
79.249999999919453
 20
222.2499999999944
 40
29.999996185222013
 50
182.97578430175511
 51
184.52421569824358
  0
ARC
  8
_0-d_0_1
  6
CONTINUOUS
 62
    7
 10
79.250000000000284
 20
222.24999999999969
 40
29.999996185303004
 50
186.72578430175713
 51
188.27421569824159
  0
ARC
  8
_0-d_0_1
  6
CONTINUOUS
 62
    7
 10
79.250000000070798
 20
222.25000000001432
 40
29.999996185374979
 50
190.47578430176017
 51
192.02421569824079
  0
ARC
  8
_0-d_0_1
  6
CONTINUOUS
 62
    7
 10
79.25000000010516
 20
222.25000000002839
 40
29.999996185411668
 50
194.22578430176102
 51
195.77421569823977
  0
ARC
  8
_0-d_0_1
  6
CONTINUOUS
 62
    7
 10
79.250000000013671
 20
222.25000000000446
 40
29.999996185317123
 50
197.97578430175781
 51
199.52421569824142
  0
ARC
  8
_0-d_0_1
  6
CONTINUOUS
 62
    7
 10
79.249999999913712
 20
222.24999999996459
 40
29.999996185209465
 50
201.72578430175599
 51
203.27421569824514
  0
ARC
  8
_0-d_0_1
  6
CONTINUOUS
 62
    7
 10
79.249999999918032
 20
222.24999999995887
 40
29.99999618521106
 50
205.4757843017542
 51
207.0242156982433
  0
ARC
  8
_0-d_0_1
  6
CONTINUOUS
 62
    7
 10
79.250000000114937
 20
222.25000000022925
 40
29.999996185559166
 50
242.97578430176111
 51
244.5242156982323
  0
ARC
  8
_0-d_0_1
  6
CONTINUOUS
 62
    7
 10
79.249999999993889
 20
222.24999999998073
 40
29.999996185282598
 50
246.72578430175392
 51
248.27421569823935
  0
ARC
  8
_0-d_0_1
  6
CONTINUOUS
 62
    7
 10
79.249999999918714
 20
222.24999999975543
 40
29.999996185045038
 50
250.47578430174804
 51
252.02421569824571
  0
ARC
  8
_0-d_0_1
  6
CONTINUOUS
 62
    7
 10
79.250000000046441
 20
222.25000000017255
 40
29.999996185481411
 50
254.22578430176202
 51
255.77421569823719
  0
ARC
  8
_0-d_0_1
  6
CONTINUOUS
 62
    7
 10
79.250000000045191
 20
222.25000000022072
 40
29.999996185528012
 50
257.97578430176122
 51
259.524215698234
  0
ARC
  8
_0-d_0_1
  6
CONTINUOUS
 62
    7
 10
79.249999999972488
 20
222.24999999978894
 40
29.999996185089906
 50
261.72578430175173
 51
263.27421569824708
  0
ARC
  8
_0-d_0_1
  6
CONTINUOUS
 62
    7
 10
79.250000000004974
 20
222.25000000006648
 40
29.999996185369376
 50
265.47578430175827
 51
267.02421569823917
  0
ARC
  8
_0-d_0_1
  6
CONTINUOUS
 62
    7
 10
79.249999999999972
 20
222.2499999999759
 40
29.999996185278633
 50
269.22578430175713
 51
270.77421569824276
  0
ARC
  8
_0-d_0_1
  6
CONTINUOUS
 62
    7
 10
79.249999999994259
 20
222.25000000007873
 40
29.999996185381647
 50
272.97578430176094
 51
274.52421569824128
  0
ARC
  8
_0-d_0_1
  6
CONTINUOUS
 62
    7
 10
79.250000000032742
 20
222.24999999974867
 40
29.999996185049291
 50
276.72578430175184
 51
278.27421569824935
  0
ARC
  8
_0-d_0_1
  6
CONTINUOUS
 62
    7
 10
79.249999999966633
 20
222.25000000016112
 40
29.999996185467253
 50
280.47578430176452
 51
282.02421569824037
  0
ARC
  8
_0-d_0_1
  6
CONTINUOUS
 62
    7
 10
79.249999999953502
 20
222.25000000017255
 40
29.999996185481411
 50
284.22578430176281
 51
285.77421569823798
  0
ARC
  8
_0-d_0_1
  6
CONTINUOUS
 62
    7
 10
79.250000000064858
 20
222.2499999998048
 40
29.99999618509705
 50
287.97578430175497
 51
289.52421569825003
  0
ARC
  8
_0-d_0_1
  6
CONTINUOUS
 62
    7
 10
79.249999999960494
 20
222.25000000009084
 40
29.999996185401763
 50
291.72578430176361
 51
293.27421569824298
  0
ARC
  8
_0-d_0_1
  6
CONTINUOUS
 62
    7
 10
79.250000000101124
 20
222.2499999997921
 40
29.999996185071556
 50
295.47578430175423
 51
297.02421569825054
  0
ARC
  8
_0-d_0_1
  6
CONTINUOUS
 62
    7
 10
79.249999999707455
 20
222.25000000029249
 40
29.999996185716391
 50
314.2257843017685
 51
315.7742156982315
  0
ARC
  8
_0-d_0_1
  6
CONTINUOUS
 62
    7
 10
79.24999999987557
 20
222.25000000011028
 40
29.999996185468973
 50
317.97578430176043
 51
319.52421569823616
  0
ARC
  8
_0-d_0_1
  6
CONTINUOUS
 62
    7
 10
79.249999999979536
 20
222.25000000001569
 40
29.999996185328509
 50
321.72578430175844
 51
323.27421569824145
  0
ARC
  8
_0-d_0_1
  6
CONTINUOUS
 62
    7
 10
79.250000000244142
 20
222.24999999983703
 40
29.999996185009213
 50
325.47578430174997
 51
327.02421569824946
  0
ARC
  8
_0-d_0_1
  6
CONTINUOUS
 62
    7
 10
79.249999999995055
 20
222.25000000000381
 40
29.999996185308913
 50
329.22578430175645
 51
330.77421569824048
  0
ARC
  8
_0-d_0_1
  6
CONTINUOUS
 62
    7
 10
79.250000000206711
 20
222.24999999989839
 40
29.999996185072394
 50
332.97578430175133
 51
334.52421569824753
  0
ARC
  8
_0-d_0_1
  6
CONTINUOUS
 62
    7
 10
79.249999999886711
 20
222.25000000004778
 40
29.999996185425672
 50
336.72578430175952
 51
338.27421569823747
  0
ARC
  8
_0-d_0_1
  6
CONTINUOUS
 62
    7
 10
79.249999999916668
 20
222.25000000002757
 40
29.99999618539049
 50
340.47578430176145
 51
342.02421569824133
  0
ARC
  8
_0-d_0_1
  6
CONTINUOUS
 62
    7
 10
79.250000000040075
 20
222.24999999998946
 40
29.999996185261306
 50
344.22578430175633
 51
345.77421569824287
  0
ARC
  8
_0-d_0_1
  6
CONTINUOUS
 62
    7
 10
79.250000000198298
 20
222.24999999995978
 40
29.999996185100397
 50
347.97578430175406
 51
349.5242156982489
  0
ARC
  8
_0-d_0_1
  6
CONTINUOUS
 62
    7
 10
79.250000000229107
 20
222.24999999997002
 40
29.999996185071673
 50
351.7257843017515
 51
353.27421569824781
  0
ARC
  8
_0-d_0_1
  6
CONTINUOUS
 62
    7
 10
79.250000000056019
 20
222.24999999999582
 40
29.999996185246555
 50
355.47578430175736
 51
357.02421569824457
  0
ARC
  8
_0-d_0_1
  6
CONTINUOUS
 62
    7
 10
79.250000000026205
 20
222.25
 40
29.99999618527653
 50
359.22578430175713
 51
0.7742156982427793
  0
ARC
  8
_0-d_0_1
  6
CONTINUOUS
 62
    7
 10
79.250000000080519
 20
222.2500000000056
 40
29.999996185222013
 50
2.9757843017551644
 51
4.524215698243613
  0
ARC
  8
_0-d_0_1
  6
CONTINUOUS
 62
    7
 10
79.249999999923091
 20
222.24999999998971
 40
29.999996185380315
 50
6.7257843017600907
 51
8.2742156982405213
  0
ARC
  8
_0-d_0_1
  6
CONTINUOUS
 62
    7
 10
79.250000000228681
 20
222.25000000004528
 40
29.999996185069612
 50
10.47578430175224
 51
12.024215698248637
  0
ARC
  8
_0-d_0_1
  6
CONTINUOUS
 62
    7
 10
79.250000000040046
 20
222.25000000001052
 40
29.999996185261327
 50
14.225784301757193
 51
15.774215698243705
  0
ARC
  8
_0-d_0_1
  6
CONTINUOUS
 62
    7
 10
79.250000000195854
 20
222.25000000006719
 40
29.999996185095675
 50
17.97578430175118
 51
19.524215698246245
  0
ARC
  8
_0-d_0_1
  6
CONTINUOUS
 62
    7
 10
79.250000000019952
 20
222.25000000000847
 40
29.999996185281034
 50
21.725784301756889
 51
23.274215698242354
  0
ARC
  8
_0-d_0_1
  6
CONTINUOUS
 62
    7
 10
79.250000000086914
 20
222.25000000004152
 40
29.999996185206424
 50
25.475784301757692
 51
27.024215698246959
  0
ARC
  8
_0-d_0_1
  6
CONTINUOUS
 62
    7
 10
79.250000000112209
 20
222.25000000006489
 40
29.999996185173092
 50
29.225784301754352
 51
30.774215698245371
  0
ARC
  8
_0-d_0_1
  6
CONTINUOUS
 62
    7
 10
79.250000000244142
 20
222.25000000016297
 40
29.999996185009202
 50
32.975784301750522
 51
34.524215698250032
  0
ARC
  8
_0-d_0_1
  6
CONTINUOUS
 62
    7
 10
79.249999999979536
 20
222.24999999998431
 40
29.999996185328509
 50
36.725784301758523
 51
38.27421569824152
  0
ARC
  8
_0-d_0_1
  6
CONTINUOUS
 62
    7
 10
79.249999999875598
 20
222.24999999988972
 40
29.999996185468962
 50
40.475784301763845
 51
42.024215698239615
  0
ARC
  8
_0-d_0_1
  6
CONTINUOUS
 62
    7
 10
79.250000000018758
 20
222.25000000001876
 40
29.999996185276181
 50
44.225784301757123
 51
45.774215698242848
  0
ARC
  8
_0-d_0_1
  6
CONTINUOUS
 62
    7
 10
79.249999999956913
 20
222.24999999995117
 40
29.999996185367856
 50
47.975784301759113
 51
49.524215698240141
  0
ARC
  8
_0-d_0_1
  6
CONTINUOUS
 62
    7
 10
79.250000000041354
 20
222.25000000005289
 40
29.999996185235592
 50
51.725784301757258
 51
53.274215698245101
  0
ARC
  8
_0-d_0_1
  6
CONTINUOUS
 62
    7
 10
79.250000000137305
 20
222.25000000020734
 40
29.999996185054076
 50
55.475784301749457
 51
57.024215698246685
  0
ARC
  8
_0-d_0_1
  6
CONTINUOUS
 62
    7
 10
79.249999999890804
 20
222.24999999980972
 40
29.999996185522111
 50
59.225784301764619
 51
60.774215698237661
  0
ARC
  8
_0-d_0_1
  6
CONTINUOUS
 62
    7
 10
79.25000000013199
 20
222.25000000027154
 40
29.999996185000843
 50
62.975784301746764
 51
64.524215698246721
  0
ARC
  8
_0-d_0_1
  6
CONTINUOUS
 62
    7
 10
79.249999999898364
 20
222.24999999975427
 40
29.999996185568637
 50
66.72578430176506
 51
68.274215698235679
  0
ARC
  8
_0-d_0_1
  6
CONTINUOUS
 62
    7
 10
79.250000000081286
 20
222.25000000024457
 40
29.999996185045038
 50
70.475784301748021
 51
72.024215698245698
  0
ARC
  8
_0-d_0_1
  6
CONTINUOUS
 62
    7
 10
79.249999999953502
 20
222.24999999982745
 40
29.999996185481411
 50
74.225784301762005
 51
75.774215698237143
  0
ARC
  8
_0-d_0_1
  6
CONTINUOUS
 62
    7
 10
79.249999999954809
 20
222.24999999977928
 40
29.999996185528012
 50
77.975784301761195
 51
79.524215698233959
  0
ARC
  8
_0-d_0_1
  6
CONTINUOUS
 62
    7
 10
79.250000000030241
 20
222.25000000023329
 40
29.999996185067509
 50
81.72578430175092
 51
83.274215698247389
  0
ARC
  8
_0-d_0_1
  6
CONTINUOUS
 62
    7
 10
79.249999999994998
 20
222.24999999993352
 40
29.999996185369376
 50
85.47578430175831
 51
87.024215698239217
  0
ARC
  8
_0-d_0_1
  6
CONTINUOUS
 62
    7
 10
79.25
 20
222.2500000000241
 40
29.999996185278633
 50
89.225784301757187
 51
90.774215698242827
  0
ARC
  8
_0-d_0_1
  6
CONTINUOUS
 62
    7
 10
79.250000000005002
 20
222.24999999993352
 40
29.999996185369376
 50
92.975784301760797
 51
94.52421569824169
  0
ARC
  8
_0-d_0_1
  6
CONTINUOUS
 62
    7
 10
79.249999999967201
 20
222.25000000025133
 40
29.999996185049291
 50
96.725784301751872
 51
98.274215698249336
  0
ARC
  8
_0-d_0_1
  6
CONTINUOUS
 62
    7
 10
79.250000000039449
 20
222.24999999980702
 40
29.999996185499693
 50
100.47578430176489
 51
102.02421569823916
  0
ARC
  8
_0-d_0_1
  6
CONTINUOUS
 62
    7
 10
79.250000000046441
 20
222.24999999982745
 40
29.999996185481411
 50
104.22578430176284
 51
105.77421569823801
  0
ARC
  8
_0-d_0_1
  6
CONTINUOUS
 62
    7
 10
79.249999999950887
 20
222.25000000014975
 40
29.999996185145154
 50
107.97578430175692
 51
109.52421569824942
  0
ARC
  8
_0-d_0_1
  6
CONTINUOUS
 62
    7
 10
79.250000000039506
 20
222.24999999990916
 40
29.999996185401763
 50
111.72578430176372
 51
113.27421569824298
  0
ARC
  8
_0-d_0_1
  6
CONTINUOUS
 62
    7
 10
79.249999999837883
 20
222.25000000033151
 40
29.999996184933753
 50
115.47578430175064
 51
117.02421569825408
  0
ARC
  8
_0-d_0_1
  6
CONTINUOUS
 62
    7
 10
79.250000000109139
 20
222.24999999980972
 40
29.999996185522111
 50
119.22578430176233
 51
120.77421569823538
  0
ARC
  8
_0-d_0_1
  6
CONTINUOUS
 62
    7
 10
79.249999999862666
 20
222.25000000020734
 40
29.999996185054076
 50
122.97578430175335
 51
124.52421569825054
  0
ARC
  8
_0-d_0_1
  6
CONTINUOUS
 62
    7
 10
79.249999999958618
 20
222.25000000005289
 40
29.999996185235585
 50
126.7257843017549
 51
128.27421569824276
  0
ARC
  8
_0-d_0_1
  6
CONTINUOUS
 62
    7
 10
79.250000000043087
 20
222.24999999995117
 40
29.999996185367856
 50
130.47578430175986
 51
132.02421569824085
  0
ARC
  8
_0-d_0_1
  6
CONTINUOUS
 62
    7
 10
79.249999999855731
 20
222.25000000007131
 40
29.999996185141832
 50
152.97578430175398
 51
154.52421569824668
  0
ARC
  8
_0-d_0_1
  6
CONTINUOUS
 62
    7
 10
79.249999999913712
 20
222.25000000003541
 40
29.999996185209465
 50
156.72578430175486
 51
158.27421569824403
  0
ARC
  8
_0-d_0_1
  6
CONTINUOUS
 62
    7
 10
79.250000000013671
 20
222.24999999999554
 40
29.999996185317123
 50
160.47578430175855
 51
162.02421569824219
  0
ARC
  8
_0-d_0_1
  6
CONTINUOUS
 62
    7
 10
79.249999999949495
 20
222.25000000001327
 40
29.999996185250524
 50
164.22578430175605
 51
165.77421569824313
  0
ARC
  8
_0-d_0_1
  6
CONTINUOUS
 62
    7
 10
79.249999999995794
 20
222.25000000000114
 40
29.9999961852984
 50
167.97578430175827
 51
169.52421569824284
  0
ARC
  8
_0-d_0_1
  6
CONTINUOUS
 62
    7
 10
79.250000000000284
 20
222.25000000000031
 40
29.999996185303004
 50
171.72578430175847
 51
173.27421569824284
  0
ARC
  8
_0-d_0_1
  6
CONTINUOUS
 62
    7
 10
79.250000000098964
 20
222.249999999994
 40
29.999996185401887
 50
175.47578430176125
 51
177.02421569824054
  0
LINE
  8
_0-d_0_1
  6
CONTINUOUS
 62
    7
 10
53.474300333743486
 20
206.90031984681497
 11
47.457065531497392
 21
203.31699159974465
  0
LINE
  8
_0-d_0_1
  6
CONTINUOUS
 62
    7
 10
54.533399531131181
 20
205.24737146729836
 11
48.763414332156572
 21
201.27817133302102
  0
LINE
  8
_0-d_0_1
  6
CONTINUOUS
 62
    7
 10
48.207841822390947
 20
202.10964372987161
 11
54.08298678088704
 21
205.92146471375833
  0
LINE
  8
_0-d_0_1
  6
CONTINUOUS
 62
    7
 10
55.698341318850908
 20
203.66723039979348
 11
50.200311609988603
 21
199.3291547619761
  0
LINE
  8
_0-d_0_1
  6
CONTINUOUS
 62
    7
 10
49.591546961551103
 20
200.12250307435403
 11
55.204807230716142
 21
204.31042269105325
  0
LINE
  8
_0-d_0_1
  6
CONTINUOUS
 62
    7
 10
56.964139887576493
 20
202.16666963929543
 11
51.761608073001298
 21
197.47829225892434
  0
LINE
  8
_0-d_0_1
  6
CONTINUOUS
 62
    7
 10
51.102256724124345
 20
198.23012712830911
 11
56.429590174441728
 21
202.77620485658059
  0
LINE
  8
_0-d_0_1
  6
CONTINUOUS
 62
    7
 10
58.325368830447587
 20
200.75209787721047
 11
53.440601298098954
 21
195.73350122804055
  0
LINE
  8
_0-d_0_1
  6
CONTINUOUS
 62
    7
 10
52.73349947619954
 20
196.44060304993997
 11
57.752096125369462
 21
201.3253705822886
  0
LINE
  8
_0-d_0_1
  6
CONTINUOUS
 62
    7
 10
59.776203104739579
 20
199.42959192628274
 11
55.230125376468095
 21
194.10225847596536
  0
LINE
  8
_0-d_0_1
  6
CONTINUOUS
 62
    7
 10
54.478290507083329
 20
194.76160982484231
 11
59.166667887454423
 21
199.96414163941751
  0
LINE
  8
_0-d_0_1
  6
CONTINUOUS
 62
    7
 10
61.310420939212236
 20
198.20480898255715
 11
57.122501322513017
 21
192.59154871339211
  0
LINE
  8
_0-d_0_1
  6
CONTINUOUS
 62
    7
 10
56.329153010135087
 20
193.20031336182961
 11
60.66722864795247
 21
198.69834307069192
  0
LINE
  8
_0-d_0_1
  6
CONTINUOUS
 62
    7
 10
62.921462961917314
 20
197.08298853272805
 11
59.109641978030595
 21
191.20784357423196
  0
LINE
  8
_0-d_0_1
  6
CONTINUOUS
 62
    7
 10
58.278169581180009
 20
191.76341608399758
 11
62.247369715457353
 21
197.53340128297219
  0
LINE
  8
_0-d_0_1
  6
CONTINUOUS
 62
    7
 10
64.602423617129716
 20
196.06893709535012
 11
61.183011957888993
 21
189.9570672833384
  0
LINE
  8
_0-d_0_1
  6
CONTINUOUS
 62
    7
 10
60.316989847903642
 20
190.4570672833384
 11
63.900318094973954
 21
196.4743020855845
  0
LINE
  8
_0-d_0_1
  6
CONTINUOUS
 62
    7
 10
94.599691340213198
 20
196.4743020855845
 11
98.183010050540346
 21
190.4570672833384
  0
LINE
  8
_0-d_0_1
  6
CONTINUOUS
 62
    7
 10
97.316987940554995
 20
189.9570672833384
 11
93.897567698245425
 21
196.06893709535012
  0
LINE
  8
_0-d_0_1
  6
CONTINUOUS
 62
    7
 10
96.252630182986636
 20
197.53340128297219
 11
100.22183985400714
 21
191.76341608399758
  0
LINE
  8
_0-d_0_1
  6
CONTINUOUS
 62
    7
 10
99.390357920413393
 20
191.20784357423196
 11
95.578536936526675
 21
197.08298853272805
  0
LINE
  8
_0-d_0_1
  6
CONTINUOUS
 62
    7
 10
97.832761713748354
 20
198.69834307069192
 11
102.17085451770343
 21
193.20031336182961
  0
LINE
  8
_0-d_0_1
  6
CONTINUOUS
 62
    7
 10
101.37749857593097
 20
192.59154871339211
 11
97.189569422488589
 21
198.20480898255715
  0
LINE
  8
_0-d_0_1
  6
CONTINUOUS
 62
    7
 10
99.333332010989565
 20
199.96414163941751
 11
104.02170939136066
 21
194.76160982484231
  0
LINE
  8
_0-d_0_1
  6
CONTINUOUS
 62
    7
 10
103.26987452197589
 20
194.10225847596536
 11
98.723806330447573
 21
199.42959192628274
  0
LINE
  8
_0-d_0_1
  6
CONTINUOUS
 62
    7
 10
57.752096125369462
 20
243.17463281983743
 11
52.73349947619954
 21
248.05940035218606
  0
LINE
  8
_0-d_0_1
  6
CONTINUOUS
 62
    7
 10
56.429590174441728
 20
241.72379854554543
 11
51.102256724124345
 21
246.26987627381692
  0
LINE
  8
_0-d_0_1
  6
CONTINUOUS
 62
    7
 10
51.761608073001298
 20
247.02171114320168
 11
56.964139887576493
 21
242.33333376283059
  0
LINE
  8
_0-d_0_1
  6
CONTINUOUS
 62
    7
 10
55.204807230716142
 20
240.18958071107278
 11
49.591546961551103
 21
244.377500327772
  0
LINE
  8
_0-d_0_1
  6
CONTINUOUS
 62
    7
 10
50.200311609988603
 20
245.17085626954446
 11
55.698341318850908
 21
240.83277300233254
  0
LINE
  8
_0-d_0_1
  6
CONTINUOUS
 62
    7
 10
54.08298678088704
 20
238.5785386883677
 11
48.207841822390947
 21
242.39035967225442
  0
LINE
  8
_0-d_0_1
  6
CONTINUOUS
 62
    7
 10
48.763414332156572
 20
243.22183206910501
 11
54.533399531131181
 21
239.25263193482766
  0
LINE
  8
_0-d_0_1
  6
CONTINUOUS
 62
    7
 10
60.249999949222001
 20
241.25000170106301
 11
61.239950129275712
 21
242.23994997376809
  0
LINE
  8
_0-d_0_1
  6
CONTINUOUS
 62
    7
 10
60.249999949222001
 20
241.25000170106301
 11
61.239950129275712
 21
242.23994997376809
  0
LINE
  8
_0-d_0_1
  6
CONTINUOUS
 62
    7
 10
60.249999949222001
 20
241.25000170106301
 11
59.260051676516923
 21
240.2600515210093
  0
LINE
  8
_0-d_0_1
  6
CONTINUOUS
 62
    7
 10
59.249999949222001
 20
240.24999979371438
 11
71.167733141665849
 21
224.88190153474221
  0
LINE
  8
_0-d_0_1
  6
CONTINUOUS
 62
    7
 10
61.250001856570634
 20
242.25000170106301
 11
76.618100115542802
 21
230.33226850861917
  0
LINE
  8
_0-d_0_1
  6
CONTINUOUS
 62
    7
 10
67.603906580691728
 20
234.46177271241555
 11
67.005577990298661
 21
235.06010988587747
  0
LINE
  8
_0-d_0_1
  6
CONTINUOUS
 62
    7
 10
67.321067759280595
 20
234.17893389100442
 11
67.603906580691728
 21
234.46177271241555
  0
LINE
  8
_0-d_0_1
  6
CONTINUOUS
 62
    7
 10
67.321067759280595
 20
234.17893389100442
 11
67.038228937869462
 21
233.89609506959329
  0
LINE
  8
_0-d_0_1
  6
CONTINUOUS
 62
    7
 10
67.038228937869462
 20
233.89609506959329
 11
59.967161127810868
 21
240.96715334290872
  0
LINE
  8
_0-d_0_1
  6
CONTINUOUS
 62
    7
 10
67.005577990298661
 20
235.06010988587747
 11
60.532848307376298
 21
241.53284052247415
  0
LINE
  8
_0-d_0_1
  6
CONTINUOUS
 62
    7
 10
89.149507471804995
 20
212.35050276154885
 11
89.856600710635561
 21
211.64340093964944
  0
LINE
  8
_0-d_0_1
  6
CONTINUOUS
 62
    7
 10
69.350501009707841
 20
212.35050276154885
 11
71.418394037967118
 21
208.76880243653665
  0
LINE
  8
_0-d_0_1
  6
CONTINUOUS
 62
    7
 10
71.424273440127763
 20
208.7446821057261
 11
72.057132670169267
 21
209.04735353822122
  0
LINE
  8
_0-d_0_1
  6
CONTINUOUS
 62
    7
 10
87.251760432010073
 20
235.43649938935647
 11
86.557388731723208
 21
235.34970262879739
  0
LINE
  8
_0-d_0_1
  6
CONTINUOUS
 62
    7
 10
89.149507471804995
 20
232.14948347443948
 11
87.251760432010073
 21
235.43649938935647
  0
LINE
  8
_0-d_0_1
  6
CONTINUOUS
 62
    7
 10
61.750001856570634
 20
222.25000170106301
 11
67.750001856570634
 21
222.25000170106301
  0
LINE
  8
_0-d_0_1
  6
CONTINUOUS
 62
    7
 10
88.579123446231264
 20
210.50404051179299
 11
89.787537523990054
 21
211.71246412629495
  0
LINE
  8
_0-d_0_1
  6
CONTINUOUS
 62
    7
 10
88.000584551577944
 20
210.06692674989114
 11
89.716830202823061
 21
211.78317144746194
  0
LINE
  8
_0-d_0_1
  6
CONTINUOUS
 62
    7
 10
87.543549486880679
 20
209.75132349366555
 11
89.646104761844057
 21
211.8538883053721
  0
LINE
  8
_0-d_0_1
  6
CONTINUOUS
 62
    7
 10
87.149277636294741
 20
209.49847486848245
 11
89.575397440677065
 21
211.92459562653909
  0
LINE
  8
_0-d_0_1
  6
CONTINUOUS
 62
    7
 10
86.795215079074282
 20
209.28582743043313
 11
89.504690119510073
 21
211.99531153077493
  0
LINE
  8
_0-d_0_1
  6
CONTINUOUS
 62
    7
 10
86.469778486972231
 20
209.10181501740823
 11
89.433982798343081
 21
212.06601885194192
  0
LINE
  8
_0-d_0_1
  6
CONTINUOUS
 62
    7
 10
86.16612620044269
 20
208.93958643311868
 11
89.363274523501772
 21
212.13672712678323
  0
LINE
  8
_0-d_0_1
  6
CONTINUOUS
 62
    7
 10
85.879796454196352
 20
208.79467180604348
 11
89.29256720233478
 21
212.20744303101907
  0
LINE
  8
_0-d_0_1
  6
CONTINUOUS
 62
    7
 10
85.607675024752993
 20
208.66398313874612
 11
89.221842715030093
 21
212.27815035218606
  0
LINE
  8
_0-d_0_1
  6
CONTINUOUS
 62
    7
 10
85.347521731143374
 20
208.54525354737649
 11
89.1511353938631
 21
212.3488662564219
  0
LINE
  8
_0-d_0_1
  6
CONTINUOUS
 62
    7
 10
85.09763950992145
 20
208.43677786225686
 11
87.913079211001772
 21
211.25222662324319
  0
LINE
  8
_0-d_0_1
  6
CONTINUOUS
 62
    7
 10
84.856663653140444
 20
208.33722570771585
 11
87.352021166568179
 21
210.83259180421243
  0
LINE
  8
_0-d_0_1
  6
CONTINUOUS
 62
    7
 10
84.623544165377993
 20
208.24553850526223
 11
86.908423849826235
 21
210.53042677277932
  0
LINE
  8
_0-d_0_1
  6
CONTINUOUS
 62
    7
 10
84.397440859561343
 20
208.16086748475442
 11
86.525543162112612
 21
210.28896978730569
  0
LINE
  8
_0-d_0_1
  6
CONTINUOUS
 62
    7
 10
84.177654215579409
 20
208.08249643678079
 11
86.181541392093081
 21
210.08637503022561
  0
LINE
  8
_0-d_0_1
  6
CONTINUOUS
 62
    7
 10
83.963589617495913
 20
208.00984648103127
 11
85.865256258731264
 21
209.91150453919778
  0
LINE
  8
_0-d_0_1
  6
CONTINUOUS
 62
    7
 10
83.754721590762514
 20
207.94240263337502
 11
85.570037791018862
 21
209.75771883363137
  0
LINE
  8
_0-d_0_1
  6
CONTINUOUS
 62
    7
 10
83.550630518679995
 20
207.87973478669534
 11
85.291617342715639
 21
209.62071302766213
  0
LINE
  8
_0-d_0_1
  6
CONTINUOUS
 62
    7
 10
83.350965925937075
 20
207.82148531312356
 11
85.026949354892153
 21
209.4974782788218
  0
LINE
  8
_0-d_0_1
  6
CONTINUOUS
 62
    7
 10
83.15537876773395
 20
207.76732233399758
 11
84.773900458102602
 21
209.38584402436624
  0
LINE
  8
_0-d_0_1
  6
CONTINUOUS
 62
    7
 10
82.963597008471865
 20
207.71696451539407
 11
84.530789801364321
 21
209.28414800996194
  0
LINE
  8
_0-d_0_1
  6
CONTINUOUS
 62
    7
 10
82.775367447619814
 20
207.67015817994485
 11
84.296305128817934
 21
209.1911046826304
  0
LINE
  8
_0-d_0_1
  6
CONTINUOUS
 62
    7
 10
82.59047979999103
 20
207.62669447297463
 11
84.069484659915346
 21
209.1057079159678
  0
LINE
  8
_0-d_0_1
  6
CONTINUOUS
 62
    7
 10
82.408715435748476
 20
207.58635404939065
 11
83.84947056460895
 21
209.02710893983254
  0
LINE
  8
_0-d_0_1
  6
CONTINUOUS
 62
    7
 10
82.229916760211367
 20
207.54897955293069
 11
83.635580965762514
 21
208.95463446015725
  0
LINE
  8
_0-d_0_1
  6
CONTINUOUS
 62
    7
 10
82.0539092509798
 20
207.51439550752053
 11
83.427220293765444
 21
208.88771513337502
  0
LINE
  8
_0-d_0_1
  6
CONTINUOUS
 62
    7
 10
81.880561062579545
 20
207.48246267670999
 11
83.223951527362246
 21
208.8258531414927
  0
LINE
  8
_0-d_0_1
  6
CONTINUOUS
 62
    7
 10
81.709723898654374
 20
207.45304945344338
 11
83.025319525485415
 21
208.76864412660012
  0
LINE
  8
_0-d_0_1
  6
CONTINUOUS
 62
    7
 10
81.54128403354207
 20
207.42603281373391
 11
82.830974528079409
 21
208.71572283143411
  0
LINE
  8
_0-d_0_1
  6
CONTINUOUS
 62
    7
 10
81.375136324649247
 20
207.40130880708108
 11
82.640610167270083
 21
208.66678312653909
  0
LINE
  8
_0-d_0_1
  6
CONTINUOUS
 62
    7
 10
81.211166927104387
 20
207.37876299256692
 11
82.453955122714419
 21
208.62155130738626
  0
LINE
  8
_0-d_0_1
  6
CONTINUOUS
 62
    7
 10
81.049297281985673
 20
207.35830858582864
 11
82.270764776950259
 21
208.5797765576304
  0
LINE
  8
_0-d_0_1
  6
CONTINUOUS
 62
    7
 10
80.88943106818715
 20
207.33986643189797
 11
82.090820261721987
 21
208.54125574464211
  0
LINE
  8
_0-d_0_1
  6
CONTINUOUS
 62
    7
 10
80.731480786090287
 20
207.32334020966897
 11
81.913928934817704
 21
208.50578764314065
  0
LINE
  8
_0-d_0_1
  6
CONTINUOUS
 62
    7
 10
80.575385400538835
 20
207.30866793031106
 11
81.739916035418901
 21
208.47319868440042
  0
LINE
  8
_0-d_0_1
  6
CONTINUOUS
 62
    7
 10
80.421083399539384
 20
207.29578951234231
 11
81.568632790332231
 21
208.44333914155374
  0
LINE
  8
_0-d_0_1
  6
CONTINUOUS
 62
    7
 10
80.268496224170121
 20
207.28461817139993
 11
81.399939009433183
 21
208.41606977815042
  0
LINE
  8
_0-d_0_1
  6
CONTINUOUS
 62
    7
 10
80.117562481646928
 20
207.27510813111672
 11
81.233703681712541
 21
208.39124945039163
  0
LINE
  8
_0-d_0_1
  6
CONTINUOUS
 62
    7
 10
79.968238600974473
 20
207.26720789307961
 11
81.069813081508073
 21
208.36878183717141
  0
LINE
  8
_0-d_0_1
  6
CONTINUOUS
 62
    7
 10
79.820463189368638
 20
207.26085642213235
 11
80.908153363948259
 21
208.3485467755259
  0
LINE
  8
_0-d_0_1
  6
CONTINUOUS
 62
    7
 10
79.674192586427125
 20
207.25600031251321
 11
80.748637148623857
 21
208.3304450833262
  0
LINE
  8
_0-d_0_1
  6
CONTINUOUS
 62
    7
 10
79.529374280457887
 20
207.25260618562112
 11
80.591159412150773
 21
208.31439092988381
  0
LINE
  8
_0-d_0_1
  6
CONTINUOUS
 62
    7
 10
79.385964506750497
 20
207.25061968202004
 11
80.435641357188615
 21
208.30029657716165
  0
LINE
  8
_0-d_0_1
  6
CONTINUOUS
 62
    7
 10
79.243928306249472
 20
207.24999884004006
 11
80.282021829371843
 21
208.2880924069346
  0
LINE
  8
_0-d_0_1
  6
CONTINUOUS
 62
    7
 10
79.103221917038354
 20
207.250716003126
 11
80.130204447989854
 21
208.2776992642344
  0
LINE
  8
_0-d_0_1
  6
CONTINUOUS
 62
    7
 10
78.963819095378312
 20
207.25272825593362
 11
79.980145642047319
 21
208.26905516023049
  0
LINE
  8
_0-d_0_1
  6
CONTINUOUS
 62
    7
 10
78.825676092391404
 20
207.25600889558206
 11
79.831757852321061
 21
208.2620914303721
  0
LINE
  8
_0-d_0_1
  6
CONTINUOUS
 62
    7
 10
78.688749143367204
 20
207.26050642365823
 11
79.685006061082277
 21
208.25676325196633
  0
LINE
  8
_0-d_0_1
  6
CONTINUOUS
 62
    7
 10
78.553029546027574
 20
207.26620176667581
 11
79.53982905436078
 21
208.25300100678811
  0
LINE
  8
_0-d_0_1
  6
CONTINUOUS
 62
    7
 10
78.418473550563249
 20
207.27306917542825
 11
79.396165573482904
 21
208.25076177949319
  0
LINE
  8
_0-d_0_1
  6
CONTINUOUS
 62
    7
 10
78.285054871325883
 20
207.28107431764016
 11
79.253980637507084
 21
208.24999979371438
  0
LINE
  8
_0-d_0_1
  6
CONTINUOUS
 62
    7
 10
78.15274734187642
 20
207.29019049043069
 11
79.11323050547162
 21
208.25066545838723
  0
LINE
  8
_0-d_0_1
  6
CONTINUOUS
 62
    7
 10
78.021533319240007
 20
207.30039194459329
 11
78.973862686639222
 21
208.2527215802134
  0
LINE
  8
_0-d_0_1
  6
CONTINUOUS
 62
    7
 10
77.891377994304094
 20
207.31166056031594
 11
78.835850903277787
 21
208.25612429017434
  0
LINE
  8
_0-d_0_1
  6
CONTINUOUS
 62
    7
 10
77.762263724093827
 20
207.32396105164895
 11
78.699142703299913
 21
208.26084020966897
  0
LINE
  8
_0-d_0_1
  6
CONTINUOUS
 62
    7
 10
77.634164282565507
 20
207.33728578919778
 11
78.563711830859575
 21
208.26683309907327
  0
LINE
  8
_0-d_0_1
  6
CONTINUOUS
 62
    7
 10
77.507062265162858
 20
207.35160711640725
 11
78.429523238425645
 21
208.27406767243752
  0
LINE
  8
_0-d_0_1
  6
CONTINUOUS
 62
    7
 10
77.380940028911027
 20
207.36690023774514
 11
78.296541997676286
 21
208.28250196809182
  0
LINE
  8
_0-d_0_1
  6
CONTINUOUS
 62
    7
 10
77.255771466975602
 20
207.38315466279397
 11
78.164741822963151
 21
208.29212549561868
  0
LINE
  8
_0-d_0_1
  6
CONTINUOUS
 62
    7
 10
77.131547638659868
 20
207.40034654969583
 11
78.034105369334611
 21
208.3029039227427
  0
LINE
  8
_0-d_0_1
  6
CONTINUOUS
 62
    7
 10
77.008242556338701
 20
207.41846540803323
 11
77.904579827075395
 21
208.31480196351418
  0
LINE
  8
_0-d_0_1
  6
CONTINUOUS
 62
    7
 10
76.885838696246537
 20
207.43748453492532
 11
77.776148030047807
 21
208.32779386872659
  0
LINE
  8
_0-d_0_1
  6
CONTINUOUS
 62
    7
 10
76.764326998477372
 20
207.45738867158303
 11
77.648809739833268
 21
208.34187105531106
  0
LINE
  8
_0-d_0_1
  6
CONTINUOUS
 62
    7
 10
76.643681475406083
 20
207.47816637391458
 11
77.52250380206624
 21
208.35698870057473
  0
LINE
  8
_0-d_0_1
  6
CONTINUOUS
 62
    7
 10
76.523893543963823
 20
207.49980238313088
 11
77.397230216746721
 21
208.37313917512307
  0
LINE
  8
_0-d_0_1
  6
CONTINUOUS
 62
    7
 10
76.404953905826005
 20
207.52227762574563
 11
77.272971460109147
 21
208.39029577607522
  0
LINE
  8
_0-d_0_1
  6
CONTINUOUS
 62
    7
 10
76.286845633273515
 20
207.54559305543313
 11
77.149692723040971
 21
208.40844038361917
  0
LINE
  8
_0-d_0_1
  6
CONTINUOUS
 62
    7
 10
76.169551083331498
 20
207.56971338624368
 11
77.027393767123613
 21
208.42755678529153
  0
LINE
  8
_0-d_0_1
  6
CONTINUOUS
 62
    7
 10
76.053052374606523
 20
207.59463861817727
 11
76.906030842547807
 21
208.44761732453713
  0
LINE
  8
_0-d_0_1
  6
CONTINUOUS
 62
    7
 10
75.937349983935746
 20
207.62036016816506
 11
76.785603949313554
 21
208.46861437196145
  0
LINE
  8
_0-d_0_1
  6
CONTINUOUS
 62
    7
 10
75.822435089831743
 20
207.64685991639504
 11
76.666087099795732
 21
208.49051264161477
  0
LINE
  8
_0-d_0_1
  6
CONTINUOUS
 62
    7
 10
75.708272406344804
 20
207.67412165040383
 11
76.547471472506913
 21
208.51332071656594
  0
LINE
  8
_0-d_0_1
  6
CONTINUOUS
 62
    7
 10
75.594879576449785
 20
207.7021434628428
 11
76.429739186053666
 21
208.53701189393411
  0
LINE
  8
_0-d_0_1
  6
CONTINUOUS
 62
    7
 10
75.482221791034135
 20
207.73091867799172
 11
76.312873312716874
 21
208.56156137818704
  0
LINE
  8
_0-d_0_1
  6
CONTINUOUS
 62
    7
 10
75.370307633166703
 20
207.76041963929543
 11
76.196864554171952
 21
208.58697679871926
  0
LINE
  8
_0-d_0_1
  6
CONTINUOUS
 62
    7
 10
75.259119459872636
 20
207.79064634675393
 11
76.081687161212358
 21
208.61322286958108
  0
LINE
  8
_0-d_0_1
  6
CONTINUOUS
 62
    7
 10
75.148640105014238
 20
207.82159975404153
 11
75.967340895419511
 21
208.64029100770364
  0
LINE
  8
_0-d_0_1
  6
CONTINUOUS
 62
    7
 10
75.038877913241777
 20
207.85325220460305
 11
75.853808113818559
 21
208.66818216676126
  0
LINE
  8
_0-d_0_1
  6
CONTINUOUS
 62
    7
 10
74.92980713534871
 20
207.88560560578713
 11
75.741071411853227
 21
208.69686964387307
  0
LINE
  8
_0-d_0_1
  6
CONTINUOUS
 62
    7
 10
74.821436354403886
 20
207.91864946717629
 11
75.629131027942094
 21
208.72634390229592
  0
LINE
  8
_0-d_0_1
  6
CONTINUOUS
 62
    7
 10
74.713730284457597
 20
207.95236757630715
 11
75.51796049762288
 21
208.75659731263528
  0
LINE
  8
_0-d_0_1
  6
CONTINUOUS
 62
    7
 10
74.606706568484697
 20
207.98676756257424
 11
75.407559820895585
 21
208.78762033814797
  0
LINE
  8
_0-d_0_1
  6
CONTINUOUS
 62
    7
 10
74.500356623416337
 20
208.02183225983987
 11
75.297920176272783
 21
208.81939581269631
  0
LINE
  8
_0-d_0_1
  6
CONTINUOUS
 62
    7
 10
74.394654223208818
 20
208.0575540387095
 11
75.189024397616777
 21
208.8519237362803
  0
LINE
  8
_0-d_0_1
  6
CONTINUOUS
 62
    7
 10
74.289607474093827
 20
208.09392240876565
 11
75.08087200809041
 21
208.88518694276223
  0
LINE
  8
_0-d_0_1
  6
CONTINUOUS
 62
    7
 10
74.185199686770829
 20
208.13093832368264
 11
74.973437258487138
 21
208.91917589539895
  0
LINE
  8
_0-d_0_1
  6
CONTINUOUS
 62
    7
 10
74.081439444308671
 20
208.16860178346047
 11
74.866719671969804
 21
208.95388201112161
  0
LINE
  8
_0-d_0_1
  6
CONTINUOUS
 62
    7
 10
73.978300520663652
 20
208.20687750214944
 11
74.760719725375566
 21
208.98929670686135
  0
LINE
  8
_0-d_0_1
  6
CONTINUOUS
 62
    7
 10
73.87579102206746
 20
208.2457921826304
 11
74.655411192660722
 21
209.02541235322366
  0
LINE
  8
_0-d_0_1
  6
CONTINUOUS
 62
    7
 10
73.773902842288408
 20
208.28531912202249
 11
74.550802180056962
 21
209.06221845979104
  0
LINE
  8
_0-d_0_1
  6
CONTINUOUS
 62
    7
 10
73.67261833835164
 20
208.32545832032571
 11
74.446875521426591
 21
209.0997150265635
  0
LINE
  8
_0-d_0_1
  6
CONTINUOUS
 62
    7
 10
73.571946570163163
 20
208.36620977754006
 11
74.343622633700761
 21
209.13788584107766
  0
LINE
  8
_0-d_0_1
  6
CONTINUOUS
 62
    7
 10
73.471878000979814
 20
208.40755632752786
 11
74.24105209994832
 21
209.17673090333352
  0
LINE
  8
_0-d_0_1
  6
CONTINUOUS
 62
    7
 10
73.372395941501054
 20
208.44949797028909
 11
74.13912863421956
 21
209.21623113984475
  0
LINE
  8
_0-d_0_1
  6
CONTINUOUS
 62
    7
 10
73.273508497958574
 20
208.49203470582376
 11
74.037870833163652
 21
209.25639704102883
  0
LINE
  8
_0-d_0_1
  6
CONTINUOUS
 62
    7
 10
73.175216147189531
 20
208.53515795106301
 11
73.937268683200273
 21
209.29720953339944
  0
LINE
  8
_0-d_0_1
  6
CONTINUOUS
 62
    7
 10
73.077492663150224
 20
208.57885721558938
 11
73.83729643512288
 21
209.33866194123635
  0
LINE
  8
_0-d_0_1
  6
CONTINUOUS
 62
    7
 10
72.980346152072343
 20
208.62313536042581
 11
73.737971731906327
 21
209.38075235719094
  0
LINE
  8
_0-d_0_1
  6
CONTINUOUS
 62
    7
 10
72.883777090793046
 20
208.66798094148049
 11
73.639268347506913
 21
209.42348078126321
  0
LINE
  8
_0-d_0_1
  6
CONTINUOUS
 62
    7
 10
72.787768313174638
 20
208.71339586610208
 11
73.541194388156327
 21
209.46682241792092
  0
LINE
  8
_0-d_0_1
  6
CONTINUOUS
 62
    7
 10
72.692327925448808
 20
208.75937918061624
 11
73.44374174762288
 21
209.51079347962747
  0
LINE
  8
_0-d_0_1
  6
CONTINUOUS
 62
    7
 10
72.597447821383867
 20
208.8059146725596
 11
73.346910425906572
 21
209.55537680024514
  0
LINE
  8
_0-d_0_1
  6
CONTINUOUS
 62
    7
 10
72.50311846423665
 20
208.85300901765237
 11
73.250674196963701
 21
209.60056475037942
  0
LINE
  8
_0-d_0_1
  6
CONTINUOUS
 62
    7
 10
72.409331747775468
 20
208.90064600343118
 11
73.155050226931962
 21
209.64636400575051
  0
LINE
  8
_0-d_0_1
  6
CONTINUOUS
 62
    7
 10
72.316104838138017
 20
208.94883421296487
 11
73.060029932742509
 21
209.69275930756936
  0
LINE
  8
_0-d_0_1
  6
CONTINUOUS
 62
    7
 10
72.223411509280595
 20
208.9975650631846
 11
72.965595671420488
 21
209.73974874848733
  0
LINE
  8
_0-d_0_1
  6
CONTINUOUS
 62
    7
 10
72.131269881015214
 20
209.04683760041604
 11
72.871765085940751
 21
209.78733328217874
  0
LINE
  8
_0-d_0_1
  6
CONTINUOUS
 62
    7
 10
71.929155775790605
 20
208.98614767426858
 11
72.778511950259599
 21
209.83550432557473
  0
LINE
  8
_0-d_0_1
  6
CONTINUOUS
 62
    7
 10
71.658092924838456
 20
208.85650804871926
 11
72.685836264377031
 21
209.88425234193215
  0
LINE
  8
_0-d_0_1
  6
CONTINUOUS
 62
    7
 10
71.370503374820146
 20
208.85175779694924
 11
72.502226301913652
 21
209.98348024720559
  0
LINE
  8
_0-d_0_1
  6
CONTINUOUS
 62
    7
 10
71.318736979251298
 20
208.94141558045754
 11
72.411273905520829
 21
210.03395250672708
  0
LINE
  8
_0-d_0_1
  6
CONTINUOUS
 62
    7
 10
71.266979166751298
 20
209.03107241029153
 11
72.320899435763749
 21
210.08499220246682
  0
LINE
  8
_0-d_0_1
  6
CONTINUOUS
 62
    7
 10
71.215212771182451
 20
209.12073019379983
 11
72.231075712924394
 21
210.13659265870461
  0
LINE
  8
_0-d_0_1
  6
CONTINUOUS
 62
    7
 10
71.163446375613603
 20
209.21037844056497
 11
72.141820856814775
 21
210.18875292176614
  0
LINE
  8
_0-d_0_1
  6
CONTINUOUS
 62
    7
 10
71.111679980044755
 20
209.30003622407327
 11
72.053117224460038
 21
210.24147299165139
  0
LINE
  8
_0-d_0_1
  6
CONTINUOUS
 62
    7
 10
71.059922167544755
 20
209.3897016369761
 11
71.964964339023027
 21
210.29474428529153
  0
LINE
  8
_0-d_0_1
  6
CONTINUOUS
 62
    7
 10
71.008155771975908
 20
209.47935083741555
 11
71.877363154178056
 21
210.3485582196177
  0
LINE
  8
_0-d_0_1
  6
CONTINUOUS
 62
    7
 10
70.95638937640706
 20
209.56900766724954
 11
71.79031271625081
 21
210.40293100709329
  0
LINE
  8
_0-d_0_1
  6
CONTINUOUS
 62
    7
 10
70.90463156390706
 20
209.65867403382668
 11
71.703804919009599
 21
210.45784738892922
  0
LINE
  8
_0-d_0_1
  6
CONTINUOUS
 62
    7
 10
70.852865168338212
 20
209.74832228059182
 11
71.617839762454423
 21
210.51329687470803
  0
LINE
  8
_0-d_0_1
  6
CONTINUOUS
 62
    7
 10
70.801098772769365
 20
209.83798006410012
 11
71.532416769748124
 21
210.56929758424172
  0
LINE
  8
_0-d_0_1
  6
CONTINUOUS
 62
    7
 10
70.749340960269365
 20
209.92764643067727
 11
71.447527357821855
 21
210.6258323513926
  0
LINE
  8
_0-d_0_1
  6
CONTINUOUS
 62
    7
 10
70.697574564700517
 20
210.01729467744241
 11
71.363172003512773
 21
210.68289163941751
  0
LINE
  8
_0-d_0_1
  6
CONTINUOUS
 62
    7
 10
70.645808169131669
 20
210.10695150727639
 11
71.279349753146562
 21
210.74049356812844
  0
LINE
  8
_0-d_0_1
  6
CONTINUOUS
 62
    7
 10
70.594050356631669
 20
210.19661787385354
 11
71.196062037234697
 21
210.79862097138772
  0
LINE
  8
_0-d_0_1
  6
CONTINUOUS
 62
    7
 10
70.542283961062822
 20
210.28626612061868
 11
71.113298365359697
 21
210.85728052491555
  0
LINE
  8
_0-d_0_1
  6
CONTINUOUS
 62
    7
 10
70.490517565493974
 20
210.37592390412698
 11
71.031060168033036
 21
210.91646650666604
  0
LINE
  8
_0-d_0_1
  6
CONTINUOUS
 62
    7
 10
70.438759752993974
 20
210.46558168763528
 11
70.9493464915804
 21
210.9761684262217
  0
LINE
  8
_0-d_0_1
  6
CONTINUOUS
 62
    7
 10
70.386993357425126
 20
210.55523851746926
 11
70.868158289676103
 21
211.03640344972024
  0
LINE
  8
_0-d_0_1
  6
CONTINUOUS
 62
    7
 10
70.335226961856279
 20
210.64489630097756
 11
70.787486025576982
 21
211.09715441102395
  0
LINE
  8
_0-d_0_1
  6
CONTINUOUS
 62
    7
 10
70.283469149356279
 20
210.73455313081155
 11
70.707346865420732
 21
211.158430846876
  0
LINE
  8
_0-d_0_1
  6
CONTINUOUS
 62
    7
 10
70.231702753787431
 20
210.82421091431985
 11
70.627707430606279
 21
211.22021463746438
  0
LINE
  8
_0-d_0_1
  6
CONTINUOUS
 62
    7
 10
70.179936358218583
 20
210.91386774415383
 11
70.548591562991533
 21
211.2825239026011
  0
LINE
  8
_0-d_0_1
  6
CONTINUOUS
 62
    7
 10
70.128178545718583
 20
211.00352552766213
 11
70.469992586856279
 21
211.34534815186868
  0
LINE
  8
_0-d_0_1
  6
CONTINUOUS
 62
    7
 10
70.076412150149736
 20
211.09318235749612
 11
70.391910502200517
 21
211.4086807095469
  0
LINE
  8
_0-d_0_1
  6
CONTINUOUS
 62
    7
 10
70.024645754580888
 20
211.18284014100442
 11
70.314334818606767
 21
211.4725292050303
  0
LINE
  8
_0-d_0_1
  6
CONTINUOUS
 62
    7
 10
69.972887942080888
 20
211.2724969708384
 11
70.237276026492509
 21
211.53689363831887
  0
LINE
  8
_0-d_0_1
  6
CONTINUOUS
 62
    7
 10
69.92112154651204
 20
211.3621547543467
 11
70.160724589114579
 21
211.60175684327493
  0
LINE
  8
_0-d_0_1
  6
CONTINUOUS
 62
    7
 10
69.869355150943193
 20
211.45181253785501
 11
70.084679552798661
 21
211.66713693971047
  0
LINE
  8
_0-d_0_1
  6
CONTINUOUS
 62
    7
 10
69.817597338443193
 20
211.54147795075784
 11
70.009151407962236
 21
211.73303202027688
  0
LINE
  8
_0-d_0_1
  6
CONTINUOUS
 62
    7
 10
69.765830942874345
 20
211.63113573426614
 11
69.93412203479329
 21
211.79942682618508
  0
LINE
  8
_0-d_0_1
  6
CONTINUOUS
 62
    7
 10
69.714064547305497
 20
211.72078398103127
 11
69.859609553103837
 21
211.86632898682961
  0
LINE
  8
_0-d_0_1
  6
CONTINUOUS
 62
    7
 10
69.66229815173665
 20
211.81045034760842
 11
69.785603472476396
 21
211.93374613160501
  0
LINE
  8
_0-d_0_1
  6
CONTINUOUS
 62
    7
 10
69.61054033923665
 20
211.90010717744241
 11
69.712096163516435
 21
212.00166300172219
  0
LINE
  8
_0-d_0_1
  6
CONTINUOUS
 62
    7
 10
69.558773943667802
 20
211.98976496095071
 11
69.639096209292802
 21
212.07008722657571
  0
LINE
  8
_0-d_0_1
  6
CONTINUOUS
 62
    7
 10
69.507007548098954
 20
212.07942179078469
 11
69.566613146548661
 21
212.13901880616555
  0
LINE
  8
_0-d_0_1
  6
CONTINUOUS
 62
    7
 10
69.455249735598954
 20
212.16907957429299
 11
69.494627901797685
 21
212.20845774049172
  0
LINE
  8
_0-d_0_1
  6
CONTINUOUS
 62
    7
 10
69.403483340030107
 20
212.25873735780129
 11
69.423142382388505
 21
212.27839544648538
  0
LINE
  8
_0-d_0_1
  6
CONTINUOUS
 62
    7
 10
69.351716944461259
 20
212.34839418763528
 11
69.352171847110185
 21
212.34884050721536
  0
LINE
  8
_0-d_0_1
  6
CONTINUOUS
 62
    7
 10
67.656757303958329
 20
222.25000170106301
 11
67.750378557925615
 21
222.34362223977456
  0
LINE
  8
_0-d_0_1
  6
CONTINUOUS
 62
    7
 10
67.515334078555497
 20
222.25000170106301
 11
67.752443262820634
 21
222.48711948329816
  0
LINE
  8
_0-d_0_1
  6
CONTINUOUS
 62
    7
 10
67.373909899478349
 20
222.25000170106301
 11
67.756361910586747
 21
222.63245398039231
  0
LINE
  8
_0-d_0_1
  6
CONTINUOUS
 62
    7
 10
67.232495257144365
 20
222.25000170106301
 11
67.762206026797685
 21
222.77971318597207
  0
LINE
  8
_0-d_0_1
  6
CONTINUOUS
 62
    7
 10
67.091062494998368
 20
222.25000170106301
 11
67.77006239581624
 21
222.92900213832269
  0
LINE
  8
_0-d_0_1
  6
CONTINUOUS
 62
    7
 10
66.949646898990068
 20
222.25000170106301
 11
67.780018755679521
 21
223.08037325972924
  0
LINE
  8
_0-d_0_1
  6
CONTINUOUS
 62
    7
 10
66.808232256656083
 20
222.25000170106301
 11
67.792170473819169
 21
223.23394033545861
  0
LINE
  8
_0-d_0_1
  6
CONTINUOUS
 62
    7
 10
66.666799494510087
 20
222.25000170106301
 11
67.806624361758622
 21
223.38982585305581
  0
LINE
  8
_0-d_0_1
  6
CONTINUOUS
 62
    7
 10
66.525384852176103
 20
222.25000170106301
 11
67.823500582461747
 21
223.54811719293008
  0
LINE
  8
_0-d_0_1
  6
CONTINUOUS
 62
    7
 10
66.383960673098954
 20
222.25000170106301
 11
67.842922159915361
 21
223.70895448560128
  0
LINE
  8
_0-d_0_1
  6
CONTINUOUS
 62
    7
 10
66.242537447696122
 20
222.25000170106301
 11
67.86503023791829
 21
223.87249520654092
  0
LINE
  8
_0-d_0_1
  6
CONTINUOUS
 62
    7
 10
66.101121851687822
 20
222.25000170106301
 11
67.889982172732743
 21
224.03886166448007
  0
LINE
  8
_0-d_0_1
  6
CONTINUOUS
 62
    7
 10
65.95969862628499
 20
222.25000170106301
 11
67.917951533084306
 21
224.2082640253962
  0
LINE
  8
_0-d_0_1
  6
CONTINUOUS
 62
    7
 10
65.818274447207841
 20
222.25000170106301
 11
67.949141451602372
 21
224.38086846703897
  0
LINE
  8
_0-d_0_1
  6
CONTINUOUS
 62
    7
 10
65.676859804873857
 20
222.25000170106301
 11
67.983759829287919
 21
224.55690244073281
  0
LINE
  8
_0-d_0_1
  6
CONTINUOUS
 62
    7
 10
65.535427042727861
 20
222.25000170106301
 11
68.022062250857743
 21
224.7366369091929
  0
LINE
  8
_0-d_0_1
  6
CONTINUOUS
 62
    7
 10
65.394012400393876
 20
222.25000170106301
 11
68.064318606143388
 21
224.92030862206826
  0
LINE
  8
_0-d_0_1
  6
CONTINUOUS
 62
    7
 10
65.252596804385576
 20
222.25000170106301
 11
68.110861727481279
 21
225.10826710099587
  0
LINE
  8
_0-d_0_1
  6
CONTINUOUS
 62
    7
 10
65.111164042239579
 20
222.25000170106301
 11
68.162086436038408
 21
225.30092361802468
  0
LINE
  8
_0-d_0_1
  6
CONTINUOUS
 62
    7
 10
64.969749399905595
 20
222.25000170106301
 11
68.218393275027665
 21
225.49864557618508
  0
LINE
  8
_0-d_0_1
  6
CONTINUOUS
 62
    7
 10
64.828325220828447
 20
222.25000170106301
 11
68.280325838809404
 21
225.70200208062539
  0
LINE
  8
_0-d_0_1
  6
CONTINUOUS
 62
    7
 10
64.686901995425615
 20
222.25000170106301
 11
68.348496386294755
 21
225.91159609193215
  0
LINE
  8
_0-d_0_1
  6
CONTINUOUS
 62
    7
 10
64.545486399417314
 20
222.25000170106301
 11
68.423647829776201
 21
226.1281631314219
  0
LINE
  8
_0-d_0_1
  6
CONTINUOUS
 62
    7
 10
64.404063174014482
 20
222.25000170106301
 11
68.506709048037919
 21
226.3526561581553
  0
LINE
  8
_0-d_0_1
  6
CONTINUOUS
 62
    7
 10
64.262638994937333
 20
222.25000170106301
 11
68.598824450259599
 21
226.58618715638528
  0
LINE
  8
_0-d_0_1
  6
CONTINUOUS
 62
    7
 10
64.121224352603349
 20
222.25000170106301
 11
68.70148272204915
 21
226.83026007050881
  0
LINE
  8
_0-d_0_1
  6
CONTINUOUS
 62
    7
 10
63.979791590457353
 20
222.25000170106301
 11
68.816651293521318
 21
227.08686140412698
  0
LINE
  8
_0-d_0_1
  6
CONTINUOUS
 62
    7
 10
63.838376948123368
 20
222.25000170106301
 11
68.946981379275712
 21
227.35860708588967
  0
LINE
  8
_0-d_0_1
  6
CONTINUOUS
 62
    7
 10
63.979791590457353
 20
222.25000170106301
 11
69.17777437854329
 21
227.44798448914895
  0
LINE
  8
_0-d_0_1
  6
CONTINUOUS
 62
    7
 10
63.838376948123368
 20
222.25000170106301
 11
69.116007754092607
 21
227.52763298386941
  0
LINE
  8
_0-d_0_1
  6
CONTINUOUS
 62
    7
 10
63.696961352115068
 20
222.25000170106301
 11
69.054241129641923
 21
227.60728195542703
  0
LINE
  8
_0-d_0_1
  6
CONTINUOUS
 62
    7
 10
63.555528589969072
 20
222.25000170106301
 11
68.992466875796708
 21
227.68693951005349
  0
LINE
  8
_0-d_0_1
  6
CONTINUOUS
 62
    7
 10
63.414113947635087
 20
222.25000170106301
 11
68.930700251346025
 21
227.76658800477395
  0
LINE
  8
_0-d_0_1
  6
CONTINUOUS
 62
    7
 10
63.272689768557939
 20
222.25000170106301
 11
68.868933626895341
 21
227.84623697633157
  0
LINE
  8
_0-d_0_1
  6
CONTINUOUS
 62
    7
 10
63.13126558948079
 20
222.25000170106301
 11
68.807159373050126
 21
227.92589453095803
  0
LINE
  8
_0-d_0_1
  6
CONTINUOUS
 62
    7
 10
62.989850947146806
 20
222.25000170106301
 11
68.745392748599443
 21
228.00554302567849
  0
LINE
  8
_0-d_0_1
  6
CONTINUOUS
 62
    7
 10
62.848426768069658
 20
222.25000170106301
 11
68.683626124148759
 21
228.08520058030496
  0
LINE
  8
_0-d_0_1
  6
CONTINUOUS
 62
    7
 10
62.707004496341142
 20
222.25000170106301
 11
68.621850916629228
 21
228.16484955186257
  0
LINE
  8
_0-d_0_1
  6
CONTINUOUS
 62
    7
 10
62.565587946658525
 20
222.25000170106301
 11
68.560085245852861
 21
228.24449804658303
  0
LINE
  8
_0-d_0_1
  6
CONTINUOUS
 62
    7
 10
62.424156138186845
 20
222.25000170106301
 11
68.498310038333329
 21
228.3241556012095
  0
LINE
  8
_0-d_0_1
  6
CONTINUOUS
 62
    7
 10
62.282741495852861
 20
222.25000170106301
 11
68.436543413882646
 21
228.40380457276711
  0
LINE
  8
_0-d_0_1
  6
CONTINUOUS
 62
    7
 10
62.141326853518876
 20
222.25000170106301
 11
68.374777743106279
 21
228.48345306748757
  0
LINE
  8
_0-d_0_1
  6
CONTINUOUS
 62
    7
 10
61.999893137698564
 20
222.25000170106301
 11
68.313011118655595
 21
228.56311062211404
  0
LINE
  8
_0-d_0_1
  6
CONTINUOUS
 62
    7
 10
61.858478495364579
 20
222.25000170106301
 11
68.251235911136064
 21
228.64275959367166
  0
LINE
  8
_0-d_0_1
  6
CONTINUOUS
 62
    7
 10
61.750028559451493
 20
222.28297579521546
 11
68.189470240359697
 21
228.72241667146096
  0
LINE
  8
_0-d_0_1
  6
CONTINUOUS
 62
    7
 10
61.750877329593095
 20
222.42524822289357
 11
68.127703615909013
 21
228.80207422608743
  0
LINE
  8
_0-d_0_1
  6
CONTINUOUS
 62
    7
 10
61.752899119143876
 20
222.56868422264466
 11
68.065936991458329
 21
228.88172319764504
  0
LINE
  8
_0-d_0_1
  6
CONTINUOUS
 62
    7
 10
61.756135889773759
 20
222.7133450531424
 11
68.004162737613115
 21
228.9613716923655
  0
LINE
  8
_0-d_0_1
  6
CONTINUOUS
 62
    7
 10
61.760606714969072
 20
222.8592394315661
 11
67.942396113162431
 21
229.04102924699197
  0
LINE
  8
_0-d_0_1
  6
CONTINUOUS
 62
    7
 10
61.766353556399736
 20
223.00640246505151
 11
67.880629488711747
 21
229.12067821854959
  0
LINE
  8
_0-d_0_1
  6
CONTINUOUS
 62
    7
 10
61.773414561038408
 20
223.15488645667443
 11
67.818854281192216
 21
229.20032671327004
  0
LINE
  8
_0-d_0_1
  6
CONTINUOUS
 62
    7
 10
61.781812617068681
 20
223.30470910901437
 11
67.757088610415849
 21
229.27998426789651
  0
LINE
  8
_0-d_0_1
  6
CONTINUOUS
 62
    7
 10
61.791603037600908
 20
223.455913933462
 11
67.695321985965165
 21
229.35963323945413
  0
LINE
  8
_0-d_0_1
  6
CONTINUOUS
 62
    7
 10
61.802810618167314
 20
223.60855368012795
 11
67.633546778445634
 21
229.43929079408059
  0
LINE
  8
_0-d_0_1
  6
CONTINUOUS
 62
    7
 10
61.81549639392415
 20
223.76265445584664
 11
67.571781107669267
 21
229.51893928880105
  0
LINE
  8
_0-d_0_1
  6
CONTINUOUS
 62
    7
 10
61.82970423388997
 20
223.9182775341929
 11
67.510014483218583
 21
229.59858826035867
  0
LINE
  8
_0-d_0_1
  6
CONTINUOUS
 62
    7
 10
61.845468470340165
 20
224.07547524804482
 11
67.448239275699052
 21
229.67824581498513
  0
LINE
  8
_0-d_0_1
  6
CONTINUOUS
 62
    7
 10
61.862861582522783
 20
224.23428288335214
 11
67.386473604922685
 21
229.75789430970559
  0
LINE
  8
_0-d_0_1
  6
CONTINUOUS
 62
    7
 10
61.881925532107743
 20
224.39477899903665
 11
67.324698397403154
 21
229.83755186433206
  0
LINE
  8
_0-d_0_1
  6
CONTINUOUS
 62
    7
 10
61.902728983645829
 20
224.55699852342019
 11
67.26293177295247
 21
229.91720083588967
  0
LINE
  8
_0-d_0_1
  6
CONTINUOUS
 62
    7
 10
61.925336786990556
 20
224.72102049226174
 11
67.201165148501786
 21
229.99684933061013
  0
LINE
  8
_0-d_0_1
  6
CONTINUOUS
 62
    7
 10
61.949806162600908
 20
224.8869145237864
 11
67.139390894656572
 21
230.0765068852366
  0
LINE
  8
_0-d_0_1
  6
CONTINUOUS
 62
    7
 10
61.976228663211259
 20
225.05475953454385
 11
67.077624270205888
 21
230.15615585679421
  0
LINE
  8
_0-d_0_1
  6
CONTINUOUS
 62
    7
 10
62.004661509280595
 20
225.22460797662148
 11
67.015857645755204
 21
230.23580435151467
  0
LINE
  8
_0-d_0_1
  6
CONTINUOUS
 62
    7
 10
62.035211512332353
 20
225.3965912186564
 11
66.95408339190999
 21
230.31546190614114
  0
LINE
  8
_0-d_0_1
  6
CONTINUOUS
 62
    7
 10
62.067958781009111
 20
225.57075289124856
 11
66.892316767459306
 21
230.39511087769876
  0
LINE
  8
_0-d_0_1
  6
CONTINUOUS
 62
    7
 10
62.10300631213704
 20
225.74721554154763
 11
66.830550143008622
 21
230.47476843232522
  0
LINE
  8
_0-d_0_1
  6
CONTINUOUS
 62
    7
 10
62.140459009890947
 20
225.92610147828469
 11
66.768774935489091
 21
230.55441740388284
  0
LINE
  8
_0-d_0_1
  6
CONTINUOUS
 62
    7
 10
62.180440851931962
 20
226.10749843949685
 11
66.707009264712724
 21
230.63406542176614
  0
LINE
  8
_0-d_0_1
  6
CONTINUOUS
 62
    7
 10
62.223091074710283
 20
226.29157236451516
 11
66.64524264026204
 21
230.7137229763926
  0
LINE
  8
_0-d_0_1
  6
CONTINUOUS
 62
    7
 10
62.26853365588704
 20
226.47843721742043
 11
66.583467432742509
 21
230.79337194795022
  0
LINE
  8
_0-d_0_1
  6
CONTINUOUS
 62
    7
 10
62.316923090701493
 20
226.66824177140603
 11
66.521701761966142
 21
230.87302091950784
  0
LINE
  8
_0-d_0_1
  6
CONTINUOUS
 62
    7
 10
62.368444391971025
 20
226.86118725175271
 11
66.459935137515458
 21
230.9526784741343
  0
LINE
  8
_0-d_0_1
  6
CONTINUOUS
 62
    7
 10
62.423280665164384
 20
227.05744818086038
 11
66.398168513064775
 21
231.03233602876077
  0
LINE
  8
_0-d_0_1
  6
CONTINUOUS
 62
    7
 10
62.481643625979814
 20
227.25722626084695
 11
66.336402842288408
 21
231.11198500031838
  0
LINE
  8
_0-d_0_1
  6
CONTINUOUS
 62
    7
 10
62.543786951785478
 20
227.46080139512429
 11
66.274627634768876
 21
231.19164255494485
  0
LINE
  8
_0-d_0_1
  6
CONTINUOUS
 62
    7
 10
62.609952875857743
 20
227.66838339204202
 11
66.212861010318193
 21
231.27129057282815
  0
LINE
  8
_0-d_0_1
  6
CONTINUOUS
 62
    7
 10
62.68045992541829
 20
227.88031319016824
 11
66.151086756472978
 21
231.35093954438577
  0
LINE
  8
_0-d_0_1
  6
CONTINUOUS
 62
    7
 10
62.75565523791829
 20
228.09693268174539
 11
66.089320132022294
 21
231.43059709901223
  0
LINE
  8
_0-d_0_1
  6
CONTINUOUS
 62
    7
 10
62.835926005130204
 20
228.31861761445413
 11
66.027553507571611
 21
231.51024607056985
  0
LINE
  8
_0-d_0_1
  6
CONTINUOUS
 62
    7
 10
62.921733805423173
 20
228.54584911698709
 11
65.965778300052079
 21
231.58989504212747
  0
LINE
  8
_0-d_0_1
  6
CONTINUOUS
 62
    7
 10
63.013622233157548
 20
228.77916124696145
 11
65.904012629275712
 21
231.66955259675393
  0
LINE
  8
_0-d_0_1
  6
CONTINUOUS
 62
    7
 10
63.112203547244462
 20
229.01915768021951
 11
65.842246004825029
 21
231.74920061463723
  0
LINE
  8
_0-d_0_1
  6
CONTINUOUS
 62
    7
 10
63.218255945926103
 20
229.26664236420999
 11
65.780470797305497
 21
231.8288581692637
  0
LINE
  8
_0-d_0_1
  6
CONTINUOUS
 62
    7
 10
63.332680651431474
 20
229.52248266572366
 11
65.71870512652913
 21
231.90850714082131
  0
LINE
  8
_0-d_0_1
  6
CONTINUOUS
 62
    7
 10
63.456606814151201
 20
229.78782394761453
 11
65.656938502078447
 21
231.98815611237893
  0
LINE
  8
_0-d_0_1
  6
CONTINUOUS
 62
    7
 10
63.591468760257158
 20
230.06411007279763
 11
65.595163294558915
 21
232.0678136670054
  0
LINE
  8
_0-d_0_1
  6
CONTINUOUS
 62
    7
 10
63.739051768069658
 20
230.35311678285012
 11
65.533397623782548
 21
232.14746263856301
  0
LINE
  8
_0-d_0_1
  6
CONTINUOUS
 62
    7
 10
63.901769587283525
 20
230.65725019807229
 11
65.471630999331865
 21
232.22711065644631
  0
LINE
  8
_0-d_0_1
  6
CONTINUOUS
 62
    7
 10
64.082930514102372
 20
230.97984293336282
 11
65.409855791812333
 21
232.30676821107278
  0
LINE
  8
_0-d_0_1
  6
CONTINUOUS
 62
    7
 10
64.287249514346513
 20
231.32557657594094
 11
65.348090121035966
 21
232.3864171826304
  0
LINE
  8
_0-d_0_1
  6
CONTINUOUS
 62
    7
 10
64.521943995242509
 20
231.70168665284524
 11
65.286323496585283
 21
232.46606615418801
  0
LINE
  8
_0-d_0_1
  6
CONTINUOUS
 62
    7
 10
64.799174257998857
 20
232.12034109467874
 11
65.224556872134599
 21
232.54572370881448
  0
LINE
  8
_0-d_0_1
  6
CONTINUOUS
 62
    7
 10
65.142423578982743
 20
232.60501364106545
 11
65.162781664615068
 21
232.6253726803721
  0
LINE
  8
_0-d_0_1
  6
CONTINUOUS
 62
    7
 10
87.251760432010073
 20
235.43649938935647
 11
90.115353533511538
 21
235.96942118043313
  0
LINE
  8
_0-d_0_1
  6
CONTINUOUS
 62
    7
 10
89.977158495669741
 20
235.94370058411965
 11
90.051890322451968
 21
236.01842287415872
  0
LINE
  8
_0-d_0_1
  6
CONTINUOUS
 62
    7
 10
89.80340761828937
 20
235.91136434907327
 11
89.972416826968569
 21
236.08038214082131
  0
LINE
  8
_0-d_0_1
  6
CONTINUOUS
 62
    7
 10
89.629639574771304
 20
235.87902048463235
 11
89.892558047061343
 21
236.14194753999124
  0
LINE
  8
_0-d_0_1
  6
CONTINUOUS
 62
    7
 10
89.455889651065249
 20
235.84669378632913
 11
89.812278696780581
 21
236.20307520264993
  0
LINE
  8
_0-d_0_1
  6
CONTINUOUS
 62
    7
 10
89.282103487735171
 20
235.81434992188821
 11
89.731580683474917
 21
236.26380899781594
  0
LINE
  8
_0-d_0_1
  6
CONTINUOUS
 62
    7
 10
89.108353564029116
 20
235.78201464051614
 11
89.650462099795718
 21
236.32410505647073
  0
LINE
  8
_0-d_0_1
  6
CONTINUOUS
 62
    7
 10
88.934602686648745
 20
235.74967840546975
 11
89.5689238994173
 21
236.38399008149514
  0
LINE
  8
_0-d_0_1
  6
CONTINUOUS
 62
    7
 10
88.76085276294269
 20
235.71734312409768
 11
89.486965128665346
 21
236.4434650265635
  0
LINE
  8
_0-d_0_1
  6
CONTINUOUS
 62
    7
 10
88.587101885562319
 20
235.68500784272561
 11
89.404586741214175
 21
236.50250986451516
  0
LINE
  8
_0-d_0_1
  6
CONTINUOUS
 62
    7
 10
88.413333842044253
 20
235.65267256135354
 11
89.321805903201479
 21
236.5611350857676
  0
LINE
  8
_0-d_0_1
  6
CONTINUOUS
 62
    7
 10
88.239565798526186
 20
235.62033727998147
 11
89.238587328677554
 21
236.61935022706399
  0
LINE
  8
_0-d_0_1
  6
CONTINUOUS
 62
    7
 10
88.065815874820132
 20
235.5880019986094
 11
89.154949137454409
 21
236.67712667817483
  0
LINE
  8
_0-d_0_1
  6
CONTINUOUS
 62
    7
 10
87.892064997439761
 20
235.55566576356301
 11
89.070891329532046
 21
236.73448351258645
  0
LINE
  8
_0-d_0_1
  6
CONTINUOUS
 62
    7
 10
87.718296953921694
 20
235.5233218991221
 11
88.986395785098452
 21
236.79141214723001
  0
LINE
  8
_0-d_0_1
  6
CONTINUOUS
 62
    7
 10
87.544547030215639
 20
235.49098661775002
 11
88.901462504153628
 21
236.84791162843118
  0
LINE
  8
_0-d_0_1
  6
CONTINUOUS
 62
    7
 10
87.370778986697573
 20
235.45865133637795
 11
88.816109606509585
 21
236.90399053925881
  0
LINE
  8
_0-d_0_1
  6
CONTINUOUS
 62
    7
 10
87.200842806582827
 20
235.43013933534036
 11
88.730337092166323
 21
236.95962408418069
  0
LINE
  8
_0-d_0_1
  6
CONTINUOUS
 62
    7
 10
87.039235541110415
 20
235.40993765229592
 11
88.644144007449526
 21
237.01483801240335
  0
LINE
  8
_0-d_0_1
  6
CONTINUOUS
 62
    7
 10
86.877593466525454
 20
235.38972833985696
 11
88.557478853946108
 21
237.06961325044045
  0
LINE
  8
_0-d_0_1
  6
CONTINUOUS
 62
    7
 10
86.715986201053042
 20
235.36952761048684
 11
88.470393130069155
 21
237.1239431225718
  0
LINE
  8
_0-d_0_1
  6
CONTINUOUS
 62
    7
 10
86.555673548465151
 20
235.35064772004495
 11
88.382870623355288
 21
237.17784479493508
  0
LINE
  8
_0-d_0_1
  6
CONTINUOUS
 62
    7
 10
86.464616724734682
 20
235.40101412171731
 11
88.29491038013019
 21
237.23130873078713
  0
LINE
  8
_0-d_0_1
  6
CONTINUOUS
 62
    7
 10
86.373034426455874
 20
235.4508474194468
 11
88.206513354068179
 21
237.28432634705911
  0
LINE
  8
_0-d_0_1
  6
CONTINUOUS
 62
    7
 10
86.280909964328188
 20
235.50014665955911
 11
88.117678591494936
 21
237.336897643751
  0
LINE
  8
_0-d_0_1
  6
CONTINUOUS
 62
    7
 10
86.188243338351626
 20
235.54890325898538
 11
88.028370806460757
 21
237.38903120393167
  0
LINE
  8
_0-d_0_1
  6
CONTINUOUS
 62
    7
 10
86.09503359485187
 20
235.59711817139993
 11
87.938643404727358
 21
237.4407098614634
  0
LINE
  8
_0-d_0_1
  6
CONTINUOUS
 62
    7
 10
86.001282164340395
 20
235.64478090638528
 11
87.848426768069643
 21
237.49194315308938
  0
LINE
  8
_0-d_0_1
  6
CONTINUOUS
 62
    7
 10
85.906970450168032
 20
235.69190195435891
 11
87.757789561038393
 21
237.54272058839211
  0
LINE
  8
_0-d_0_1
  6
CONTINUOUS
 62
    7
 10
85.812133738284487
 20
235.73846319550881
 11
87.666696497683901
 21
237.59304312104592
  0
LINE
  8
_0-d_0_1
  6
CONTINUOUS
 62
    7
 10
85.716702410464663
 20
235.78447225922952
 11
87.5751494853548
 21
237.64292028779397
  0
LINE
  8
_0-d_0_1
  6
CONTINUOUS
 62
    7
 10
85.62071079898395
 20
235.82990530366311
 11
87.483147570376772
 21
237.69232443208108
  0
LINE
  8
_0-d_0_1
  6
CONTINUOUS
 62
    7
 10
85.524194189792055
 20
235.87478617066751
 11
87.390673586612124
 21
237.74127367371926
  0
LINE
  8
_0-d_0_1
  6
CONTINUOUS
 62
    7
 10
85.427048155551333
 20
235.91909006471047
 11
87.297726580386538
 21
237.78975942963967
  0
LINE
  8
_0-d_0_1
  6
CONTINUOUS
 62
    7
 10
85.32937664676227
 20
235.9628160321177
 11
87.204324671512026
 21
237.83777311677346
  0
LINE
  8
_0-d_0_1
  6
CONTINUOUS
 62
    7
 10
85.231110522036929
 20
236.0059650265635
 11
87.110450693850893
 21
237.88532236451516
  0
LINE
  8
_0-d_0_1
  6
CONTINUOUS
 62
    7
 10
85.132232138400454
 20
236.04852751130471
 11
87.016103693728823
 21
237.93239954347024
  0
LINE
  8
_0-d_0_1
  6
CONTINUOUS
 62
    7
 10
85.032793947940249
 20
236.0904958569468
 11
86.921284624820132
 21
237.97899511689553
  0
LINE
  8
_0-d_0_1
  6
CONTINUOUS
 62
    7
 10
84.932743021731753
 20
236.1318776928843
 11
86.825975844149966
 21
238.02512720460305
  0
LINE
  8
_0-d_0_1
  6
CONTINUOUS
 62
    7
 10
84.832097002749819
 20
236.1726548993052
 11
86.730194041018862
 21
238.07076147431741
  0
LINE
  8
_0-d_0_1
  6
CONTINUOUS
 62
    7
 10
84.730856367831606
 20
236.21282080048928
 11
86.633940169101137
 21
238.11592272157083
  0
LINE
  8
_0-d_0_1
  6
CONTINUOUS
 62
    7
 10
84.628968188052554
 20
236.25238302583108
 11
86.537196585421938
 21
238.16059378022561
  0
LINE
  8
_0-d_0_1
  6
CONTINUOUS
 62
    7
 10
84.526485392337221
 20
236.29131487244973
 11
86.439945170169253
 21
238.20476606721292
  0
LINE
  8
_0-d_0_1
  6
CONTINUOUS
 62
    7
 10
84.423389860873598
 20
236.32963446015725
 11
86.342204043155093
 21
238.24844816560159
  0
LINE
  8
_0-d_0_1
  6
CONTINUOUS
 62
    7
 10
84.319646784549136
 20
236.36731508607278
 11
86.2439727275423
 21
238.29164102906594
  0
LINE
  8
_0-d_0_1
  6
CONTINUOUS
 62
    7
 10
84.215274283175845
 20
236.40436628693948
 11
86.145251700168032
 21
238.33432558411965
  0
LINE
  8
_0-d_0_1
  6
CONTINUOUS
 62
    7
 10
84.110253760104555
 20
236.44076994294534
 11
86.046005675082583
 21
238.3765123211802
  0
LINE
  8
_0-d_0_1
  6
CONTINUOUS
 62
    7
 10
84.004586169009585
 20
236.47651747102151
 11
85.946252295260805
 21
238.41818407410989
  0
LINE
  8
_0-d_0_1
  6
CONTINUOUS
 62
    7
 10
83.898271509890932
 20
236.51161745423684
 11
85.846008726840395
 21
238.45934656495461
  0
LINE
  8
_0-d_0_1
  6
CONTINUOUS
 62
    7
 10
83.791274019961733
 20
236.54604414338479
 11
85.745222994571108
 21
238.49999216431985
  0
LINE
  8
_0-d_0_1
  6
CONTINUOUS
 62
    7
 10
83.683594176059145
 20
236.57979658479104
 11
85.643912264590639
 21
238.54011515015969
  0
LINE
  8
_0-d_0_1
  6
CONTINUOUS
 62
    7
 10
83.575266787295718
 20
236.61287573212991
 11
85.542111822848696
 21
238.57971170777688
  0
LINE
  8
_0-d_0_1
  6
CONTINUOUS
 62
    7
 10
83.466222235446352
 20
236.64526346558938
 11
85.439751097445864
 21
238.61878374452004
  0
LINE
  8
_0-d_0_1
  6
CONTINUOUS
 62
    7
 10
83.356495329623598
 20
236.67694261903176
 11
85.336865851169009
 21
238.65732172364602
  0
LINE
  8
_0-d_0_1
  6
CONTINUOUS
 62
    7
 10
83.246051022296328
 20
236.70792272920022
 11
85.233455607180971
 21
238.69531801576028
  0
LINE
  8
_0-d_0_1
  6
CONTINUOUS
 62
    7
 10
83.134889075045962
 20
236.73819330567727
 11
85.129467436557192
 21
238.73277071351418
  0
LINE
  8
_0-d_0_1
  6
CONTINUOUS
 62
    7
 10
83.023009964709658
 20
236.76772859925637
 11
85.024954745059389
 21
238.76968172425637
  0
LINE
  8
_0-d_0_1
  6
CONTINUOUS
 62
    7
 10
82.910395809893984
 20
236.79652956361184
 11
84.91989988971271
 21
238.80603388184915
  0
LINE
  8
_0-d_0_1
  6
CONTINUOUS
 62
    7
 10
82.797020622973818
 20
236.82458666200051
 11
84.814267107730288
 21
238.8418329083384
  0
LINE
  8
_0-d_0_1
  6
CONTINUOUS
 62
    7
 10
82.682910391574282
 20
236.85189226502786
 11
84.708074518924136
 21
238.87706545228372
  0
LINE
  8
_0-d_0_1
  6
CONTINUOUS
 62
    7
 10
82.568021723513979
 20
236.87842729920754
 11
84.601339766269106
 21
238.91172769898782
  0
LINE
  8
_0-d_0_1
  6
CONTINUOUS
 62
    7
 10
82.452354141955752
 20
236.90418318147073
 11
84.493992277865786
 21
238.94582155579934
  0
LINE
  8
_0-d_0_1
  6
CONTINUOUS
 62
    7
 10
82.335899302249331
 20
236.92914369935403
 11
84.386084982638735
 21
238.97933748597512
  0
LINE
  8
_0-d_0_1
  6
CONTINUOUS
 62
    7
 10
82.218630978351015
 20
236.95330789918313
 11
84.277582594638247
 21
239.0122602307261
  0
LINE
  8
_0-d_0_1
  6
CONTINUOUS
 62
    7
 10
82.100566336398501
 20
236.97665766114602
 11
84.168503233676333
 21
239.04459551209817
  0
LINE
  8
_0-d_0_1
  6
CONTINUOUS
 62
    7
 10
81.981661984210405
 20
236.99916818971047
 11
84.058811136966128
 21
239.07632616395364
  0
LINE
  8
_0-d_0_1
  6
CONTINUOUS
 62
    7
 10
81.861908861880693
 20
237.02084806794534
 11
83.948524424319643
 21
239.1074636303843
  0
LINE
  8
_0-d_0_1
  6
CONTINUOUS
 62
    7
 10
81.741315790896806
 20
237.04167059296975
 11
83.837624975924868
 21
239.13797930116067
  0
LINE
  8
_0-d_0_1
  6
CONTINUOUS
 62
    7
 10
81.619847962146196
 20
237.0616176449717
 11
83.726095625644106
 21
239.16787317628274
  0
LINE
  8
_0-d_0_1
  6
CONTINUOUS
 62
    7
 10
81.497470328097734
 20
237.0806720578135
 11
83.613954016452212
 21
239.19715669984231
  0
LINE
  8
_0-d_0_1
  6
CONTINUOUS
 62
    7
 10
81.374208876376542
 20
237.09882620210061
 11
83.501164862399477
 21
239.22578981751809
  0
LINE
  8
_0-d_0_1
  6
CONTINUOUS
 62
    7
 10
81.250028797870073
 20
237.11606958741555
 11
83.38776344943561
 21
239.25379541749368
  0
LINE
  8
_0-d_0_1
  6
CONTINUOUS
 62
    7
 10
81.124904104953202
 20
237.13236883515725
 11
83.273679682498354
 21
239.28114488953958
  0
LINE
  8
_0-d_0_1
  6
CONTINUOUS
 62
    7
 10
80.998825618510637
 20
237.14770487183938
 11
83.158965775256533
 21
239.30784586305032
  0
LINE
  8
_0-d_0_1
  6
CONTINUOUS
 62
    7
 10
80.871767350917253
 20
237.16207102174172
 11
83.043569514041323
 21
239.33388117188821
  0
LINE
  8
_0-d_0_1
  6
CONTINUOUS
 62
    7
 10
80.743711659198198
 20
237.17543867463479
 11
82.927508303408999
 21
239.35923555726418
  0
LINE
  8
_0-d_0_1
  6
CONTINUOUS
 62
    7
 10
80.614649841075334
 20
237.1877916180552
 11
82.810773560290713
 21
239.38391664857278
  0
LINE
  8
_0-d_0_1
  6
CONTINUOUS
 62
    7
 10
80.484538146739396
 20
237.19911268586526
 11
82.69332141566791
 21
239.4078958355845
  0
LINE
  8
_0-d_0_1
  6
CONTINUOUS
 62
    7
 10
80.353376695399675
 20
237.20936659211526
 11
82.575195500140566
 21
239.43118456239114
  0
LINE
  8
_0-d_0_1
  6
CONTINUOUS
 62
    7
 10
80.221130379920396
 20
237.21853521699319
 11
82.456352421527285
 21
239.45375803346047
  0
LINE
  8
_0-d_0_1
  6
CONTINUOUS
 62
    7
 10
80.087755450492295
 20
237.22659281129251
 11
82.336774298434634
 21
239.47561243409524
  0
LINE
  8
_0-d_0_1
  6
CONTINUOUS
 62
    7
 10
79.953251966720018
 20
237.2335040890635
 11
82.216487595324892
 21
239.4967401349009
  0
LINE
  8
_0-d_0_1
  6
CONTINUOUS
 62
    7
 10
79.81758482146779
 20
237.23926142091165
 11
82.095448204760928
 21
239.51712396973977
  0
LINE
  8
_0-d_0_1
  6
CONTINUOUS
 62
    7
 10
79.680719146018419
 20
237.24381903046975
 11
81.973648020511064
 21
239.53674867982278
  0
LINE
  8
_0-d_0_1
  6
CONTINUOUS
 62
    7
 10
79.542628654723558
 20
237.24714353913674
 11
81.851103970294389
 21
239.55561998719583
  0
LINE
  8
_0-d_0_1
  6
CONTINUOUS
 62
    7
 10
79.40326956797162
 20
237.24921682710061
 11
81.727755257373246
 21
239.57370355958352
  0
LINE
  8
_0-d_0_1
  6
CONTINUOUS
 62
    7
 10
79.262633165789339
 20
237.24999597901711
 11
81.603645273929033
 21
239.5910070263804
  0
LINE
  8
_0-d_0_1
  6
CONTINUOUS
 62
    7
 10
79.120666959767732
 20
237.24944475526223
 11
81.478721567874345
 21
239.60749987000833
  0
LINE
  8
_0-d_0_1
  6
CONTINUOUS
 62
    7
 10
78.977309682851228
 20
237.24752024049172
 11
81.352975556140336
 21
239.62318590516458
  0
LINE
  8
_0-d_0_1
  6
CONTINUOUS
 62
    7
 10
78.832570114617738
 20
237.24419573182473
 11
81.226415941005143
 21
239.63804033631692
  0
LINE
  8
_0-d_0_1
  6
CONTINUOUS
 62
    7
 10
78.686369487529191
 20
237.23941019410501
 11
81.099007674937639
 21
239.65204790467629
  0
LINE
  8
_0-d_0_1
  6
CONTINUOUS
 62
    7
 10
78.538655349498185
 20
237.23312834138284
 11
80.97072453189412
 21
239.6651971661509
  0
LINE
  8
_0-d_0_1
  6
CONTINUOUS
 62
    7
 10
78.389401444678697
 20
237.22528913850198
 11
80.841584035640153
 21
239.67747095460305
  0
LINE
  8
_0-d_0_1
  6
CONTINUOUS
 62
    7
 10
78.238555261378679
 20
237.21585825318704
 11
80.711559960132035
 21
239.68886354798684
  0
LINE
  8
_0-d_0_1
  6
CONTINUOUS
 62
    7
 10
78.086037942653093
 20
237.20477369660745
 11
80.580608436351213
 21
239.69934442872415
  0
LINE
  8
_0-d_0_1
  6
CONTINUOUS
 62
    7
 10
77.931814738994035
 20
237.19196489686379
 11
80.448746988063249
 21
239.7088983380259
  0
LINE
  8
_0-d_0_1
  6
CONTINUOUS
 62
    7
 10
77.775806733851823
 20
237.17738130921731
 11
80.315923282390031
 21
239.71750620240579
  0
LINE
  8
_0-d_0_1
  6
CONTINUOUS
 62
    7
 10
77.617952772860917
 20
237.16095045441995
 11
80.182163366561326
 21
239.7251622998179
  0
LINE
  8
_0-d_0_1
  6
CONTINUOUS
 62
    7
 10
77.458182880168351
 20
237.14259603852639
 11
80.047414907699022
 21
239.73182848328958
  0
LINE
  8
_0-d_0_1
  6
CONTINUOUS
 62
    7
 10
77.296391913180742
 20
237.12223795289407
 11
79.911642798667344
 21
239.73748758668313
  0
LINE
  8
_0-d_0_1
  6
CONTINUOUS
 62
    7
 10
77.132536360507402
 20
237.09979704255471
 11
79.774864622836503
 21
239.7421243512095
  0
LINE
  8
_0-d_0_1
  6
CONTINUOUS
 62
    7
 10
76.966493555789384
 20
237.07516935700784
 11
79.63704533267537
 21
239.74572161073098
  0
LINE
  8
_0-d_0_1
  6
CONTINUOUS
 62
    7
 10
76.798149773364457
 20
237.04825762147317
 11
79.49813243139306
 21
239.74824121827493
  0
LINE
  8
_0-d_0_1
  6
CONTINUOUS
 62
    7
 10
76.627435156588945
 20
237.01895788545022
 11
79.358143435304555
 21
239.74966600770364
  0
LINE
  8
_0-d_0_1
  6
CONTINUOUS
 62
    7
 10
76.454209515338334
 20
236.98714807862649
 11
79.217025855069551
 21
239.74997309083352
  0
LINE
  8
_0-d_0_1
  6
CONTINUOUS
 62
    7
 10
76.278324314837846
 20
236.952695640272
 11
79.074753427391443
 21
239.74912432069192
  0
LINE
  8
_0-d_0_1
  6
CONTINUOUS
 62
    7
 10
76.099665829425248
 20
236.91545179719338
 11
78.931317427640352
 21
239.74710253114114
  0
LINE
  8
_0-d_0_1
  6
CONTINUOUS
 62
    7
 10
75.918041416888627
 20
236.87525156373391
 11
78.786647835259828
 21
239.74386576051126
  0
LINE
  8
_0-d_0_1
  6
CONTINUOUS
 62
    7
 10
75.733302542453202
 20
236.83193567628274
 11
78.640762218718919
 21
239.73939493531594
  0
LINE
  8
_0-d_0_1
  6
CONTINUOUS
 62
    7
 10
75.545247980838212
 20
236.78529623383889
 11
78.493599185233506
 21
239.73364809388528
  0
LINE
  8
_0-d_0_1
  6
CONTINUOUS
 62
    7
 10
75.353632399325761
 20
236.73510435456643
 11
78.345115193610582
 21
239.72658708924661
  0
LINE
  8
_0-d_0_1
  6
CONTINUOUS
 62
    7
 10
75.158228823428544
 20
236.6811244809092
 11
78.195292541270646
 21
239.71818903321633
  0
LINE
  8
_0-d_0_1
  6
CONTINUOUS
 62
    7
 10
74.958765455966386
 20
236.62307718629251
 11
78.044087716823014
 21
239.70839861268411
  0
LINE
  8
_0-d_0_1
  6
CONTINUOUS
 62
    7
 10
74.754875609164628
 20
236.56061914796243
 11
77.89144797015706
 21
239.6971910321177
  0
LINE
  8
_0-d_0_1
  6
CONTINUOUS
 62
    7
 10
74.546252676730546
 20
236.49341085786233
 11
77.737347194438371
 21
239.68450525636086
  0
LINE
  8
_0-d_0_1
  6
CONTINUOUS
 62
    7
 10
74.332432696109208
 20
236.4210155331553
 11
77.581724116092118
 21
239.67029741639504
  0
LINE
  8
_0-d_0_1
  6
CONTINUOUS
 62
    7
 10
74.112908789401445
 20
236.34291532868752
 11
77.42452640224019
 21
239.65453317994485
  0
LINE
  8
_0-d_0_1
  6
CONTINUOUS
 62
    7
 10
73.88713831592122
 20
236.25855902070413
 11
77.265718766932878
 21
239.63714006776223
  0
LINE
  8
_0-d_0_1
  6
CONTINUOUS
 62
    7
 10
73.654368349795732
 20
236.16721323365579
 11
77.105222651248368
 21
239.61807611817727
  0
LINE
  8
_0-d_0_1
  6
CONTINUOUS
 62
    7
 10
73.413786360507402
 20
236.06805494660745
 11
76.943003126864824
 21
239.59727266663918
  0
LINE
  8
_0-d_0_1
  6
CONTINUOUS
 62
    7
 10
73.16434139895955
 20
235.9600255810679
 11
76.778981158023271
 21
239.57466486329446
  0
LINE
  8
_0-d_0_1
  6
CONTINUOUS
 62
    7
 10
72.904686877017411
 20
235.8418033444346
 11
76.613078305011186
 21
239.55019548768411
  0
LINE
  8
_0-d_0_1
  6
CONTINUOUS
 62
    7
 10
72.633186289554033
 20
235.7117173993052
 11
76.445242115741166
 21
239.52377298707376
  0
LINE
  8
_0-d_0_1
  6
CONTINUOUS
 62
    7
 10
72.347591826205644
 20
235.56753805512795
 11
76.27539367366353
 21
239.49534014100442
  0
LINE
  8
_0-d_0_1
  6
CONTINUOUS
 62
    7
 10
72.0448054759554
 20
235.40618494386086
 11
76.103410431628618
 21
239.46479013795266
  0
LINE
  8
_0-d_0_1
  6
CONTINUOUS
 62
    7
 10
71.720523783450517
 20
235.22331789368997
 11
75.929248759036454
 21
239.4320428692759
  0
LINE
  8
_0-d_0_1
  6
CONTINUOUS
 62
    7
 10
71.368001410251054
 20
235.01221922273049
 11
75.752786108737382
 21
239.39699533814797
  0
LINE
  8
_0-d_0_1
  6
CONTINUOUS
 62
    7
 10
70.975977846866044
 20
234.76161936158547
 11
75.573900172000322
 21
239.35954264039407
  0
LINE
  8
_0-d_0_1
  6
CONTINUOUS
 62
    7
 10
70.865936228518876
 20
234.79299238557229
 11
75.392494389300737
 21
239.31955126160989
  0
LINE
  8
_0-d_0_1
  6
CONTINUOUS
 62
    7
 10
70.786278673892411
 20
234.85475901002297
 11
75.208429285769853
 21
239.27691057557473
  0
LINE
  8
_0-d_0_1
  6
CONTINUOUS
 62
    7
 10
70.706629702334794
 20
234.91653421754251
 11
75.021564432864579
 21
239.23146799439797
  0
LINE
  8
_0-d_0_1
  6
CONTINUOUS
 62
    7
 10
70.626980730777177
 20
234.97829988831887
 11
74.831759878878984
 21
239.18307855958352
  0
LINE
  8
_0-d_0_1
  6
CONTINUOUS
 62
    7
 10
70.547323176150712
 20
235.04006651276956
 11
74.638805815463456
 21
239.13155725831399
  0
LINE
  8
_0-d_0_1
  6
CONTINUOUS
 62
    7
 10
70.467674204593095
 20
235.10184172028909
 11
74.442553469424638
 21
239.07672098512063
  0
LINE
  8
_0-d_0_1
  6
CONTINUOUS
 62
    7
 10
70.388026186709794
 20
235.16360739106545
 11
74.242775389438066
 21
239.0183580243052
  0
LINE
  8
_0-d_0_1
  6
CONTINUOUS
 62
    7
 10
70.308359095340165
 20
235.22537401551614
 11
74.039200255160722
 21
238.95621469849954
  0
LINE
  8
_0-d_0_1
  6
CONTINUOUS
 62
    7
 10
70.228711077456865
 20
235.28714063996682
 11
73.831618258242997
 21
238.89004877442727
  0
LINE
  8
_0-d_0_1
  6
CONTINUOUS
 62
    7
 10
70.149062105899247
 20
235.34891489381204
 11
73.619697043185624
 21
238.81954172486672
  0
LINE
  8
_0-d_0_1
  6
CONTINUOUS
 62
    7
 10
70.069404551272783
 20
235.41068151826272
 11
73.403068968539628
 21
238.74434641236672
  0
LINE
  8
_0-d_0_1
  6
CONTINUOUS
 62
    7
 10
69.989755579715165
 20
235.4724481427134
 11
73.181384035830888
 21
238.66407564515481
  0
LINE
  8
_0-d_0_1
  6
CONTINUOUS
 62
    7
 10
69.910106608157548
 20
235.53422335023293
 11
72.954152533297929
 21
238.57826784486184
  0
LINE
  8
_0-d_0_1
  6
CONTINUOUS
 62
    7
 10
69.830449053531083
 20
235.5959890210093
 11
72.720840403323564
 21
238.48637941712747
  0
LINE
  8
_0-d_0_1
  6
CONTINUOUS
 62
    7
 10
69.750801035647783
 20
235.65775564545999
 11
72.480843970065507
 21
238.38779810304055
  0
LINE
  8
_0-d_0_1
  6
CONTINUOUS
 62
    7
 10
69.671143481021318
 20
235.71953085297952
 11
72.233359286075029
 21
238.28174570435891
  0
LINE
  8
_0-d_0_1
  6
CONTINUOUS
 62
    7
 10
69.591494509463701
 20
235.78129652375588
 11
71.977518984561357
 21
238.16732099885354
  0
LINE
  8
_0-d_0_1
  6
CONTINUOUS
 62
    7
 10
69.511845537906083
 20
235.84306314820657
 11
71.712177702670488
 21
238.04339483613381
  0
LINE
  8
_0-d_0_1
  6
CONTINUOUS
 62
    7
 10
69.432187983279618
 20
235.9048383557261
 11
71.435882994418535
 21
237.90853289002786
  0
LINE
  8
_0-d_0_1
  6
CONTINUOUS
 62
    7
 10
69.352539011722001
 20
235.96660402650247
 11
71.146884867434892
 21
237.76094988221536
  0
LINE
  8
_0-d_0_1
  6
CONTINUOUS
 62
    7
 10
69.272890993838701
 20
236.02837065095315
 11
70.842751452212724
 21
237.59823206300149
  0
LINE
  8
_0-d_0_1
  6
CONTINUOUS
 62
    7
 10
69.193233439212236
 20
236.09014585847268
 11
70.520158716922197
 21
237.41706255311379
  0
LINE
  8
_0-d_0_1
  6
CONTINUOUS
 62
    7
 10
69.113584467654618
 20
236.15191152924905
 11
70.174425074344072
 21
237.2127521359385
  0
LINE
  8
_0-d_0_1
  6
CONTINUOUS
 62
    7
 10
69.033935496097001
 20
236.21367815369973
 11
69.798314997439775
 21
236.97805765504251
  0
LINE
  8
_0-d_0_1
  6
CONTINUOUS
 62
    7
 10
68.954277941470536
 20
236.27544477815042
 11
69.379660555606279
 21
236.70082739228616
  0
LINE
  8
_0-d_0_1
  6
CONTINUOUS
 62
    7
 10
68.874628969912919
 20
236.33721998566995
 11
68.89498800921956
 21
236.35757807130227
  0
LINE
  8
_0-d_0_1
  6
CONTINUOUS
 62
    7
 10
87.383394190554995
 20
230.38006285066018
 11
89.151152560000796
 21
232.14782980317483
  0
LINE
  8
_0-d_0_1
  6
CONTINUOUS
 62
    7
 10
87.312389323001284
 20
230.45048216218362
 11
89.080217310672182
 21
232.21830061311135
  0
LINE
  8
_0-d_0_1
  6
CONTINUOUS
 62
    7
 10
87.24077219653644
 20
230.52027967805276
 11
89.008757540469546
 21
232.28826502198586
  0
LINE
  8
_0-d_0_1
  6
CONTINUOUS
 62
    7
 10
87.168542334323305
 20
230.58947351807961
 11
88.936790415530581
 21
232.35772112244973
  0
LINE
  8
_0-d_0_1
  6
CONTINUOUS
 62
    7
 10
87.095682570224184
 20
230.65804651612649
 11
88.864333101992983
 21
232.42667940492043
  0
LINE
  8
_0-d_0_1
  6
CONTINUOUS
 62
    7
 10
87.022227713351626
 20
230.72599771851907
 11
88.791368433719057
 21
232.49512937898049
  0
LINE
  8
_0-d_0_1
  6
CONTINUOUS
 62
    7
 10
86.948143431430239
 20
230.79333666200051
 11
88.717878290896792
 21
232.56307199830422
  0
LINE
  8
_0-d_0_1
  6
CONTINUOUS
 62
    7
 10
86.873446413760561
 20
230.86006430024514
 11
88.64389891315021
 21
232.63050821656594
  0
LINE
  8
_0-d_0_1
  6
CONTINUOUS
 62
    7
 10
86.798119494204897
 20
230.92616060609231
 11
88.569395014529604
 21
232.69743612641702
  0
LINE
  8
_0-d_0_1
  6
CONTINUOUS
 62
    7
 10
86.7221803157381
 20
230.99164560670266
 11
88.49439997363605
 21
232.76385668153176
  0
LINE
  8
_0-d_0_1
  6
CONTINUOUS
 62
    7
 10
86.645628401523012
 20
231.05650881165872
 11
88.418898531680483
 21
232.82976988191018
  0
LINE
  8
_0-d_0_1
  6
CONTINUOUS
 62
    7
 10
86.568447062259096
 20
231.12075117463479
 11
88.342871615176577
 21
232.89517572755227
  0
LINE
  8
_0-d_0_1
  6
CONTINUOUS
 62
    7
 10
86.490652987246889
 20
231.18437174195657
 11
88.266337343936343
 21
232.96007421845803
  0
LINE
  8
_0-d_0_1
  6
CONTINUOUS
 62
    7
 10
86.412229010348696
 20
231.24736288422952
 11
88.189312884097475
 21
233.0244558178843
  0
LINE
  8
_0-d_0_1
  6
CONTINUOUS
 62
    7
 10
86.333175131564516
 20
231.30973318452249
 11
88.111763903384585
 21
233.0883214795054
  0
LINE
  8
_0-d_0_1
  6
CONTINUOUS
 62
    7
 10
86.25349135089435
 20
231.37147310609231
 11
88.033690401797671
 21
233.15168932313333
  0
LINE
  8
_0-d_0_1
  6
CONTINUOUS
 62
    7
 10
86.173177668338198
 20
231.43257406587014
 11
87.955126711612124
 21
233.21453169221292
  0
LINE
  8
_0-d_0_1
  6
CONTINUOUS
 62
    7
 10
86.092234083896059
 20
231.49305418366799
 11
87.876037546878237
 21
233.27685812348733
  0
LINE
  8
_0-d_0_1
  6
CONTINUOUS
 62
    7
 10
86.010643431430239
 20
231.55289629334817
 11
87.796423861270327
 21
233.3386762463511
  0
LINE
  8
_0-d_0_1
  6
CONTINUOUS
 62
    7
 10
85.928422400241274
 20
231.61208990449319
 11
87.716302820926089
 21
233.39997080201516
  0
LINE
  8
_0-d_0_1
  6
CONTINUOUS
 62
    7
 10
85.84555382419147
 20
231.67065409058938
 11
87.635656306033511
 21
233.46074846619973
  0
LINE
  8
_0-d_0_1
  6
CONTINUOUS
 62
    7
 10
85.762055823092837
 20
231.72856214875588
 11
87.554485270266909
 21
233.52100065583596
  0
LINE
  8
_0-d_0_1
  6
CONTINUOUS
 62
    7
 10
85.677892634158511
 20
231.78583219880471
 11
87.472789713626284
 21
233.58073786134133
  0
LINE
  8
_0-d_0_1
  6
CONTINUOUS
 62
    7
 10
85.593099543338198
 20
231.84245375031838
 11
87.390585848575014
 21
233.63994863862405
  0
LINE
  8
_0-d_0_1
  6
CONTINUOUS
 62
    7
 10
85.50764174151935
 20
231.89842012757668
 11
87.307857462649721
 21
233.69862726563821
  0
LINE
  8
_0-d_0_1
  6
CONTINUOUS
 62
    7
 10
85.421518751864809
 20
231.95372942323098
 11
87.224569269900698
 21
233.75678041810403
  0
LINE
  8
_0-d_0_1
  6
CONTINUOUS
 62
    7
 10
85.334748694186587
 20
232.00837400788674
 11
87.1407913653902
 21
233.81440809602151
  0
LINE
  8
_0-d_0_1
  6
CONTINUOUS
 62
    7
 10
85.247313448672671
 20
232.06235388154397
 11
87.056453177218813
 21
233.87150266999612
  0
LINE
  8
_0-d_0_1
  6
CONTINUOUS
 62
    7
 10
85.159195849185366
 20
232.11566904420266
 11
86.971589991336245
 21
233.92805460328469
  0
LINE
  8
_0-d_0_1
  6
CONTINUOUS
 62
    7
 10
85.070413538699526
 20
232.16830137605081
 11
86.886202284579653
 21
233.98408201569924
  0
LINE
  8
_0-d_0_1
  6
CONTINUOUS
 62
    7
 10
84.980966040377993
 20
232.22026041383157
 11
86.800254294162173
 21
234.0395572506846
  0
LINE
  8
_0-d_0_1
  6
CONTINUOUS
 62
    7
 10
84.890818545108218
 20
232.2715375744761
 11
86.713781306033511
 21
234.09450033540139
  0
LINE
  8
_0-d_0_1
  6
CONTINUOUS
 62
    7
 10
84.799971529727358
 20
232.32213095063577
 11
86.626748511081118
 21
234.14889124268899
  0
LINE
  8
_0-d_0_1
  6
CONTINUOUS
 62
    7
 10
84.708459326510805
 20
232.37202528352151
 11
86.539173552279848
 21
234.20273950929055
  0
LINE
  8
_0-d_0_1
  6
CONTINUOUS
 62
    7
 10
84.616212317233462
 20
232.42121961945901
 11
86.45103830981769
 21
234.2560460888804
  0
LINE
  8
_0-d_0_1
  6
CONTINUOUS
 62
    7
 10
84.523300596957583
 20
232.46970537537942
 11
86.362360903506655
 21
234.30878332490335
  0
LINE
  8
_0-d_0_1
  6
CONTINUOUS
 62
    7
 10
84.429654070620913
 20
232.51748255128274
 11
86.273123690371889
 21
234.36096933717141
  0
LINE
  8
_0-d_0_1
  6
CONTINUOUS
 62
    7
 10
84.335289904361147
 20
232.56455114716897
 11
86.183343836551089
 21
234.41260507935891
  0
LINE
  8
_0-d_0_1
  6
CONTINUOUS
 62
    7
 10
84.240208098178286
 20
232.61088446015725
 11
86.092986532931704
 21
234.46366289491067
  0
LINE
  8
_0-d_0_1
  6
CONTINUOUS
 62
    7
 10
84.144391485934634
 20
232.65649202699075
 11
86.002051779513735
 21
234.5141609036387
  0
LINE
  8
_0-d_0_1
  6
CONTINUOUS
 62
    7
 10
84.047822901492495
 20
232.70135572785745
 11
85.910574862246889
 21
234.56408956879983
  0
LINE
  8
_0-d_0_1
  6
CONTINUOUS
 62
    7
 10
83.950536677127261
 20
232.74547556275735
 11
85.818502852206606
 21
234.61344126099954
  0
LINE
  8
_0-d_0_1
  6
CONTINUOUS
 62
    7
 10
83.852480360751528
 20
232.78884294862161
 11
85.725871035342593
 21
234.66222456330667
  0
LINE
  8
_0-d_0_1
  6
CONTINUOUS
 62
    7
 10
83.753654429202456
 20
232.83144930238137
 11
85.632644125705141
 21
234.7104213559092
  0
LINE
  8
_0-d_0_1
  6
CONTINUOUS
 62
    7
 10
83.654076048617739
 20
232.8732860409678
 11
85.538822123294253
 21
234.75803259248147
  0
LINE
  8
_0-d_0_1
  6
CONTINUOUS
 62
    7
 10
83.553709933047671
 20
232.91434362763772
 11
85.444405504947085
 21
234.8050487362803
  0
LINE
  8
_0-d_0_1
  6
CONTINUOUS
 62
    7
 10
83.452556559329409
 20
232.95460584992776
 11
85.349429079776186
 21
234.85146883363137
  0
LINE
  8
_0-d_0_1
  6
CONTINUOUS
 62
    7
 10
83.350598761325259
 20
232.9940717541636
 11
85.253822752719302
 21
234.89729574555764
  0
LINE
  8
_0-d_0_1
  6
CONTINUOUS
 62
    7
 10
83.247835585360903
 20
233.03273180360208
 11
85.157621332888979
 21
234.94251802796731
  0
LINE
  8
_0-d_0_1
  6
CONTINUOUS
 62
    7
 10
83.144258925204653
 20
233.07057073945413
 11
85.06082482028522
 21
234.98712805146585
  0
LINE
  8
_0-d_0_1
  6
CONTINUOUS
 62
    7
 10
83.039851376300234
 20
233.10758665437112
 11
84.963398405795473
 21
235.03112486237893
  0
LINE
  8
_0-d_0_1
  6
CONTINUOUS
 62
    7
 10
82.934594818835635
 20
233.14375379914651
 11
84.865342566256899
 21
235.07450178498635
  0
LINE
  8
_0-d_0_1
  6
CONTINUOUS
 62
    7
 10
82.828489968066592
 20
233.17906454438577
 11
84.766691157107729
 21
235.11725691193948
  0
LINE
  8
_0-d_0_1
  6
CONTINUOUS
 62
    7
 10
82.721509882693667
 20
233.21351698274026
 11
84.667375513797182
 21
235.15938166016946
  0
LINE
  8
_0-d_0_1
  6
CONTINUOUS
 62
    7
 10
82.613663861041445
 20
233.24708536500344
 11
84.567429491763491
 21
235.20085981721292
  0
LINE
  8
_0-d_0_1
  6
CONTINUOUS
 62
    7
 10
82.504916855578799
 20
233.27976206178079
 11
84.466853567843813
 21
235.24170759553323
  0
LINE
  8
_0-d_0_1
  6
CONTINUOUS
 62
    7
 10
82.395259806399721
 20
233.31152895326028
 11
84.365630575900454
 21
235.28190019959817
  0
LINE
  8
_0-d_0_1
  6
CONTINUOUS
 62
    7
 10
82.284684130435366
 20
233.34236887330422
 11
84.263742396121401
 21
235.32143572205911
  0
LINE
  8
_0-d_0_1
  6
CONTINUOUS
 62
    7
 10
82.173172423129458
 20
233.37228086823831
 11
84.161206671481509
 21
235.36030653352151
  0
LINE
  8
_0-d_0_1
  6
CONTINUOUS
 62
    7
 10
82.060698220019717
 20
233.40123060578713
 11
84.057971426730532
 21
235.39851168031106
  0
LINE
  8
_0-d_0_1
  6
CONTINUOUS
 62
    7
 10
81.947261759524736
 20
233.42920854920754
 11
83.954088637118716
 21
235.4360359036387
  0
LINE
  8
_0-d_0_1
  6
CONTINUOUS
 62
    7
 10
81.832836577182206
 20
233.45620706910501
 11
83.849505850558657
 21
235.47287634248147
  0
LINE
  8
_0-d_0_1
  6
CONTINUOUS
 62
    7
 10
81.717387863879594
 20
233.48218229646096
 11
83.74424071002521
 21
235.50903490418801
  0
LINE
  8
_0-d_0_1
  6
CONTINUOUS
 62
    7
 10
81.600933024173173
 20
233.50714281434426
 11
83.63827557254352
 21
235.54447630280862
  0
LINE
  8
_0-d_0_1
  6
CONTINUOUS
 62
    7
 10
81.483411022906694
 20
233.53104475373635
 11
83.53157562900104
 21
235.57921770448098
  0
LINE
  8
_0-d_0_1
  6
CONTINUOUS
 62
    7
 10
81.364821383242997
 20
233.55387857789407
 11
83.424193331485171
 21
235.61324194306741
  0
LINE
  8
_0-d_0_1
  6
CONTINUOUS
 62
    7
 10
81.245129534488115
 20
233.57561090821633
 11
83.316058584933657
 21
235.64653948182473
  0
LINE
  8
_0-d_0_1
  6
CONTINUOUS
 62
    7
 10
81.124326655154618
 20
233.59623125428567
 11
83.2071976153902
 21
235.67910269135842
  0
LINE
  8
_0-d_0_1
  6
CONTINUOUS
 62
    7
 10
81.002386399989518
 20
233.615706237501
 11
83.097593018298525
 21
235.71091345185647
  0
LINE
  8
_0-d_0_1
  6
CONTINUOUS
 62
    7
 10
80.879265019183549
 20
233.63399961823831
 11
82.987227389102358
 21
235.74197080964456
  0
LINE
  8
_0-d_0_1
  6
CONTINUOUS
 62
    7
 10
80.75493628669301
 20
233.65110376710305
 11
82.876091906314272
 21
235.77225950593362
  0
LINE
  8
_0-d_0_1
  6
CONTINUOUS
 62
    7
 10
80.629391500239763
 20
233.66697386140237
 11
82.764186331515688
 21
235.80176905030618
  0
LINE
  8
_0-d_0_1
  6
CONTINUOUS
 62
    7
 10
80.502578207736406
 20
233.68158415192971
 11
82.651493498568911
 21
235.83049944276223
  0
LINE
  8
_0-d_0_1
  6
CONTINUOUS
 62
    7
 10
80.374461242442521
 20
233.69489172334085
 11
82.537995764499087
 21
235.85842588776956
  0
LINE
  8
_0-d_0_1
  6
CONTINUOUS
 62
    7
 10
80.245032021289262
 20
233.70687750214944
 11
82.423684546237368
 21
235.88552931184182
  0
LINE
  8
_0-d_0_1
  6
CONTINUOUS
 62
    7
 10
80.114211746936235
 20
233.71748045319924
 11
82.308550783877749
 21
235.91181925172219
  0
LINE
  8
_0-d_0_1
  6
CONTINUOUS
 62
    7
 10
79.981991657500657
 20
233.72668436402688
 11
82.192577072863955
 21
235.93726995820413
  0
LINE
  8
_0-d_0_1
  6
CONTINUOUS
 62
    7
 10
79.848319241290483
 20
233.73442724580178
 11
82.075754830127138
 21
235.96186235780129
  0
LINE
  8
_0-d_0_1
  6
CONTINUOUS
 62
    7
 10
79.713142076020631
 20
233.74067381257424
 11
81.958057829623613
 21
235.98558882111917
  0
LINE
  8
_0-d_0_1
  6
CONTINUOUS
 62
    7
 10
79.576416382079515
 20
233.74537161225686
 11
81.839485594516191
 21
236.00844076508889
  0
LINE
  8
_0-d_0_1
  6
CONTINUOUS
 62
    7
 10
79.438089647775087
 20
233.74845960969338
 11
81.720012614016923
 21
236.03039148682961
  0
LINE
  8
_0-d_0_1
  6
CONTINUOUS
 62
    7
 10
79.298100659137162
 20
233.74990347260842
 11
81.599620768313798
 21
236.05142382020364
  0
LINE
  8
_0-d_0_1
  6
CONTINUOUS
 62
    7
 10
79.156405658905896
 20
233.7496230923594
 11
81.478310534243974
 21
236.0715282284678
  0
LINE
  8
_0-d_0_1
  6
CONTINUOUS
 62
    7
 10
79.0129171698145
 20
233.74755838746438
 11
81.356046387439164
 21
236.09068849915872
  0
LINE
  8
_0-d_0_1
  6
CONTINUOUS
 62
    7
 10
78.867573925738725
 20
233.74363973969827
 11
81.232811280970964
 21
236.10887697572122
  0
LINE
  8
_0-d_0_1
  6
CONTINUOUS
 62
    7
 10
78.720314690356645
 20
233.73779562348733
 11
81.108605095630082
 21
236.12608602876077
  0
LINE
  8
_0-d_0_1
  6
CONTINUOUS
 62
    7
 10
78.571034559493455
 20
233.72993925446877
 11
80.983375260119828
 21
236.14227941865335
  0
LINE
  8
_0-d_0_1
  6
CONTINUOUS
 62
    7
 10
78.419654676204118
 20
233.71998289460549
 11
80.857121893649492
 21
236.15744951600442
  0
LINE
  8
_0-d_0_1
  6
CONTINUOUS
 62
    7
 10
78.266087600474748
 20
233.70783117646585
 11
80.729827353244218
 21
236.17157057160745
  0
LINE
  8
_0-d_0_1
  6
CONTINUOUS
 62
    7
 10
78.110210844760331
 20
233.69337728852639
 11
80.601447889094743
 21
236.1846235119761
  0
LINE
  8
_0-d_0_1
  6
CONTINUOUS
 62
    7
 10
77.951910683398637
 20
233.67650106782327
 11
80.471983739619645
 21
236.19657400483499
  0
LINE
  8
_0-d_0_1
  6
CONTINUOUS
 62
    7
 10
77.791073390727433
 20
233.6570880734385
 11
80.341382095103654
 21
236.20739630097756
  0
LINE
  8
_0-d_0_1
  6
CONTINUOUS
 62
    7
 10
77.627532669787797
 20
233.63497141236672
 11
80.209634491687211
 21
236.21707323426614
  0
LINE
  8
_0-d_0_1
  6
CONTINUOUS
 62
    7
 10
77.461166211848649
 20
233.61001947755227
 11
80.076714524512681
 21
236.22556761140237
  0
LINE
  8
_0-d_0_1
  6
CONTINUOUS
 62
    7
 10
77.291772553210649
 20
233.58205011720071
 11
79.942587205653581
 21
236.23286417359719
  0
LINE
  8
_0-d_0_1
  6
CONTINUOUS
 62
    7
 10
77.119168230777177
 20
233.55086878175149
 11
79.807208785300645
 21
236.23890951508889
  0
LINE
  8
_0-d_0_1
  6
CONTINUOUS
 62
    7
 10
76.943134257083329
 20
233.51625040406594
 11
79.670570590978059
 21
236.24368646973977
  0
LINE
  8
_0-d_0_1
  6
CONTINUOUS
 62
    7
 10
76.763417193179521
 20
233.47795656556497
 11
79.532611319308671
 21
236.24715116853127
  0
LINE
  8
_0-d_0_1
  6
CONTINUOUS
 62
    7
 10
76.57972807574788
 20
233.43569162721047
 11
79.393304729347619
 21
236.2492683255137
  0
LINE
  8
_0-d_0_1
  6
CONTINUOUS
 62
    7
 10
76.391769596820268
 20
233.38914850587258
 11
79.252624578753057
 21
236.25000360841165
  0
LINE
  8
_0-d_0_1
  6
CONTINUOUS
 62
    7
 10
76.199121901278886
 20
233.33793333405862
 11
79.11050089586297
 21
236.2493036114634
  0
LINE
  8
_0-d_0_1
  6
CONTINUOUS
 62
    7
 10
76.00139088321248
 20
233.2816169583262
 11
78.966916152720842
 21
236.24714258546243
  0
LINE
  8
_0-d_0_1
  6
CONTINUOUS
 62
    7
 10
75.798034617190751
 20
233.21968439454446
 11
78.821800389771852
 21
236.2434499585093
  0
LINE
  8
_0-d_0_1
  6
CONTINUOUS
 62
    7
 10
75.588440605883989
 20
233.15151384705911
 11
78.675118574386033
 21
236.23819235200295
  0
LINE
  8
_0-d_0_1
  6
CONTINUOUS
 62
    7
 10
75.371873566394243
 20
233.07636240357766
 11
78.526827046161088
 21
236.23131540650735
  0
LINE
  8
_0-d_0_1
  6
CONTINUOUS
 62
    7
 10
75.147397944217118
 20
232.99331072205911
 11
78.376838216071519
 21
236.2227504574717
  0
LINE
  8
_0-d_0_1
  6
CONTINUOUS
 62
    7
 10
74.91385836291829
 20
232.90119436616311
 11
78.225099632029924
 21
236.21243551606545
  0
LINE
  8
_0-d_0_1
  6
CONTINUOUS
 62
    7
 10
74.669784971957597
 20
232.79853609437356
 11
78.071567484622392
 21
236.20031908387551
  0
LINE
  8
_0-d_0_1
  6
CONTINUOUS
 62
    7
 10
74.413210341220292
 20
232.6833856427134
 11
77.916136929278764
 21
236.18631246919045
  0
LINE
  8
_0-d_0_1
  6
CONTINUOUS
 62
    7
 10
74.141447493319902
 20
232.55304602021585
 11
77.758755394702348
 21
236.17035463685403
  0
LINE
  8
_0-d_0_1
  6
CONTINUOUS
 62
    7
 10
73.892737337832841
 20
232.44575098389993
 11
77.599335381274614
 21
236.15234926576028
  0
LINE
  8
_0-d_0_1
  6
CONTINUOUS
 62
    7
 10
73.813079783206376
 20
232.50751760835061
 11
77.437771984820756
 21
236.13221815461526
  0
LINE
  8
_0-d_0_1
  6
CONTINUOUS
 62
    7
 10
73.733431288485917
 20
232.56929281587014
 11
77.273986408000383
 21
236.10984781617532
  0
LINE
  8
_0-d_0_1
  6
CONTINUOUS
 62
    7
 10
73.653773733859452
 20
232.63105848664651
 11
77.107864805941972
 21
236.08515051240335
  0
LINE
  8
_0-d_0_1
  6
CONTINUOUS
 62
    7
 10
73.574116179232988
 20
232.69282511109719
 11
76.939284750705156
 21
236.05799368256936
  0
LINE
  8
_0-d_0_1
  6
CONTINUOUS
 62
    7
 10
73.49446720767537
 20
232.75459173554788
 11
76.768132874255571
 21
236.0282571637095
  0
LINE
  8
_0-d_0_1
  6
CONTINUOUS
 62
    7
 10
73.414818712954911
 20
232.81636694306741
 11
76.594251105075273
 21
235.99579885835061
  0
LINE
  8
_0-d_0_1
  6
CONTINUOUS
 62
    7
 10
73.335161158328447
 20
232.87813261384377
 11
76.417499729876909
 21
235.96047190064797
  0
LINE
  8
_0-d_0_1
  6
CONTINUOUS
 62
    7
 10
73.255512186770829
 20
232.93989923829446
 11
76.237703987841996
 21
235.92209032410989
  0
LINE
  8
_0-d_0_1
  6
CONTINUOUS
 62
    7
 10
73.17586369205037
 20
233.00167444581399
 11
76.054662176852617
 21
235.88047293061624
  0
LINE
  8
_0-d_0_1
  6
CONTINUOUS
 62
    7
 10
73.096206137423906
 20
233.06344011659036
 11
75.868173548465165
 21
235.83540800446877
  0
LINE
  8
_0-d_0_1
  6
CONTINUOUS
 62
    7
 10
73.016557165866288
 20
233.12520674104104
 11
75.678001591449174
 21
235.78665140504251
  0
LINE
  8
_0-d_0_1
  6
CONTINUOUS
 62
    7
 10
72.936899611239824
 20
233.18698194856057
 11
75.483848997836503
 21
235.73392179841409
  0
LINE
  8
_0-d_0_1
  6
CONTINUOUS
 62
    7
 10
72.857251116519365
 20
233.24874761933694
 11
75.285427042727861
 21
235.67692449921975
  0
LINE
  8
_0-d_0_1
  6
CONTINUOUS
 62
    7
 10
72.777602144961747
 20
233.31051424378762
 11
75.082368323092851
 21
235.61528852815042
  0
LINE
  8
_0-d_0_1
  6
CONTINUOUS
 62
    7
 10
72.697944590335283
 20
233.37228945130715
 11
74.874261328463945
 21
235.54860571259866
  0
LINE
  8
_0-d_0_1
  6
CONTINUOUS
 62
    7
 10
72.618296095614824
 20
233.43405607575784
 11
74.660651633029374
 21
235.47641065949807
  0
LINE
  8
_0-d_0_1
  6
CONTINUOUS
 62
    7
 10
72.538638540988359
 20
233.4958217465342
 11
74.440935084109697
 21
235.3981187664927
  0
LINE
  8
_0-d_0_1
  6
CONTINUOUS
 62
    7
 10
72.458989569430742
 20
233.55759695405374
 11
74.214438387637529
 21
235.31304529542336
  0
LINE
  8
_0-d_0_1
  6
CONTINUOUS
 62
    7
 10
72.379341074710283
 20
233.61936357850442
 11
73.980365225558671
 21
235.22038725251565
  0
LINE
  8
_0-d_0_1
  6
CONTINUOUS
 62
    7
 10
72.299683520083818
 20
233.68112924928079
 11
73.737682768588456
 21
235.11912897462258
  0
LINE
  8
_0-d_0_1
  6
CONTINUOUS
 62
    7
 10
72.220034548526201
 20
233.74290445680032
 11
73.485115000491533
 21
235.00798490876565
  0
LINE
  8
_0-d_0_1
  6
CONTINUOUS
 62
    7
 10
72.140386053805742
 20
233.804671081251
 11
73.221059748416337
 21
234.88534429902444
  0
LINE
  8
_0-d_0_1
  6
CONTINUOUS
 62
    7
 10
72.060728499179277
 20
233.86643675202737
 11
72.943321177249345
 21
234.74903849000344
  0
LINE
  8
_0-d_0_1
  6
CONTINUOUS
 62
    7
 10
71.98107952762166
 20
233.9282119595469
 11
72.648986765628251
 21
234.59611872071633
  0
LINE
  8
_0-d_0_1
  6
CONTINUOUS
 62
    7
 10
71.901421972995195
 20
233.98997858399758
 11
72.333803602939042
 21
234.42236021394143
  0
LINE
  8
_0-d_0_1
  6
CONTINUOUS
 62
    7
 10
71.821773478274736
 20
234.05175379151711
 11
71.991280981784257
 21
234.22126081818948
  0
LINE
  8
_0-d_0_1
  6
CONTINUOUS
 62
    7
 10
89.150714823489565
 20
232.14740064973245
 11
91.626020380740542
 21
234.62271574372659
  0
LINE
  8
_0-d_0_1
  6
CONTINUOUS
 62
    7
 10
89.09893984485187
 20
232.23705843324075
 11
91.555120417361636
 21
234.69323900575051
  0
LINE
  8
_0-d_0_1
  6
CONTINUOUS
 62
    7
 10
89.04718203235187
 20
232.32671526307473
 11
91.483818003421206
 21
234.76334265107522
  0
LINE
  8
_0-d_0_1
  6
CONTINUOUS
 62
    7
 10
88.99542421985187
 20
232.41638162965188
 11
91.412095972781557
 21
234.83306196565042
  0
LINE
  8
_0-d_0_1
  6
CONTINUOUS
 62
    7
 10
88.943649241214175
 20
232.50602987641702
 11
91.339988657718081
 21
234.90236070985208
  0
LINE
  8
_0-d_0_1
  6
CONTINUOUS
 62
    7
 10
88.891891428714175
 20
232.59568765992532
 11
91.267478892093081
 21
234.97126654023538
  0
LINE
  8
_0-d_0_1
  6
CONTINUOUS
 62
    7
 10
88.840116450076479
 20
232.68535402650247
 11
91.194548556094546
 21
235.03976896638284
  0
LINE
  8
_0-d_0_1
  6
CONTINUOUS
 62
    7
 10
88.788358637576479
 20
232.7750022732676
 11
91.121199557071108
 21
235.10785177583108
  0
LINE
  8
_0-d_0_1
  6
CONTINUOUS
 62
    7
 10
88.736600825076479
 20
232.8646600567759
 11
91.047482439761538
 21
235.17554071778665
  0
LINE
  8
_0-d_0_1
  6
CONTINUOUS
 62
    7
 10
88.684843012576479
 20
232.95432546967874
 11
90.973345705752749
 21
235.24282816285501
  0
LINE
  8
_0-d_0_1
  6
CONTINUOUS
 62
    7
 10
88.633068033938784
 20
233.04397467011819
 11
90.898788401370425
 21
235.30969503754983
  0
LINE
  8
_0-d_0_1
  6
CONTINUOUS
 62
    7
 10
88.581310221438784
 20
233.13363149995217
 11
90.823846766238589
 21
235.37616804475198
  0
LINE
  8
_0-d_0_1
  6
CONTINUOUS
 62
    7
 10
88.529535242801089
 20
233.22329786652932
 11
90.748467394595522
 21
235.44223001832376
  0
LINE
  8
_0-d_0_1
  6
CONTINUOUS
 62
    7
 10
88.477777430301089
 20
233.31294611329446
 11
90.672719904666323
 21
235.50788954133401
  0
LINE
  8
_0-d_0_1
  6
CONTINUOUS
 62
    7
 10
88.426019617801089
 20
233.40261247987161
 11
90.59653563190021
 21
235.57313707703958
  0
LINE
  8
_0-d_0_1
  6
CONTINUOUS
 62
    7
 10
88.374261805301089
 20
233.49227026337991
 11
90.519948908572573
 21
235.63797453278909
  0
LINE
  8
_0-d_0_1
  6
CONTINUOUS
 62
    7
 10
88.322486826663393
 20
233.58191851014504
 11
90.442977854495425
 21
235.70240953797708
  0
LINE
  8
_0-d_0_1
  6
CONTINUOUS
 62
    7
 10
88.270711848025698
 20
233.67158487672219
 11
90.365568110232729
 21
235.76643255586038
  0
LINE
  8
_0-d_0_1
  6
CONTINUOUS
 62
    7
 10
88.218954035525698
 20
233.76124170655618
 11
90.287756869082827
 21
235.83004454011331
  0
LINE
  8
_0-d_0_1
  6
CONTINUOUS
 62
    7
 10
88.167196223025698
 20
233.85089090699563
 11
90.209543177371401
 21
235.89324644441018
  0
LINE
  8
_0-d_0_1
  6
CONTINUOUS
 62
    7
 10
88.115438410525698
 20
233.94055631989846
 11
90.13090891528644
 21
235.95604494447122
  0
LINE
  8
_0-d_0_1
  6
CONTINUOUS
 62
    7
 10
88.063663431888003
 20
234.03021410340676
 11
89.977158495669741
 21
235.94370058411965
  0
LINE
  8
_0-d_0_1
  6
CONTINUOUS
 62
    7
 10
88.011905619388003
 20
234.1198623501719
 11
89.80340761828937
 21
235.91136434907327
  0
LINE
  8
_0-d_0_1
  6
CONTINUOUS
 62
    7
 10
87.960130640750307
 20
234.20952871674905
 11
89.629639574771304
 21
235.87902048463235
  0
LINE
  8
_0-d_0_1
  6
CONTINUOUS
 62
    7
 10
87.908372828250307
 20
234.29918554658303
 11
89.455889651065249
 21
235.84669378632913
  0
LINE
  8
_0-d_0_1
  6
CONTINUOUS
 62
    7
 10
87.856615015750307
 20
234.38884333009133
 11
89.282103487735171
 21
235.81434992188821
  0
LINE
  8
_0-d_0_1
  6
CONTINUOUS
 62
    7
 10
87.804857203250307
 20
234.47850111359963
 11
89.108353564029116
 21
235.78201464051614
  0
LINE
  8
_0-d_0_1
  6
CONTINUOUS
 62
    7
 10
87.753082224612612
 20
234.56815794343362
 11
88.934602686648745
 21
235.74967840546975
  0
LINE
  8
_0-d_0_1
  6
CONTINUOUS
 62
    7
 10
87.701324412112612
 20
234.65782431001077
 11
88.76085276294269
 21
235.71734312409768
  0
LINE
  8
_0-d_0_1
  6
CONTINUOUS
 62
    7
 10
87.649549433474917
 20
234.7474725567759
 11
88.587101885562319
 21
235.68500784272561
  0
LINE
  8
_0-d_0_1
  6
CONTINUOUS
 62
    7
 10
87.597791620974917
 20
234.8371303402842
 11
88.413333842044253
 21
235.65267256135354
  0
LINE
  8
_0-d_0_1
  6
CONTINUOUS
 62
    7
 10
87.546033808474917
 20
234.92679575318704
 11
88.239565798526186
 21
235.62033727998147
  0
LINE
  8
_0-d_0_1
  6
CONTINUOUS
 62
    7
 10
87.494275995974917
 20
235.01644495362649
 11
88.065815874820132
 21
235.5880019986094
  0
LINE
  8
_0-d_0_1
  6
CONTINUOUS
 62
    7
 10
87.442501017337221
 20
235.10610178346047
 11
87.892064997439761
 21
235.55566576356301
  0
LINE
  8
_0-d_0_1
  6
CONTINUOUS
 62
    7
 10
87.390743204837221
 20
235.19576815003762
 11
87.718296953921694
 21
235.5233218991221
  0
LINE
  8
_0-d_0_1
  6
CONTINUOUS
 62
    7
 10
87.338968226199526
 20
235.28541639680276
 11
87.544547030215639
 21
235.49098661775002
  0
LINE
  8
_0-d_0_1
  6
CONTINUOUS
 62
    7
 10
87.287210413699526
 20
235.37508276337991
 11
87.370778986697573
 21
235.45865133637795
  0
LINE
  8
_0-d_0_1
  6
CONTINUOUS
 62
    7
 10
90.750006624942202
 20
222.25000170106301
 11
96.720304438357729
 21
222.25000170106301
  0
LINE
  8
_0-d_0_1
  6
CONTINUOUS
 62
    7
 10
95.493726679568667
 20
222.25000170106301
 11
96.707845637088198
 21
223.46410277718911
  0
LINE
  8
_0-d_0_1
  6
CONTINUOUS
 62
    7
 10
88.364340731387514
 20
229.26274946565042
 11
92.630466410403628
 21
233.52887514466653
  0
LINE
  8
_0-d_0_1
  6
CONTINUOUS
 62
    7
 10
96.625064799075503
 20
222.25000170106301
 11
96.749559351687807
 21
222.37450538063655
  0
LINE
  8
_0-d_0_1
  6
CONTINUOUS
 62
    7
 10
96.483632990603823
 20
222.25000170106301
 11
96.748002955203432
 21
222.51437187427888
  0
LINE
  8
_0-d_0_1
  6
CONTINUOUS
 62
    7
 10
96.342218348269839
 20
222.25000170106301
 11
96.745361277346987
 21
222.6531448089541
  0
LINE
  8
_0-d_0_1
  6
CONTINUOUS
 62
    7
 10
96.200801798587221
 20
222.25000170106301
 11
96.741634318118471
 21
222.790850373453
  0
LINE
  8
_0-d_0_1
  6
CONTINUOUS
 62
    7
 10
96.059369990115542
 20
222.25000170106301
 11
96.7368926494173
 21
222.92751482362161
  0
LINE
  8
_0-d_0_1
  6
CONTINUOUS
 62
    7
 10
95.917938181643862
 20
222.25000170106301
 11
96.731100031619448
 21
223.06315568322549
  0
LINE
  8
_0-d_0_1
  6
CONTINUOUS
 62
    7
 10
95.776521631961245
 20
222.25000170106301
 11
96.724311777835268
 21
223.19779041642556
  0
LINE
  8
_0-d_0_1
  6
CONTINUOUS
 62
    7
 10
95.635106989627261
 20
222.25000170106301
 11
96.716560312991518
 21
223.33145407075295
  0
LINE
  8
_0-d_0_1
  6
CONTINUOUS
 62
    7
 10
95.493675181155581
 20
222.25000170106301
 11
96.707828470950503
 21
223.4641553484858
  0
LINE
  8
_0-d_0_1
  6
CONTINUOUS
 62
    7
 10
95.352260538821596
 20
222.25000170106301
 11
96.69816965747394
 21
223.59591177338967
  0
LINE
  8
_0-d_0_1
  6
CONTINUOUS
 62
    7
 10
95.210826823001284
 20
222.25000170106301
 11
96.687583872561831
 21
223.72674957150826
  0
LINE
  8
_0-d_0_1
  6
CONTINUOUS
 62
    7
 10
95.0694121806673
 20
222.25000170106301
 11
96.67608828235187
 21
223.85667744511971
  0
LINE
  8
_0-d_0_1
  6
CONTINUOUS
 62
    7
 10
94.927996584658999
 20
222.25000170106301
 11
96.663700052981753
 21
223.98572173947701
  0
LINE
  8
_0-d_0_1
  6
CONTINUOUS
 62
    7
 10
94.786564776187319
 20
222.25000170106301
 11
96.65045351672687
 21
224.1138911568583
  0
LINE
  8
_0-d_0_1
  6
CONTINUOUS
 62
    7
 10
94.645149180179018
 20
222.25000170106301
 11
96.636350580935854
 21
224.24120310181985
  0
LINE
  8
_0-d_0_1
  6
CONTINUOUS
 62
    7
 10
94.503717371707339
 20
222.25000170106301
 11
96.621391245608706
 21
224.3676753365458
  0
LINE
  8
_0-d_0_1
  6
CONTINUOUS
 62
    7
 10
94.362301775699038
 20
222.25000170106301
 11
96.605607935672182
 21
224.49331620568643
  0
LINE
  8
_0-d_0_1
  6
CONTINUOUS
 62
    7
 10
94.220887133365054
 20
222.25000170106301
 11
96.589036890750307
 21
224.61815241212258
  0
LINE
  8
_0-d_0_1
  6
CONTINUOUS
 62
    7
 10
94.079454371219057
 20
222.25000170106301
 11
96.571645685916323
 21
224.74218371743569
  0
LINE
  8
_0-d_0_1
  6
CONTINUOUS
 62
    7
 10
93.938039728885073
 20
222.25000170106301
 11
96.553464838748354
 21
224.8654187046946
  0
LINE
  8
_0-d_0_1
  6
CONTINUOUS
 62
    7
 10
93.796606966739077
 20
222.25000170106301
 11
96.534498163943667
 21
224.98788407678018
  0
LINE
  8
_0-d_0_1
  6
CONTINUOUS
 62
    7
 10
93.655191370730776
 20
222.25000170106301
 11
96.514795252566714
 21
225.10959676141152
  0
LINE
  8
_0-d_0_1
  6
CONTINUOUS
 62
    7
 10
93.513776728396792
 20
222.25000170106301
 11
96.494306513553042
 21
225.23054841393838
  0
LINE
  8
_0-d_0_1
  6
CONTINUOUS
 62
    7
 10
93.372343966250796
 20
222.25000170106301
 11
96.4730987041048
 21
225.35075643891702
  0
LINE
  8
_0-d_0_1
  6
CONTINUOUS
 62
    7
 10
93.2309112041048
 20
222.25000170106301
 11
96.451156565432925
 21
225.47024706239114
  0
LINE
  8
_0-d_0_1
  6
CONTINUOUS
 62
    7
 10
93.089496561770815
 20
222.25000170106301
 11
96.428514429812807
 21
225.58900287980447
  0
LINE
  8
_0-d_0_1
  6
CONTINUOUS
 62
    7
 10
92.948081919436831
 20
222.25000170106301
 11
96.405137964969057
 21
225.70705870026956
  0
LINE
  8
_0-d_0_1
  6
CONTINUOUS
 62
    7
 10
92.80666632342853
 20
222.25000170106301
 11
96.381061503177065
 21
225.82440594071755
  0
LINE
  8
_0-d_0_1
  6
CONTINUOUS
 62
    7
 10
92.665251681094546
 20
222.25000170106301
 11
96.356321284060854
 21
225.94107082719216
  0
LINE
  8
_0-d_0_1
  6
CONTINUOUS
 62
    7
 10
92.52381891894855
 20
222.25000170106301
 11
96.330879160647768
 21
226.05705312127481
  0
LINE
  8
_0-d_0_1
  6
CONTINUOUS
 62
    7
 10
92.382404276614565
 20
222.25000170106301
 11
96.304773279910464
 21
226.17236188287148
  0
LINE
  8
_0-d_0_1
  6
CONTINUOUS
 62
    7
 10
92.240971514468569
 20
222.25000170106301
 11
96.277984568362612
 21
226.2870142781199
  0
LINE
  8
_0-d_0_1
  6
CONTINUOUS
 62
    7
 10
92.099555918460268
 20
222.25000170106301
 11
96.2505645244173
 21
226.4010107838572
  0
LINE
  8
_0-d_0_1
  6
CONTINUOUS
 62
    7
 10
91.958141276126284
 20
222.25000170106301
 11
96.222482630496401
 21
226.51435116166482
  0
LINE
  8
_0-d_0_1
  6
CONTINUOUS
 62
    7
 10
91.8167266337923
 20
222.25000170106301
 11
96.193767496829409
 21
226.62705257768044
  0
LINE
  8
_0-d_0_1
  6
CONTINUOUS
 62
    7
 10
91.675293871646304
 20
222.25000170106301
 11
96.164424845462221
 21
226.73913315171609
  0
LINE
  8
_0-d_0_1
  6
CONTINUOUS
 62
    7
 10
91.533878275638003
 20
222.25000170106301
 11
96.134450861697573
 21
226.85057476395974
  0
LINE
  8
_0-d_0_1
  6
CONTINUOUS
 62
    7
 10
91.392446467166323
 20
222.25000170106301
 11
96.103849360232729
 21
226.96140411729226
  0
LINE
  8
_0-d_0_1
  6
CONTINUOUS
 62
    7
 10
91.251030871158022
 20
222.25000170106301
 11
96.072650858645815
 21
227.07162121171365
  0
LINE
  8
_0-d_0_1
  6
CONTINUOUS
 62
    7
 10
91.109616228824038
 20
222.25000170106301
 11
96.040857264285464
 21
227.1812432133616
  0
LINE
  8
_0-d_0_1
  6
CONTINUOUS
 62
    7
 10
90.968200632815737
 20
222.25000170106301
 11
96.008451411013979
 21
227.29026153916726
  0
LINE
  8
_0-d_0_1
  6
CONTINUOUS
 62
    7
 10
90.826785990481753
 20
222.25000170106301
 11
95.97545237231769
 21
227.39868477219949
  0
LINE
  8
_0-d_0_1
  6
CONTINUOUS
 62
    7
 10
90.749813982730288
 20
222.31447135145078
 11
95.941873499637026
 21
227.50653103227029
  0
LINE
  8
_0-d_0_1
  6
CONTINUOUS
 62
    7
 10
90.748187014346499
 20
222.45425911480794
 11
95.907718607669253
 21
227.6137907826365
  0
LINE
  8
_0-d_0_1
  6
CONTINUOUS
 62
    7
 10
90.744897791629214
 20
222.59239337081323
 11
95.873002955203432
 21
227.72048214311013
  0
LINE
  8
_0-d_0_1
  6
CONTINUOUS
 62
    7
 10
90.740033098941225
 20
222.72893536323915
 11
95.837694117312807
 21
227.82660463685403
  0
LINE
  8
_0-d_0_1
  6
CONTINUOUS
 62
    7
 10
90.73359388995685
 20
222.86393752927194
 11
95.801824518924136
 21
227.93216732377419
  0
LINE
  8
_0-d_0_1
  6
CONTINUOUS
 62
    7
 10
90.725685068850893
 20
222.99743494624505
 11
95.765411326175112
 21
228.03716114396462
  0
LINE
  8
_0-d_0_1
  6
CONTINUOUS
 62
    7
 10
90.71632380176105
 20
223.12949756020913
 11
95.728439280276675
 21
228.14161280030618
  0
LINE
  8
_0-d_0_1
  6
CONTINUOUS
 62
    7
 10
90.705545374637026
 20
223.2601428353251
 11
95.690923640017886
 21
228.24551275605569
  0
LINE
  8
_0-d_0_1
  6
CONTINUOUS
 62
    7
 10
90.693419405703921
 20
223.38942340249429
 11
95.652849146609682
 21
228.34887102479348
  0
LINE
  8
_0-d_0_1
  6
CONTINUOUS
 62
    7
 10
90.67994684863605
 20
223.51738277310739
 11
95.614250132327456
 21
228.45169523591409
  0
LINE
  8
_0-d_0_1
  6
CONTINUOUS
 62
    7
 10
90.665196367984194
 20
223.64404741162667
 11
95.575126597171206
 21
228.55397680634866
  0
LINE
  8
_0-d_0_1
  6
CONTINUOUS
 62
    7
 10
90.649186083560366
 20
223.76945224637399
 11
95.535459467654604
 21
228.65574243897805
  0
LINE
  8
_0-d_0_1
  6
CONTINUOUS
 62
    7
 10
90.631933161502261
 20
223.89363220567117
 11
95.495284983401675
 21
228.75698307389627
  0
LINE
  8
_0-d_0_1
  6
CONTINUOUS
 62
    7
 10
90.613491007571596
 20
224.0166136347712
 11
95.454566904788393
 21
228.85769012803445
  0
LINE
  8
_0-d_0_1
  6
CONTINUOUS
 62
    7
 10
90.593893954043764
 20
224.13843146199594
 11
95.413360544925112
 21
228.95789888734231
  0
LINE
  8
_0-d_0_1
  6
CONTINUOUS
 62
    7
 10
90.573142000918764
 20
224.25910309190164
 11
95.371612498050112
 21
229.05758217210183
  0
LINE
  8
_0-d_0_1
  6
CONTINUOUS
 62
    7
 10
90.551269480471987
 20
224.37865498895059
 11
95.329389521365542
 21
229.15676668519387
  0
LINE
  8
_0-d_0_1
  6
CONTINUOUS
 62
    7
 10
90.528312632327456
 20
224.49712208146462
 11
95.286643931155581
 21
229.25544432038674
  0
LINE
  8
_0-d_0_1
  6
CONTINUOUS
 62
    7
 10
90.504288622622866
 20
224.6145129525126
 11
95.243390032534975
 21
229.35361412400613
  0
LINE
  8
_0-d_0_1
  6
CONTINUOUS
 62
    7
 10
90.479214617495913
 20
224.73085406655679
 11
95.199645945315737
 21
229.45129421586404
  0
LINE
  8
_0-d_0_1
  6
CONTINUOUS
 62
    7
 10
90.453108736758608
 20
224.84618023270974
 11
95.155412623172182
 21
229.54847505921731
  0
LINE
  8
_0-d_0_1
  6
CONTINUOUS
 62
    7
 10
90.426022478824038
 20
224.96049168939004
 11
95.110689112429995
 21
229.64516666764627
  0
LINE
  8
_0-d_0_1
  6
CONTINUOUS
 62
    7
 10
90.397921511416811
 20
225.07382324571023
 11
95.065475413089175
 21
229.74137667054543
  0
LINE
  8
_0-d_0_1
  6
CONTINUOUS
 62
    7
 10
90.368840166812319
 20
225.18617466325173
 11
95.019788691287417
 21
229.83710602158914
  0
LINE
  8
_0-d_0_1
  6
CONTINUOUS
 62
    7
 10
90.33883185077228
 20
225.29757288331399
 11
94.973595568423647
 21
229.93234470719705
  0
LINE
  8
_0-d_0_1
  6
CONTINUOUS
 62
    7
 10
90.307879397158999
 20
225.40804341668496
 11
94.926947542910952
 21
230.02711132401834
  0
LINE
  8
_0-d_0_1
  6
CONTINUOUS
 62
    7
 10
90.275999018435854
 20
225.51759556168923
 11
94.879808375125307
 21
230.121396812147
  0
LINE
  8
_0-d_0_1
  6
CONTINUOUS
 62
    7
 10
90.243226000552554
 20
225.62622884148965
 11
94.832215258365054
 21
230.21521881455789
  0
LINE
  8
_0-d_0_1
  6
CONTINUOUS
 62
    7
 10
90.209560343509096
 20
225.73398736352334
 11
94.784131953006167
 21
230.30856779450784
  0
LINE
  8
_0-d_0_1
  6
CONTINUOUS
 62
    7
 10
90.1750030009798
 20
225.84085372323403
 11
94.735593744998354
 21
230.40145376557717
  0
LINE
  8
_0-d_0_1
  6
CONTINUOUS
 62
    7
 10
90.139588305240054
 20
225.9468624913157
 11
94.686601588015932
 21
230.49386671418557
  0
LINE
  8
_0-d_0_1
  6
CONTINUOUS
 62
    7
 10
90.103315302615542
 20
226.05201390618691
 11
94.637135454898257
 21
230.58582476014504
  0
LINE
  8
_0-d_0_1
  6
CONTINUOUS
 62
    7
 10
90.066221186404604
 20
226.15632537240396
 11
94.587215372805971
 21
230.67731932038674
  0
LINE
  8
_0-d_0_1
  6
CONTINUOUS
 62
    7
 10
90.028285929446596
 20
226.25981453294168
 11
94.536839434390444
 21
230.76836851472268
  0
LINE
  8
_0-d_0_1
  6
CONTINUOUS
 62
    7
 10
89.989529558902163
 20
226.36248138780007
 11
94.486009547000307
 21
230.85895326966653
  0
LINE
  8
_0-d_0_1
  6
CONTINUOUS
 62
    7
 10
89.949967333560366
 20
226.46434334153543
 11
94.434723803286929
 21
230.9490917050303
  0
LINE
  8
_0-d_0_1
  6
CONTINUOUS
 62
    7
 10
89.909600207095522
 20
226.56539991731057
 11
94.38298411059894
 21
231.03878382081399
  0
LINE
  8
_0-d_0_1
  6
CONTINUOUS
 62
    7
 10
89.868463465457339
 20
226.66567829484353
 11
94.330806681399721
 21
231.12802103394876
  0
LINE
  8
_0-d_0_1
  6
CONTINUOUS
 62
    7
 10
89.82653994250812
 20
226.7651694142283
 11
94.278173395877261
 21
231.21681192750344
  0
LINE
  8
_0-d_0_1
  6
CONTINUOUS
 62
    7
 10
89.783845850711245
 20
226.86389902467141
 11
94.225121447329897
 21
231.30516603822122
  0
LINE
  8
_0-d_0_1
  6
CONTINUOUS
 62
    7
 10
89.740399309878725
 20
226.96186807984719
 11
94.171596476321596
 21
231.39307382935891
  0
LINE
  8
_0-d_0_1
  6
CONTINUOUS
 62
    7
 10
89.696183153872866
 20
227.05907562608132
 11
94.117651888614077
 21
231.48054388398538
  0
LINE
  8
_0-d_0_1
  6
CONTINUOUS
 62
    7
 10
89.651231714969057
 20
227.15554788941751
 11
94.063269564395327
 21
231.56757620210061
  0
LINE
  8
_0-d_0_1
  6
CONTINUOUS
 62
    7
 10
89.605545946841616
 20
227.25127724046121
 11
94.008431383853335
 21
231.65417173737893
  0
LINE
  8
_0-d_0_1
  6
CONTINUOUS
 62
    7
 10
89.559124895816225
 20
227.34627989167581
 11
93.95317454028644
 21
231.74033811921487
  0
LINE
  8
_0-d_0_1
  6
CONTINUOUS
 62
    7
 10
89.511986681704897
 20
227.44055679673562
 11
93.897497126346011
 21
231.82606771821389
  0
LINE
  8
_0-d_0_1
  6
CONTINUOUS
 62
    7
 10
89.46411318469562
 20
227.53410700196633
 11
93.841365763430971
 21
231.91135958070168
  0
LINE
  8
_0-d_0_1
  6
CONTINUOUS
 62
    7
 10
89.4155396907381
 20
227.62696674699197
 11
93.784813830142397
 21
231.99623087281594
  0
LINE
  8
_0-d_0_1
  6
CONTINUOUS
 62
    7
 10
89.366267153506655
 20
227.71910837525735
 11
93.727841326480288
 21
232.08068254823098
  0
LINE
  8
_0-d_0_1
  6
CONTINUOUS
 62
    7
 10
89.316293665652651
 20
227.81055048341165
 11
93.670432039981264
 21
232.16468885774026
  0
LINE
  8
_0-d_0_1
  6
CONTINUOUS
 62
    7
 10
89.265621134524721
 20
227.90131023759255
 11
93.612603136783022
 21
232.24828317994485
  0
LINE
  8
_0-d_0_1
  6
CONTINUOUS
 62
    7
 10
89.214265772586245
 20
227.99136999482522
 11
93.554335543399233
 21
232.33144834870706
  0
LINE
  8
_0-d_0_1
  6
CONTINUOUS
 62
    7
 10
89.162228533511538
 20
228.0807473980845
 11
93.495666453128237
 21
232.41419485444436
  0
LINE
  8
_0-d_0_1
  6
CONTINUOUS
 62
    7
 10
89.109508463626284
 20
228.16946009034524
 11
93.436577746158022
 21
232.49652078980813
  0
LINE
  8
_0-d_0_1
  6
CONTINUOUS
 62
    7
 10
89.056123682742495
 20
228.25748995179543
 11
93.377051302676577
 21
232.57841757172952
  0
LINE
  8
_0-d_0_1
  6
CONTINUOUS
 62
    7
 10
89.002073237185854
 20
228.34484651917825
 11
93.317121454959292
 21
232.65990332002053
  0
LINE
  8
_0-d_0_1
  6
CONTINUOUS
 62
    7
 10
88.947340914492983
 20
228.43154648179421
 11
93.256772944217104
 21
232.74096945161233
  0
LINE
  8
_0-d_0_1
  6
CONTINUOUS
 62
    7
 10
88.891961046939272
 20
228.5175822102488
 11
93.195986696963686
 21
232.82161596650491
  0
LINE
  8
_0-d_0_1
  6
CONTINUOUS
 62
    7
 10
88.835916468387026
 20
228.60296133393655
 11
93.13481516528644
 21
232.90185907716165
  0
LINE
  8
_0-d_0_1
  6
CONTINUOUS
 62
    7
 10
88.779225298648257
 20
228.68769291276345
 11
93.073205897097964
 21
232.98167398805032
  0
LINE
  8
_0-d_0_1
  6
CONTINUOUS
 62
    7
 10
88.721885630374331
 20
228.77176884049783
 11
93.01119513202228
 21
233.06107786530862
  0
LINE
  8
_0-d_0_1
  6
CONTINUOUS
 62
    7
 10
88.66388125110187
 20
228.8551967465342
 11
92.948780962710757
 21
233.1400792920054
  0
LINE
  8
_0-d_0_1
  6
CONTINUOUS
 62
    7
 10
88.605264612918276
 20
228.93798664445291
 11
92.885930010562319
 21
233.21866110200295
  0
LINE
  8
_0-d_0_1
  6
CONTINUOUS
 62
    7
 10
88.545983263736147
 20
229.02012852067361
 11
92.822676607852358
 21
233.29682234162698
  0
LINE
  8
_0-d_0_1
  6
CONTINUOUS
 62
    7
 10
88.486071535830874
 20
229.10164097184548
 11
92.759020754580874
 21
233.37459066743264
  0
LINE
  8
_0-d_0_1
  6
CONTINUOUS
 62
    7
 10
88.425529429202456
 20
229.18251446122537
 11
92.694962450747866
 21
233.45193842286477
  0
LINE
  8
_0-d_0_1
  6
CONTINUOUS
 62
    7
 10
88.364340731387514
 20
229.26275804871926
 11
92.630466410403628
 21
233.52887514466653
  0
LINE
  8
_0-d_0_1
  6
CONTINUOUS
 62
    7
 10
88.302522608523745
 20
229.34236315125833
 11
92.565585085635561
 21
233.60540846223245
  0
LINE
  8
_0-d_0_1
  6
CONTINUOUS
 62
    7
 10
88.240091273074526
 20
229.42134693498025
 11
92.500285097842593
 21
233.68153169984231
  0
LINE
  8
_0-d_0_1
  6
CONTINUOUS
 62
    7
 10
88.177029558902163
 20
229.49970081681619
 11
92.434581705813784
 21
233.75725248689065
  0
LINE
  8
_0-d_0_1
  6
CONTINUOUS
 62
    7
 10
88.113339373355288
 20
229.57743385667214
 11
92.368458697085757
 21
233.83256224030862
  0
LINE
  8
_0-d_0_1
  6
CONTINUOUS
 62
    7
 10
88.049017855410952
 20
229.65453651780496
 11
92.301967570071596
 21
233.90746858949075
  0
LINE
  8
_0-d_0_1
  6
CONTINUOUS
 62
    7
 10
87.984102198367495
 20
229.73102692002664
 11
92.235022494082827
 21
233.98196485871682
  0
LINE
  8
_0-d_0_1
  6
CONTINUOUS
 62
    7
 10
87.918521830325503
 20
229.80688742036233
 11
92.167692133670229
 21
234.05605772370706
  0
LINE
  8
_0-d_0_1
  6
CONTINUOUS
 62
    7
 10
87.852363535647768
 20
229.88213566178689
 11
92.099976488833804
 21
234.12973955506692
  0
LINE
  8
_0-d_0_1
  6
CONTINUOUS
 62
    7
 10
87.785574862246889
 20
229.95676258439431
 11
92.031823107486147
 21
234.20302847260842
  0
LINE
  8
_0-d_0_1
  6
CONTINUOUS
 62
    7
 10
87.718139597659487
 20
230.03076866502175
 11
91.963285395388979
 21
234.27590540284524
  0
LINE
  8
_0-d_0_1
  6
CONTINUOUS
 62
    7
 10
87.650126406436343
 20
230.1041620099009
 11
91.894345232730288
 21
234.34837129945168
  0
LINE
  8
_0-d_0_1
  6
CONTINUOUS
 62
    7
 10
87.58148379016437
 20
230.17694261903176
 11
91.824985453372378
 21
234.42044428223977
  0
LINE
  8
_0-d_0_1
  6
CONTINUOUS
 62
    7
 10
87.512228914981264
 20
230.2491028630198
 11
91.755239435916323
 21
234.49211386079202
  0
LINE
  8
_0-d_0_1
  6
CONTINUOUS
 62
    7
 10
87.442343661075014
 20
230.32064989442239
 11
91.685074755435366
 21
234.56337240571389
  0
CIRCLE
  8
_0-d_0_1
  6
CONTINUOUS
 62
    7
 10
79.25
 20
222.25
 40
37.000003814697266
  0
ARC
  8
_0-d_0_1
  6
CONTINUOUS
 62
    7
 10
79.250000000004917
 20
222.25000000000381
 40
29.999996185308913
 50
209.22578430175957
 51
210.77421569824364
  0
ARC
  8
_0-d_0_1
  6
CONTINUOUS
 62
    7
 10
79.250000000258751
 20
222.25000000017309
 40
29.999996185614041
 50
212.97578430176611
 51
214.5242156982344
  0
ARC
  8
_0-d_0_1
  6
CONTINUOUS
 62
    7
 10
79.250000000020435
 20
222.25000000001569
 40
29.999996185328509
 50
216.72578430175852
 51
218.27421569824159
  0
ARC
  8
_0-d_0_1
  6
CONTINUOUS
 62
    7
 10
79.250000000124373
 20
222.25000000011028
 40
29.999996185468962
 50
220.47578430176384
 51
222.0242156982396
  0
ARC
  8
_0-d_0_1
  6
CONTINUOUS
 62
    7
 10
79.249999999981213
 20
222.24999999998124
 40
29.999996185276181
 50
224.2257843017571
 51
225.77421569824284
  0
ARC
  8
_0-d_0_1
  6
CONTINUOUS
 62
    7
 10
79.250000000043087
 20
222.25000000004883
 40
29.999996185367856
 50
227.97578430175915
 51
229.52421569824011
  0
ARC
  8
_0-d_0_1
  6
CONTINUOUS
 62
    7
 10
79.250000000015689
 20
222.25000000002044
 40
29.999996185328499
 50
231.72578430175847
 51
233.27421569824151
  0
ARC
  8
_0-d_0_1
  6
CONTINUOUS
 62
    7
 10
79.250000000150294
 20
222.25000000022311
 40
29.999996185571721
 50
235.47578430176281
 51
237.02421569823332
  0
ARC
  8
_0-d_0_1
  6
CONTINUOUS
 62
    7
 10
79.249999999977035
 20
222.24999999995782
 40
29.999996185254734
 50
239.22578430175417
 51
240.77421569824111
  0
ARC
  8
_0-d_0_1
  6
CONTINUOUS
 62
    7
 10
79.249999999890804
 20
222.25000000019028
 40
29.999996185522111
 50
299.22578430176236
 51
300.77421569823542
  0
ARC
  8
_0-d_0_1
  6
CONTINUOUS
 62
    7
 10
79.250000000184855
 20
222.24999999972252
 40
29.999996184969337
 50
302.97578430175002
 51
304.52421569825162
  0
ARC
  8
_0-d_0_1
  6
CONTINUOUS
 62
    7
 10
79.250000000041382
 20
222.24999999994711
 40
29.999996185235585
 50
306.72578430175491
 51
308.2742156982427
  0
ARC
  8
_0-d_0_1
  6
CONTINUOUS
 62
    7
 10
79.249999999956913
 20
222.25000000004883
 40
29.999996185367856
 50
310.47578430175986
 51
312.02421569824088
  0
ARC
  8
_0-d_0_1
  6
CONTINUOUS
 62
    7
 10
79.249999999903878
 20
222.25000000009501
 40
29.999996185167596
 50
134.2257843017529
 51
135.77421569824426
  0
ARC
  8
_0-d_0_1
  6
CONTINUOUS
 62
    7
 10
79.249999999973227
 20
222.2500000000241
 40
29.999996185266721
 50
137.97578430175781
 51
139.52421569824409
  0
ARC
  8
_0-d_0_1
  6
CONTINUOUS
 62
    7
 10
79.250000000076739
 20
222.24999999994162
 40
29.999996185399166
 50
141.72578430176111
 51
143.27421569824057
  0
ARC
  8
_0-d_0_1
  6
CONTINUOUS
 62
    7
 10
79.250000000151545
 20
222.24999999989751
 40
29.999996185485667
 50
145.47578430176057
 51
147.02421569823559
  0
CIRCLE
  8
_0-d_0_1
  6
CONTINUOUS
 62
    7
 10
79.25
 20
222.25
 40
8.5
  0
CIRCLE
  8
_0-d_0_1
  6
CONTINUOUS
 62
    7
 10
79.25
 20
222.25
 40
6.9999995231628418
  0
ARC
  8
_0-d_0_1
  6
CONTINUOUS
 62
    7
 10
79.249999999999915
 20
222.24999999999991
 40
20.500000000000004
 50
141.25959777832
 51
128.74040222167929
  0
ARC
  8
_0-d_0_1
  6
CONTINUOUS
 62
    7
 10
79.250000000000057
 20
222.24999999999997
 40
17.500000000000082
 50
143.62396240234384
 51
179.99999999999994
  0
ARC
  8
_0-d_0_1
  6
CONTINUOUS
 62
    7
 10
79.249999999999829
 20
222.25000000000003
 40
11.499999999999828
 50
152.32049560546858
 51
180.00000000000011
  0
ARC
  8
_0-d_0_1
  6
CONTINUOUS
 62
    7
 10
79.25
 20
222.24999999999997
 40
13.999999046325652
 50
224.99999999999986
 51
315.00000000000017
  0
ARC
  8
_0-d_0_1
  6
CONTINUOUS
 62
    7
 10
79.250000000000057
 20
222.24999999999977
 40
14.999998092651166
 50
241.4182434082025
 51
315.00000000000045
  0
ARC
  8
_0-d_0_1
  6
CONTINUOUS
 62
    7
 10
79.25
 20
222.25000000000011
 40
14.999998092651275
 50
60.845993041992024
 51
123.64886474609413
  0
ARC
  8
_0-d_0_1
  6
CONTINUOUS
 62
    7
 10
79.25
 20
222.24999999999991
 40
13.999999046325755
 50
44.999923706055029
 51
122.26919555664058
  0
ARC
  8
_0-d_0_1
  6
CONTINUOUS
 62
    7
 10
79.249999999999972
 20
222.24999999999994
 40
13.999999046325634
 50
224.36732482910148
 51
315.00000000000028
  0
ARC
  8
_0-d_0_1
  6
CONTINUOUS
 62
    7
 10
79.25
 20
222.24999999999991
 40
13.999999046325755
 50
44.999923706055029
 51
122.26919555664058
  0
ARC
  8
_0-d_0_1
  6
CONTINUOUS
 62
    7
 10
79.250000000000028
 20
222.25
 40
11.499999999999957
 50
0
 51
44.988250732421932
  0
ARC
  8
_0-d_0_1
  6
CONTINUOUS
 62
    7
 10
79.249999999999602
 20
222.24999999999989
 40
17.500000000000369
 50
0.0000000000003722
 51
44.992324829100966
  0
ARC
  8
_0-1_作画層１
  6
CONTINUOUS
 62
    7
 10
124.24999999999996
 20
133.64442719099992
 40
1
 50
269.9999999999992
 51
0
  0
ARC
  8
_0-d_0_1
  6
CONTINUOUS
 62
    7
 10
118.24999994922197
 20
138.74999829893699
 40
4.0000000000000142
 50
90.000000000000199
 51
180
  0
LINE
  8
_0-d_0_1
  6
CONTINUOUS
 62
    7
 10
40.634127901117779
 20
227.84051181601515
 11
41.050882881663568
 21
230.2040467604196
  0
LINE
  8
_0-d_0_1
  6
CONTINUOUS
 62
    7
 10
42.191571956769479
 20
234.46115519870821
 11
43.012419028665363
 21
236.71641399356761
  0
LINE
  8
_0-d_0_1
  6
CONTINUOUS
 62
    7
 10
44.875017596045268
 20
240.71076880983122
 11
46.075015736380351
 21
242.78922655787974
  0
LINE
  8
_0-d_0_1
  6
CONTINUOUS
 62
    7
 10
48.602929681084902
 20
246.3994613022673
 11
50.145617553593468
 21
248.23796511658091
  0
LINE
  8
_0-d_0_1
  6
CONTINUOUS
 62
    7
 10
53.262037489598811
 20
251.35438463325102
 11
55.100541303912451
 21
252.89707250575958
  0
LINE
  8
_0-d_0_1
  6
CONTINUOUS
 62
    7
 10
40.634127901117779
 20
227.84051181601515
 11
49.549487538485039
 21
226.57311646244307
  0
LINE
  8
_0-d_0_1
  6
CONTINUOUS
 62
    7
 10
42.191571956769479
 20
234.46115519870821
 11
50.751406355009578
 21
231.66487847410465
  0
LINE
  8
_0-d_0_1
  6
CONTINUOUS
 62
    7
 10
44.875017596045268
 20
240.71076880983122
 11
52.81924051845283
 21
236.47057416748893
  0
LINE
  8
_0-d_0_1
  6
CONTINUOUS
 62
    7
 10
48.602929681084902
 20
246.3994613022673
 11
55.690159934133305
 21
240.84418491075186
  0
LINE
  8
_0-d_0_1
  6
CONTINUOUS
 62
    7
 10
53.262037489598811
 20
251.35438463325102
 11
59.276933168360841
 21
244.65282075461315
  0
LINE
  8
_0-d_0_1
  6
CONTINUOUS
 62
    7
 10
49.862055285029157
 20
228.34577624081737
 11
41.050882881663568
 21
230.2040467604196
  0
LINE
  8
_0-d_0_1
  6
CONTINUOUS
 62
    7
 10
51.367044635285879
 20
233.35633074771576
 11
43.012419028665363
 21
236.71641399356761
  0
LINE
  8
_0-d_0_1
  6
CONTINUOUS
 62
    7
 10
53.719243474843211
 20
238.02942501491927
 11
46.075015736380351
 21
242.78922655787974
  0
LINE
  8
_0-d_0_1
  6
CONTINUOUS
 62
    7
 10
56.847181432231309
 20
242.22306943781888
 11
50.145617553593468
 21
248.23796511658091
  0
LINE
  8
_0-d_0_1
  6
CONTINUOUS
 62
    7
 10
60.655817695427857
 20
245.80984225271112
 11
55.100541303912451
 21
252.89707250575958
  0
LINE
  8
_0-d_0_1
  6
CONTINUOUS
 62
    7
 10
49.636317821935961
 20
227.06555547037027
 11
49.549487538485039
 21
226.57311646244307
  0
LINE
  8
_0-d_0_1
  6
CONTINUOUS
 62
    7
 10
50.922428627686912
 20
232.13475830650947
 11
50.751406355009578
 21
231.66487847410465
  0
LINE
  8
_0-d_0_1
  6
CONTINUOUS
 62
    7
 10
53.069258355142779
 20
236.9036177634344
 11
52.81924051845283
 21
236.47057416748893
  0
LINE
  8
_0-d_0_1
  6
CONTINUOUS
 62
    7
 10
56.011576669383203
 20
241.22723445970578
 11
55.690159934133305
 21
240.84418491075186
  0
LINE
  8
_0-d_0_1
  6
CONTINUOUS
 62
    7
 10
59.659982717314762
 20
244.97423748986301
 11
59.276933168360841
 21
244.65282075461315
  0
LINE
  8
_0-d_0_1
  6
CONTINUOUS
 62
    7
 10
51.113525249061183
 20
226.80504838693142
 11
49.636317821935961
 21
227.06555547037027
  0
LINE
  8
_0-d_0_1
  6
CONTINUOUS
 62
    7
 10
52.331957374418579
 20
231.62169453326797
 11
50.922428627686912
 21
232.13475830650947
  0
LINE
  8
_0-d_0_1
  6
CONTINUOUS
 62
    7
 10
54.368280603767403
 20
236.15358648351736
 11
53.069258355142779
 21
236.9036177634344
  0
LINE
  8
_0-d_0_1
  6
CONTINUOUS
 62
    7
 10
57.160622286213311
 20
240.26302499401936
 11
56.011576669383203
 21
241.22723445970578
  0
LINE
  8
_0-d_0_1
  6
CONTINUOUS
 62
    7
 10
60.624138532728068
 20
243.82514685510853
 11
59.659982717314762
 21
244.97423748986301
  0
LINE
  8
_0-d_0_1
  6
CONTINUOUS
 62
    7
 10
49.862055285029157
 20
228.34577624081737
 11
49.775225001578264
 21
227.85333723289017
  0
LINE
  8
_0-d_0_1
  6
CONTINUOUS
 62
    7
 10
51.367044635285879
 20
233.35633074771576
 11
51.196022362608574
 21
232.88645091531095
  0
LINE
  8
_0-d_0_1
  6
CONTINUOUS
 62
    7
 10
53.719243474843211
 20
238.02942501491927
 11
53.469225638153262
 21
237.59638141897383
  0
LINE
  8
_0-d_0_1
  6
CONTINUOUS
 62
    7
 10
56.847181432231309
 20
242.22306943781888
 11
56.525764696981469
 21
241.84001988886493
  0
LINE
  8
_0-d_0_1
  6
CONTINUOUS
 62
    7
 10
60.655817695427857
 20
245.80984225271112
 11
60.272768146473908
 21
245.48842551746128
  0
LINE
  8
_0-d_0_1
  6
CONTINUOUS
 62
    7
 10
51.252444590233097
 20
227.59289912091296
 11
49.775225001578264
 21
227.85333723289017
  0
LINE
  8
_0-d_0_1
  6
CONTINUOUS
 62
    7
 10
52.605575062877477
 20
232.37345295387215
 11
51.196022362608574
 21
232.88645091531095
  0
LINE
  8
_0-d_0_1
  6
CONTINUOUS
 62
    7
 10
54.768282904506691
 20
236.84641079154224
 11
53.469225638153262
 21
237.59638141897383
  0
LINE
  8
_0-d_0_1
  6
CONTINUOUS
 62
    7
 10
57.674855331735955
 20
240.87586407345165
 11
56.525764696981469
 21
241.84001988886493
  0
LINE
  8
_0-d_0_1
  6
CONTINUOUS
 62
    7
 10
61.236977612160359
 20
244.33937990063117
 11
60.272768146473908
 21
245.48842551746128
  0
LINE
  8
_0-d_0_1
  6
CONTINUOUS
 62
    7
 10
39.039238873532668
 20
229.10272845213009
 11
40.673909858331001
 21
228.06612650670726
  0
LINE
  8
_0-d_0_1
  6
CONTINUOUS
 62
    7
 10
40.840094495891776
 20
235.98114550115639
 11
42.26992711655663
 21
234.67643423092116
  0
LINE
  8
_0-d_0_1
  6
CONTINUOUS
 62
    7
 10
43.808015660643207
 20
242.44234864242486
 11
44.989565176525844
 21
240.90917103910766
  0
LINE
  8
_0-d_0_1
  6
CONTINUOUS
 62
    7
 10
47.85282358503656
 20
248.29001748801474
 11
48.750189211989834
 21
246.57495837726705
  0
LINE
  8
_0-d_0_1
  6
CONTINUOUS
 62
    7
 10
52.851618827060719
 20
253.34647357911595
 11
53.437534564598593
 21
251.50164416415598
  0
LINE
  8
_0-d_0_1
  6
CONTINUOUS
 62
    7
 10
39.137500490913339
 20
229.56542568265112
 11
41.010778845745961
 21
229.97660547062674
  0
LINE
  8
_0-d_0_1
  6
CONTINUOUS
 62
    7
 10
41.017209829403328
 20
236.41975037027797
 11
42.933429497667873
 21
236.4993920407787
  0
LINE
  8
_0-d_0_1
  6
CONTINUOUS
 62
    7
 10
44.058603150501483
 20
242.84353436314356
 11
45.959540767231715
 21
242.58921804431185
  0
LINE
  8
_0-d_0_1
  6
CONTINUOUS
 62
    7
 10
48.169269257165695
 20
248.6415942352163
 11
49.997165794798093
 21
248.06104719970961
  0
LINE
  8
_0-d_0_1
  6
CONTINUOUS
 62
    7
 10
53.224307639842266
 20
253.63775887124305
 11
54.923623387041118
 21
252.74862074696421
  0
LINE
  8
_0-d_0_1
  6
CONTINUOUS
 62
    7
 10
48.558899114692878
 20
226.71393689107828
 11
48.883043229770692
 21
228.55224951785513
  0
LINE
  8
_0-d_0_1
  6
CONTINUOUS
 62
    7
 10
49.800320406025662
 20
231.97557339861658
 11
50.43875968126946
 21
233.72967089104196
  0
LINE
  8
_0-d_0_1
  6
CONTINUOUS
 62
    7
 10
51.936555309564369
 20
236.9417032798155
 11
52.869891090661781
 21
238.5582882731982
  0
LINE
  8
_0-d_0_1
  6
CONTINUOUS
 62
    7
 10
54.902695408752095
 20
241.46143319121785
 11
56.102568760285124
 21
242.89138656856542
  0
LINE
  8
_0-d_0_1
  6
CONTINUOUS
 62
    7
 10
58.608616037614297
 20
245.3974334265593
 11
60.03856941496187
 21
246.59730677809236
  0
ARC
  8
_0-d_0_1
  6
CONTINUOUS
 62
    7
 10
79.249999999935028
 20
222.25000000001114
 40
29.999996185236835
 50
169.22578430175562
 51
170.77421569824332
  0
ARC
  8
_0-d_0_1
  6
CONTINUOUS
 62
    7
 10
79.249999999868862
 20
222.25000000004738
 40
29.999996185163312
 50
159.22578430175363
 51
160.77421569824517
  0
ARC
  8
_0-d_0_1
  6
CONTINUOUS
 62
    7
 10
79.250000000121076
 20
222.24999999993014
 40
29.999996185442509
 50
149.22578430176159
 51
150.77421569823872
  0
ARC
  8
_0-d_0_1
  6
CONTINUOUS
 62
    7
 10
79.249999999991417
 20
222.25000000000713
 40
29.999996185291579
 50
139.22578430175747
 51
140.77421569824236
  0
ARC
  8
_0-d_0_1
  6
CONTINUOUS
 62
    7
 10
79.250000000121304
 20
222.24999999985545
 40
29.999996185491455
 50
129.22578430176279
 51
130.77421569823736
  0
ARC
  8
_0-d_0_1
  6
CONTINUOUS
 62
    7
 10
51.182986552638965
 20
227.19897173867702
 40
0.400000005960428
 50
259.99999999999704
 51
80.00000000000253
  0
ARC
  8
_0-d_0_1
  6
CONTINUOUS
 62
    7
 10
52.468767476887365
 20
231.99757147537494
 40
0.4000000059604552
 50
250.00000000000043
 51
69.99999999999855
  0
ARC
  8
_0-d_0_1
  6
CONTINUOUS
 62
    7
 10
54.568282599392973
 20
236.49999618530268
 40
0.4000000059604493
 50
239.99999999999764
 51
60.000000000001435
  0
ARC
  8
_0-d_0_1
  6
CONTINUOUS
 62
    7
 10
57.417739215564382
 20
240.56944197198612
 40
0.4000000059604901
 50
230.00000000000671
 51
49.999999999992617
  0
ARC
  8
_0-d_0_1
  6
CONTINUOUS
 62
    7
 10
60.930558028013877
 20
244.08226078443559
 40
0.4000000059604664
 50
219.99999999999878
 51
39.999999999998835
  0
ARC
  8
_0-d_0_1
  6
CONTINUOUS
 62
    7
 10
39.168334971284793
 20
229.31747897628139
 40
0.2500000000000555
 50
97.088562011723468
 51
238.98876953123897
  0
ARC
  8
_0-d_0_1
  6
CONTINUOUS
 62
    7
 10
41.004520371013598
 20
236.17021618018541
 40
0.2500000000000465
 50
87.088562011723639
 51
228.98876953123991
  0
ARC
  8
_0-d_0_1
  6
CONTINUOUS
 62
    7
 10
44.002775316122609
 20
242.59999465942377
 40
0.2500000000000249
 50
77.088562011724946
 51
218.98876953123906
  0
ARC
  8
_0-d_0_1
  6
CONTINUOUS
 62
    7
 10
48.071999347294991
 20
248.41144884852977
 40
0.2499999999999986
 50
67.088562011713194
 51
208.98876953125097
  0
ARC
  8
_0-d_0_1
  6
CONTINUOUS
 62
    7
 10
53.088551151470227
 20
253.42800065270498
 40
0.2500000000000319
 50
57.088562011728598
 51
198.98876953123931
  0
ARC
  8
_0-d_0_1
  6
CONTINUOUS
 62
    7
 10
79.25
 20
222.25
 40
29.000000000000011
 50
180.79029846191409
 51
129.28023732623319
  0
ARC
  8
_0-d_0_1
  6
CONTINUOUS
 62
    7
 10
79.250000000001535
 20
222.24999999999829
 40
29.000000000002299
 50
130.86192776839741
 51
139.1502269209156
  0
ARC
  8
_0-d_0_1
  6
CONTINUOUS
 62
    7
 10
79.250000000000142
 20
222.24999999999994
 40
29.000000000000163
 50
140.92978535617615
 51
149.26600646972659
  0
ARC
  8
_0-d_0_1
  6
CONTINUOUS
 62
    7
 10
79.249999999996305
 20
222.25000000000176
 40
28.999999999995921
 50
150.79028992277367
 51
159.1834498578948
  0
ARC
  8
_0-d_0_1
  6
CONTINUOUS
 62
    7
 10
79.25000000000307
 20
222.24999999999915
 40
29.000000000003169
 50
160.7482007410884
 51
169.14728062013651
  0
ARC
  8
_0-d_0_1
  6
CONTINUOUS
 62
    7
 10
79.250000000001023
 20
222.2499999999998
 40
29.000000000001027
 50
170.88005857394279
 51
179.20970153808554
  0
TEXT
  8
_0-d_0_1
 62
    7
 10
67.259251281809327
 20
236.15415273345323
 40
5
 41
1
 50
29.999957756663811
  1
10
  0
TEXT
  8
_0-d_0_1
 62
    7
 10
72.223715986511593
 20
239.25284957456574
 40
5
 41
1
 50
14.999989403430712
  1
9
  0
TEXT
  8
_0-d_0_1
 62
    7
 10
75.843761870150956
 20
240.38529375428567
 40
5
 41
1
 50
0
  1
8
  0
TEXT
  8
_0-d_0_1
 62
    7
 10
80.737005307180652
 20
240.67420558504801
 40
5
 41
1
 50
-14.999979702261436
  1
7
  0
TEXT
  8
_0-d_0_1
 62
    7
 10
85.427637871616227
 20
239.66159164453424
 40
5
 41
1
 50
-29.999975896259983
  1
6
  0
TEXT
  8
_0-d_0_1
 62
    7
 10
89.66588954828832
 20
237.47591135466951
 40
5
 41
1
 50
-45.000009091158226
  1
5
  0
TEXT
  8
_0-d_0_1
 62
    7
 10
93.283934192313126
 20
234.32873549115823
 40
5
 41
1
 50
-59.999912760333956
  1
4
  0
TEXT
  8
_0-d_0_1
 62
    7
 10
95.943493406259989
 20
230.18026272118956
 40
5
 41
1
 50
-75.000243003075795
  1
3
  0
TEXT
  8
_0-d_0_1
 62
    7
 10
97.450208613162417
 20
225.61421087617288
 40
5
 41
1
 50
-90
  1
2
  0
TEXT
  8
_0-d_0_1
 62
    7
 10
97.635956165403982
 20
220.72452840616731
 40
5
 41
1
 50
-104.99975616503994
  1
1
  0
TEXT
  8
_0-d_0_1
 62
    7
 10
97.333127947938053
 20
217.21836986406521
 40
5
 41
1
 50
-120.00005854257884
  1
24
  0
TEXT
  8
_0-d_0_1
 62
    7
 10
95.393379160647783
 20
212.69173983062856
 40
5
 41
1
 50
-135.00000000000023
  1
23
  0
TEXT
  8
_0-d_0_1
 62
    7
 10
92.336277474874706
 20
208.74137392700007
 40
5
 41
1
 50
-150.00003053215434
  1
22
  0
TEXT
  8
_0-d_0_1
 62
    7
 10
88.461844413814262
 20
205.8417950840261
 40
5
 41
1
 50
-164.9999646800598
  1
21
  0
TEXT
  8
_0-d_0_1
 62
    7
 10
83.933866688495058
 20
203.90524652833352
 40
5
 41
1
 50
180
  1
20
  0
TEXT
  8
_0-d_0_1
 62
    7
 10
78.970166665597304
 20
203.39356918027724
 40
5
 41
1
 50
164.9999895175464
  1
19
  0
TEXT
  8
_0-d_0_1
 62
    7
 10
74.13212115282019
 20
204.16220600741642
 40
5
 41
1
 50
150.00003053215451
  1
18
  0
TEXT
  8
_0-d_0_1
 62
    7
 10
68.79244417925122
 20
206.8032970749812
 40
5
 41
1
 50
135.0000193187177
  1
17
  0
TEXT
  8
_0-d_0_1
 62
    7
 10
65.145564496534831
 20
210.11552106168401
 40
5
 41
1
 50
119.99999141718865
  1
16
  0
TEXT
  8
_0-d_0_1
 62
    7
 10
62.545376416693102
 20
214.11818441876306
 40
5
 41
1
 50
105.00004571869744
  1
15
  0
TEXT
  8
_0-d_0_1
 62
    7
 10
61.090473124270829
 20
218.80559876794229
 40
5
 41
1
 50
90
  1
14
  0
TEXT
  8
_0-d_0_1
 62
    7
 10
60.872935851553166
 20
223.63019249279219
 40
5
 41
1
 50
74.999957816881491
  1
13
  0
TEXT
  8
_0-d_0_1
 62
    7
 10
61.821014615474979
 20
228.26990495360704
 40
5
 41
1
 50
60.000042243336416
  1
12
  0
LINE
  8
_0-d_0_1
  6
CONTINUOUS
 62
    7
 10
58.134921273080977
 20
255.06147437525854
 11
60.192119606678091
 21
256.29756383944607
  0
LINE
  8
_0-d_0_1
  6
CONTINUOUS
 62
    7
 10
58.134921273080977
 20
255.06147437525854
 11
63.027408044602623
 21
247.50148088079445
  0
LINE
  8
_0-d_0_1
  6
CONTINUOUS
 62
    7
 10
64.570314254108723
 20
248.42855246093976
 11
60.192119606678091
 21
256.29756383944607
  0
LINE
  8
_0-d_0_1
  6
CONTINUOUS
 62
    7
 10
63.456022273008443
 20
247.75901829139838
 11
63.027408044602623
 21
247.50148088079445
  0
LINE
  8
_0-d_0_1
  6
CONTINUOUS
 62
    7
 10
64.228550351678621
 20
246.47324766996468
 11
63.456022273008443
 21
247.75901829139838
  0
LINE
  8
_0-d_0_1
  6
CONTINUOUS
 62
    7
 10
64.570314254108723
 20
248.42855246093976
 11
64.14170002570296
 21
248.1710150503358
  0
LINE
  8
_0-d_0_1
  6
CONTINUOUS
 62
    7
 10
64.914288136477268
 20
246.88528049982941
 11
64.14170002570296
 21
248.1710150503358
  0
LINE
  8
_0-d_0_1
  6
CONTINUOUS
 62
    7
 10
58.041186913888367
 20
257.09324102443452
 11
58.331294153805942
 21
255.1794671059312
  0
LINE
  8
_0-d_0_1
  6
CONTINUOUS
 62
    7
 10
58.454854367790915
 20
257.32263873620127
 11
59.994156871470523
 21
256.17861582782496
  0
LINE
  8
_0-d_0_1
  6
CONTINUOUS
 62
    7
 10
62.483802091742348
 20
248.34147396796058
 11
64.083851916006267
 21
249.30288089584275
  0
ARC
  8
_0-d_0_1
  6
CONTINUOUS
 62
    7
 10
79.249999999951058
 20
222.25000000008183
 40
29.999996185207415
 50
120.22578430175577
 51
121.77421569824502
  0
ARC
  8
_0-d_0_1
  6
CONTINUOUS
 62
    7
 10
64.571418794492132
 20
246.6792615303427
 40
0.4000000059604679
 50
210.99999999999616
 51
31.000000000004714
  0
ARC
  8
_0-d_0_1
  6
CONTINUOUS
 62
    7
 10
58.287955852360938
 20
257.13669998304147
 40
0.2500000000000415
 50
48.088562011735412
 51
189.98876953125489
  0
LINE
  8
_0-d_0_1
  6
CONTINUOUS
 62
    7
 10
49.25274091076335
 20
222.65536698932061
 11
42.250003865475264
 21
222.75000235671411
  0
LINE
  8
_0-d_0_1
  6
CONTINUOUS
 62
    7
 10
42.250003865475264
 20
221.75000104541192
 11
49.25274091076335
 21
221.84463641280541
  0
ARC
  8
_0-d_0_1
  6
CONTINUOUS
 62
    7
 10
79.249999999973795
 20
222.25
 40
29.99999618527653
 50
179.22578430175719
 51
180.77421569824276
  0
LINE
  8
_0-1_作画層１
  6
CENTER
 62
    7
 10
132.25
 20
222.25
 11
26.25
 21
222.25
  0
LINE
  8
_0-1_作画層１
  6
CENTER
 62
    7
 10
232.25
 20
222.25
 11
148.75
 21
222.25
  0
LINE
  8
_0-1_作画層１
  6
CONTINUOUS
 62
    7
 10
46.25
 20
151.25
 11
46.25
 21
161.25
  0
LINE
  8
_0-1_作画層１
  6
CONTINUOUS
 62
    7
 10
112.24999999999997
 20
151.25
 11
112.24999999999997
 21
161.25
  0
LINE
  8
_0-1_作画層１
  6
CONTINUOUS
 62
    7
 10
112.24999999999997
 20
151.25
 11
46.25
 21
151.25
  0
LINE
  8
_0-1_作画層１
  6
CONTINUOUS
 62
    7
 10
112.24999999999997
 20
161.25
 11
46.25
 21
161.25
  0
LINE
  8
_0-1_作画層１
  6
CONTINUOUS
 62
    7
 10
102.36429999999997
 20
151.25
 11
102.36429999999997
 21
161.25
  0
LINE
  8
_0-1_作画層１
  6
CONTINUOUS
 62
    7
 10
93.078599999999966
 20
151.25
 11
93.078599999999966
 21
161.25
  0
LINE
  8
_0-1_作画層１
  6
CONTINUOUS
 62
    7
 10
83.79289999999996
 20
151.25
 11
83.79289999999996
 21
161.25
  0
LINE
  8
_0-1_作画層１
  6
CONTINUOUS
 62
    7
 10
74.507199999999955
 20
151.25
 11
74.507199999999955
 21
161.25
  0
LINE
  8
_0-1_作画層１
  6
CONTINUOUS
 62
    7
 10
65.221499999999935
 20
151.25
 11
65.221499999999935
 21
161.25
  0
LINE
  8
_0-1_作画層１
  6
CONTINUOUS
 62
    7
 10
55.935799999999944
 20
151.25
 11
55.935799999999944
 21
161.25
  0
LINE
  8
_0-1_作画層１
  6
CONTINUOUS
 62
    7
 10
112.24999999999997
 20
160.25
 11
46.25
 21
160.25
  0
LINE
  8
_0-1_作画層１
  6
CONTINUOUS
 62
    7
 10
99.75
 20
139.14442719099992
 11
112.25
 21
139.14442719099992
  0
LINE
  8
_0-1_作画層１
  6
CONTINUOUS
 62
    7
 10
112.25
 20
139.14442719099992
 11
112.25
 21
147.14442719099992
  0
LINE
  8
_0-1_作画層１
  6
CONTINUOUS
 62
    7
 10
99.75
 20
147.14442719099992
 11
99.75
 21
139.14442719099992
  0
LINE
  8
_0-1_作画層１
  6
CONTINUOUS
 62
    7
 10
99.75
 20
147.14442719099992
 11
112.25
 21
147.14442719099992
  0
LINE
  8
_0-1_作画層１
  6
CONTINUOUS
 62
    7
 10
111.25
 20
140.64442719099992
 11
111.25
 21
145.64442719099992
  0
LINE
  8
_0-1_作画層１
  6
CONTINUOUS
 62
    7
 10
100.75
 20
140.64442719099992
 11
100.75
 21
145.64442719099992
  0
LINE
  8
_0-1_作画層１
  6
CONTINUOUS
 62
    7
 10
111.25
 20
145.64442719099992
 11
100.75
 21
145.64442719099992
  0
LINE
  8
_0-1_作画層１
  6
CONTINUOUS
 62
    7
 10
111.25
 20
140.64442719099992
 11
100.75
 21
140.64442719099992
  0
LINE
  8
_0-1_作画層１
  6
CONTINUOUS
 62
    7
 10
106.75
 20
145.64442719099992
 11
106.75
 21
140.64442719099992
  0
LINE
  8
_0-1_作画層１
  6
CONTINUOUS
 62
    7
 10
105.25
 20
145.64442719099992
 11
105.25
 21
140.64442719099992
  0
LINE
  8
_0-1_作画層１
  6
CONTINUOUS
 62
    7
 10
58.749999999999943
 20
147.14442719099992
 11
58.749999999999943
 21
139.14442719099992
  0
LINE
  8
_0-1_作画層１
  6
CONTINUOUS
 62
    7
 10
58.749999999999943
 20
147.14442719099992
 11
46.249999999999943
 21
147.14442719099992
  0
LINE
  8
_0-1_作画層１
  6
CONTINUOUS
 62
    7
 10
57.749999999999943
 20
140.64442719099992
 11
57.749999999999943
 21
145.64442719099992
  0
LINE
  8
_0-1_作画層１
  6
CONTINUOUS
 62
    7
 10
47.249999999999943
 20
145.64442719099992
 11
57.749999999999943
 21
145.64442719099992
  0
CIRCLE
  8
_0-1_作画層１
  6
CONTINUOUS
 62
    7
 10
42.5
 20
183.5
 40
2.5
  0
LINE
  8
_0-1_作画層１
  6
CONTINUOUS
 62
    7
 10
38.75
 20
179.75
 11
46.25
 21
179.75
  0
LINE
  8
_0-1_作画層１
  6
CONTINUOUS
 62
    7
 10
46.25
 20
179.75
 11
46.25
 21
187.25
  0
LINE
  8
_0-1_作画層１
  6
CONTINUOUS
 62
    7
 10
38.75
 20
187.25
 11
38.75
 21
179.75
  0
LINE
  8
_0-1_作画層１
  6
CONTINUOUS
 62
    7
 10
46.25
 20
187.25
 11
38.75
 21
187.25
  0
LINE
  8
_0-1_作画層１
  6
CONTINUOUS
 62
    7
 10
45.75
 20
180.25
 11
39.25
 21
180.25
  0
LINE
  8
_0-1_作画層１
  6
CONTINUOUS
 62
    7
 10
45.75
 20
186.75
 11
45.75
 21
180.25
  0
LINE
  8
_0-1_作画層１
  6
CONTINUOUS
 62
    7
 10
39.25
 20
186.75
 11
39.25
 21
180.25
  0
LINE
  8
_0-1_作画層１
  6
CONTINUOUS
 62
    7
 10
45.75
 20
186.75
 11
39.25
 21
186.75
  0
CIRCLE
  8
_0-1_作画層１
  6
CONTINUOUS
 62
    7
 10
52.5
 20
183.5
 40
2.5
  0
LINE
  8
_0-1_作画層１
  6
CONTINUOUS
 62
    7
 10
48.75
 20
179.75
 11
56.25
 21
179.75
  0
LINE
  8
_0-1_作画層１
  6
CONTINUOUS
 62
    7
 10
56.25
 20
179.75
 11
56.25
 21
187.25
  0
LINE
  8
_0-1_作画層１
  6
CONTINUOUS
 62
    7
 10
48.75
 20
187.25
 11
48.75
 21
179.75
  0
LINE
  8
_0-1_作画層１
  6
CONTINUOUS
 62
    7
 10
56.25
 20
187.25
 11
48.75
 21
187.25
  0
LINE
  8
_0-1_作画層１
  6
CONTINUOUS
 62
    7
 10
55.75
 20
180.25
 11
49.25
 21
180.25
  0
LINE
  8
_0-1_作画層１
  6
CONTINUOUS
 62
    7
 10
55.75
 20
186.75
 11
55.75
 21
180.25
  0
LINE
  8
_0-1_作画層１
  6
CONTINUOUS
 62
    7
 10
49.25
 20
186.75
 11
49.25
 21
180.25
  0
LINE
  8
_0-1_作画層１
  6
CONTINUOUS
 62
    7
 10
55.75
 20
186.75
 11
49.25
 21
186.75
  0
TEXT
  8
_0-7_注記層１
 62
    7
 10
49.949999999999989
 20
163.5
 40
2.6000000000000001
 41
1
 50
0
  1
日
  0
LINE
  8
_0-1_作画層１
  6
CONTINUOUS
 62
    7
 10
47.5
 20
162.25
 11
55
 21
162.25
  0
LINE
  8
_0-1_作画層１
  6
CONTINUOUS
 62
    7
 10
55
 20
162.25
 11
55
 21
167.25
  0
LINE
  8
_0-1_作画層１
  6
CONTINUOUS
 62
    7
 10
55
 20
167.25
 11
47.5
 21
167.25
  0
LINE
  8
_0-1_作画層１
  6
CONTINUOUS
 62
    7
 10
47.5
 20
167.25
 11
47.5
 21
162.25
  0
LINE
  8
_0-1_作画層１
  6
CONTINUOUS
 62
    7
 10
56.769999999999982
 20
162.25
 11
64.269999999999982
 21
162.25
  0
LINE
  8
_0-1_作画層１
  6
CONTINUOUS
 62
    7
 10
64.269999999999982
 20
162.25
 11
64.269999999999982
 21
167.25
  0
LINE
  8
_0-1_作画層１
  6
CONTINUOUS
 62
    7
 10
64.269999999999982
 20
167.25
 11
56.769999999999982
 21
167.25
  0
LINE
  8
_0-1_作画層１
  6
CONTINUOUS
 62
    7
 10
56.769999999999982
 20
167.25
 11
56.769999999999982
 21
162.25
  0
LINE
  8
_0-1_作画層１
  6
CONTINUOUS
 62
    7
 10
66.039999999999992
 20
162.25
 11
73.539999999999992
 21
162.25
  0
LINE
  8
_0-1_作画層１
  6
CONTINUOUS
 62
    7
 10
73.539999999999992
 20
162.25
 11
73.539999999999992
 21
167.25
  0
LINE
  8
_0-1_作画層１
  6
CONTINUOUS
 62
    7
 10
73.539999999999992
 20
167.25
 11
66.039999999999992
 21
167.25
  0
LINE
  8
_0-1_作画層１
  6
CONTINUOUS
 62
    7
 10
66.039999999999992
 20
167.25
 11
66.039999999999992
 21
162.25
  0
LINE
  8
_0-1_作画層１
  6
CONTINUOUS
 62
    7
 10
75.310000000000002
 20
162.25
 11
82.809999999999988
 21
162.25
  0
LINE
  8
_0-1_作画層１
  6
CONTINUOUS
 62
    7
 10
82.809999999999988
 20
162.25
 11
82.809999999999988
 21
167.25
  0
LINE
  8
_0-1_作画層１
  6
CONTINUOUS
 62
    7
 10
82.809999999999988
 20
167.25
 11
75.310000000000002
 21
167.25
  0
LINE
  8
_0-1_作画層１
  6
CONTINUOUS
 62
    7
 10
75.310000000000002
 20
167.25
 11
75.310000000000002
 21
162.25
  0
LINE
  8
_0-1_作画層１
  6
CONTINUOUS
 62
    7
 10
84.579999999999984
 20
162.25
 11
92.079999999999984
 21
162.25
  0
LINE
  8
_0-1_作画層１
  6
CONTINUOUS
 62
    7
 10
92.079999999999984
 20
162.25
 11
92.079999999999984
 21
167.25
  0
LINE
  8
_0-1_作画層１
  6
CONTINUOUS
 62
    7
 10
92.079999999999984
 20
167.25
 11
84.579999999999984
 21
167.25
  0
LINE
  8
_0-1_作画層１
  6
CONTINUOUS
 62
    7
 10
84.579999999999984
 20
167.25
 11
84.579999999999984
 21
162.25
  0
LINE
  8
_0-1_作画層１
  6
CONTINUOUS
 62
    7
 10
93.84999999999998
 20
162.25
 11
101.34999999999998
 21
162.25
  0
LINE
  8
_0-1_作画層１
  6
CONTINUOUS
 62
    7
 10
101.34999999999998
 20
162.25
 11
101.34999999999998
 21
167.25
  0
LINE
  8
_0-1_作画層１
  6
CONTINUOUS
 62
    7
 10
101.34999999999998
 20
167.25
 11
93.84999999999998
 21
167.25
  0
LINE
  8
_0-1_作画層１
  6
CONTINUOUS
 62
    7
 10
93.84999999999998
 20
167.25
 11
93.84999999999998
 21
162.25
  0
LINE
  8
_0-1_作画層１
  6
CONTINUOUS
 62
    7
 10
103.11999999999998
 20
162.25
 11
110.61999999999998
 21
162.25
  0
LINE
  8
_0-1_作画層１
  6
CONTINUOUS
 62
    7
 10
110.61999999999998
 20
162.25
 11
110.61999999999998
 21
167.25
  0
LINE
  8
_0-1_作画層１
  6
CONTINUOUS
 62
    7
 10
110.61999999999998
 20
167.25
 11
103.11999999999998
 21
167.25
  0
LINE
  8
_0-1_作画層１
  6
CONTINUOUS
 62
    7
 10
103.11999999999998
 20
167.25
 11
103.11999999999998
 21
162.25
  0
TEXT
  8
_0-7_注記層１
 62
    7
 10
59.219999999999999
 20
163.5
 40
2.6000000000000001
 41
1
 50
0
  1
月
  0
TEXT
  8
_0-7_注記層１
 62
    7
 10
68.490000000000009
 20
163.5
 40
2.6000000000000001
 41
1
 50
0
  1
火
  0
TEXT
  8
_0-7_注記層１
 62
    7
 10
77.759999999999991
 20
163.5
 40
2.6000000000000001
 41
1
 50
0
  1
水
  0
TEXT
  8
_0-7_注記層１
 62
    7
 10
87.029999999999987
 20
163.5
 40
2.6000000000000001
 41
1
 50
0
  1
木
  0
TEXT
  8
_0-7_注記層１
 62
    7
 10
96.299999999999983
 20
163.5
 40
2.6000000000000001
 41
1
 50
0
  1
金
  0
TEXT
  8
_0-7_注記層１
 62
    7
 10
105.56999999999998
 20
163.5
 40
2.6000000000000001
 41
1
 50
0
  1
土
  0
LINE
  8
_0-1_作画層１
  6
CONTINUOUS
 62
    7
 10
38.75
 20
173.5
 11
46.25
 21
173.5
  0
LINE
  8
_0-1_作画層１
  6
CONTINUOUS
 62
    7
 10
46.25
 20
173.5
 11
46.25
 21
178.5
  0
LINE
  8
_0-1_作画層１
  6
CONTINUOUS
 62
    7
 10
46.25
 20
178.5
 11
38.75
 21
178.5
  0
LINE
  8
_0-1_作画層１
  6
CONTINUOUS
 62
    7
 10
38.75
 20
178.5
 11
38.75
 21
173.5
  0
TEXT
  8
_0-7_注記層１
 62
    7
 10
40.550000000000011
 20
174.75
 40
2.6000000000000001
 41
1
 50
0
  1
OUT
  0
LINE
  8
_0-1_作画層１
  6
CONTINUOUS
 62
    7
 10
48.75
 20
173.5
 11
56.25
 21
173.5
  0
LINE
  8
_0-1_作画層１
  6
CONTINUOUS
 62
    7
 10
56.25
 20
173.5
 11
56.25
 21
178.5
  0
LINE
  8
_0-1_作画層１
  6
CONTINUOUS
 62
    7
 10
56.25
 20
178.5
 11
48.75
 21
178.5
  0
LINE
  8
_0-1_作画層１
  6
CONTINUOUS
 62
    7
 10
48.75
 20
178.5
 11
48.75
 21
173.5
  0
TEXT
  8
_0-7_注記層１
 62
    7
 10
51.199999999999989
 20
174.75
 40
2.6000000000000001
 41
1
 50
0
  1
PL
  0
TEXT
  8
_0-7_注記層１
 62
    7
 10
69.650000000000006
 20
169.75
 40
2.6000000000000001
 41
1
 50
0
  1
CALENDAR-TIMER
  0
TEXT
  8
_0-7_注記層１
 62
    7
 10
103
 20
134.75
 40
2.6000000000000001
 41
1
 50
0
  1
SPARE
  0
LINE
  8
_0-d_0_1
  6
CONTINUOUS
 62
    7
 10
114.24999999999996
 20
133.89442719099992
 11
114.24999999999996
 21
138.75
  0
LINE
  8
_0-1_作画層１
  6
CONTINUOUS
 62
    7
 10
123.75
 20
267.25
 11
123.74999999999999
 21
134.89442719099992
  0
ARC
  8
_0-1_作画層１
  6
CONTINUOUS
 62
    7
 10
122.75
 20
134.89442719099989
 40
0.9999999999999856
 50
269.9999999999992
 51
0.0000000000016284
  0
LINE
  8
_0-d_0_1
  6
CONTINUOUS
 62
    7
 10
123.75
 20
142.75
 11
118.24999999999996
 21
142.75
  0
LINE
  8
_0-d_0_1
  6
CONTINUOUS
 62
    7
 10
34.749999999999972
 20
142.75
 11
40.25
 21
142.75
  0
ARC
  8
_0-1_作画層１
  6
CONTINUOUS
 62
    7
 10
123.82372440553469
 20
177.67556693087346
 40
1.4364240876579815
 50
277.04901240747893
 51
9.8121425540781306
  0
LINE
  8
_0-1_作画層１
  6
CONTINUOUS
 62
    7
 10
34.500000002701597
 20
176.25
 11
124.00069547972551
 21
176.25
  0
ARC
  8
_0-1_作画層１
  6
CONTINUOUS
 62
    7
 10
35.217082338917663
 20
178.98118990795319
 40
2.8237573185550202
 50
224.63781507073776
 51
255.28885060579768
  0
LINE
  8
_0-1_作画層１
  6
CONTINUOUS
 62
    7
 10
34.749999999999972
 20
177.5
 11
123.75
 21
177.5
  0
LINE
  8
_0-1_作画層１
  6
CONTINUOUS
 62
    7
 10
108.43424415588379
 20
179.25090789794922
 11
108.65419387817383
 21
177.96963882446289
  0
LINE
  8
_0-1_作画層１
  6
CONTINUOUS
 62
    7
 10
113.34730911254883
 20
182.71155166625977
 11
114.47964477539062
 21
182.07298278808594
  0
LINE
  8
_0-1_作画層１
  6
CONTINUOUS
 62
    7
 10
113.85941314697266
 20
183.84437942504883
 11
115.08109664916992
 21
183.39970397949219
  0
LINE
  8
_0-1_作画層１
  6
CONTINUOUS
 62
    7
 10
100.33735656738281
 20
185.14762115478516
 11
99.03339958190918
 21
184.97641754150391
  0
LINE
  8
_0-1_作画層１
  6
CONTINUOUS
 62
    7
 10
100.8667049407959
 20
183.37711334228516
 11
99.637250900268555
 21
182.84304046630859
  0
LINE
  8
_0-1_作画層１
  6
CONTINUOUS
 62
    7
 10
101.47121238708496
 20
182.29963684082031
 11
100.33264350891113
 21
181.56306076049805
  0
LINE
  8
_0-1_作画層１
  6
CONTINUOUS
 62
    7
 10
102.69811820983887
 20
180.93208694458008
 11
101.79380035400391
 21
179.89541244506836
  0
LINE
  8
_0-1_作画層１
  6
CONTINUOUS
 62
    7
 10
103.6992359161377
 20
180.2174072265625
 11
102.97130393981934
 21
179.03783798217773
  0
LINE
  8
_0-1_作画層１
  6
CONTINUOUS
 62
    7
 10
105.38418960571289
 20
179.50324630737305
 11
105.0068187713623
 21
178.15888214111328
  0
LINE
  8
_0-1_作画層１
  6
CONTINUOUS
 62
    7
 10
106.58020210266113
 20
179.1821174621582
 11
106.43844413757324
 21
177.88976669311523
  0
LINE
  8
_0-1_作画層１
  6
CONTINUOUS
 62
    7
 10
109.60512924194336
 20
179.6580924987793
 11
110.06271934509277
 21
178.34112167358398
  0
LINE
  8
_0-1_作画層１
  6
CONTINUOUS
 62
    7
 10
111.23382759094238
 20
180.49419403076172
 11
112.02966690063477
 21
179.36435699462891
  0
LINE
  8
_0-1_作画層１
  6
CONTINUOUS
 62
    7
 10
112.22982406616211
 20
181.23049926757812
 11
113.14237976074219
 21
180.30448150634766
  0
LINE
  8
_0-1_作画層１
  6
CONTINUOUS
 62
    7
 10
114.22529983520508
 20
185.66224670410156
 11
115.52977752685547
 21
185.57104110717773
  0
LINE
  8
_0-1_作画層１
  6
CONTINUOUS
 62
    7
 10
114.01148986816406
 20
187.96175384521484
 11
115.26716995239258
 21
188.29819869995117
  0
LINE
  8
_0-1_作画層１
  6
CONTINUOUS
 62
    7
 10
112.41757965087891
 20
193.14999771118164
 11
112.41757965087891
 21
192.63683128356934
  0
LINE
  8
_0-1_作画層１
  6
CONTINUOUS
 62
    7
 10
106.75000762939453
 20
192.25000953674316
 11
107.74999809265137
 21
192.25000953674316
  0
LINE
  8
_0-1_作画層１
  6
CONTINUOUS
 62
    7
 10
106.75000762939453
 20
180.24999618530273
 11
107.74999809265137
 21
180.24999618530273
  0
LINE
  8
_0-1_作画層１
  6
CONTINUOUS
 62
    7
 10
106.42728424072266
 20
181.2181510925293
 11
106.75000762939453
 21
180.24999618530273
  0
LINE
  8
_0-1_作画層１
  6
CONTINUOUS
 62
    7
 10
108.07273483276367
 20
181.2181510925293
 11
107.74999809265137
 21
180.24999618530273
  0
LINE
  8
_0-1_作画層１
  6
CONTINUOUS
 62
    7
 10
106.75000762939453
 20
192.25000953674316
 11
106.35651588439941
 21
191.06952285766602
  0
LINE
  8
_0-1_作画層１
  6
CONTINUOUS
 62
    7
 10
107.74999809265137
 20
192.25000953674316
 11
108.14350128173828
 21
191.06952285766602
  0
LINE
  8
_0-1_作画層１
  6
CONTINUOUS
 62
    7
 10
107.24999618530273
 20
193.14999771118164
 11
112.41757965087891
 21
193.14999771118164
  0
ARC
  8
_0-1_作画層１
  6
CONTINUOUS
 62
    7
 10
107.24999618530137
 20
186.1499977111805
 40
8.3000001907330994
 50
213.54869079589707
 51
228.9000396728535
  0
ARC
  8
_0-1_作画層１
  6
CONTINUOUS
 62
    7
 10
107.24999618530309
 20
186.14999771118181
 40
8.300000190735247
 50
188.12867736816489
 51
203.4800109863281
  0
ARC
  8
_0-1_作画層１
  6
CONTINUOUS
 62
    7
 10
107.24999618530225
 20
186.14999771118039
 40
8.3000001907335292
 50
238.9686737060531
 51
254.32000732421966
  0
ARC
  8
_0-1_作画層１
  6
CONTINUOUS
 62
    7
 10
107.24999618530266
 20
186.14999771118397
 40
8.3000001907371779
 50
264.3886718750021
 51
279.74002075195091
  0
ARC
  8
_0-1_作画層１
  6
CONTINUOUS
 62
    7
 10
107.24999618530205
 20
186.14999771118298
 40
8.3000001907363608
 50
289.80870056152469
 51
305.16006469726409
  0
ARC
  8
_0-1_作画層１
  6
CONTINUOUS
 62
    7
 10
107.24999618530168
 20
186.14999771118238
 40
8.300000190736144
 50
315.22863769531398
 51
330.58000183105378
  0
ARC
  8
_0-1_作画層１
  6
CONTINUOUS
 62
    7
 10
107.24999618530227
 20
186.14999771118173
 40
8.3000001907353411
 50
340.64866638183639
 51
356.00001525878855
  0
ARC
  8
_0-1_作画層１
  6
CONTINUOUS
 62
    7
 10
107.24999618530131
 20
186.25001525878861
 40
6.9999999999985185
 50
189.06088256835758
 51
204.23072814941546
  0
ARC
  8
_0-1_作画層１
  6
CONTINUOUS
 62
    7
 10
107.24999618530208
 20
186.25001525878847
 40
6.9999999999991216
 50
214.35649108886614
 51
229.43809509277435
  0
ARC
  8
_0-1_作画層１
  6
CONTINUOUS
 62
    7
 10
107.24999618530229
 20
186.25001525878804
 40
6.9999999999988898
 50
239.51904296874881
 51
254.5412292480481
  0
ARC
  8
_0-1_作画層１
  6
CONTINUOUS
 62
    7
 10
107.24999618530279
 20
186.25001525878918
 40
7.0000000000001092
 50
264.1711273193356
 51
279.05090332031187
  0
ARC
  8
_0-1_作画層１
  6
CONTINUOUS
 62
    7
 10
107.24999618530349
 20
186.25001525878776
 40
6.9999999999984999
 50
289.66058349609159
 51
304.6886444091806
  0
ARC
  8
_0-1_作画層１
  6
CONTINUOUS
 62
    7
 10
107.2499961853031
 20
186.25001525878878
 40
6.9999999999995426
 50
315.73609924316366
 51
330.49922180175849
  0
ARC
  8
_0-1_作画層１
  6
CONTINUOUS
 62
    7
 10
107.24999618530357
 20
186.25001525878884
 40
6.9999999999991349
 50
340.99609374999949
 51
355.18345642089974
  0
ARC
  8
_0-1_作画層１
  6
CONTINUOUS
 62
    7
 10
107.24999618530293
 20
186.14999771118175
 40
8.3000001907346324
 50
15.000015258788606
 51
51.458251953125611
  0
CIRCLE
  8
_0-1_作画層１
  6
CONTINUOUS
 62
    7
 10
107.24999618530273
 20
186.14999771118164
 40
3
  0
ARC
  8
_0-1_作画層１
  6
CONTINUOUS
 62
    7
 10
107.24999618530275
 20
186.14999771118164
 40
5.0000000000000107
 50
100.29397583007837
 51
260.52928161621077
  0
ARC
  8
_0-1_作画層１
  6
CONTINUOUS
 62
    7
 10
107.24999618530273
 20
186.14999771118164
 40
5.0000000000000018
 50
279.47068786621094
 51
79.706024169921776
  0
ARC
  8
_0-1_作画層１
  6
CONTINUOUS
 62
    7
 10
107.24999618530278
 20
186.14999771118173
 40
6.9999999999999263
 50
15.000030517577541
 51
90.000000000000369
  0
LINE
  8
_0-1_作画層１
  6
CONTINUOUS
 62
    7
 10
43.648777008056641
 20
257.85123062133789
 11
42.800254821777344
 21
258.69974899291992
  0
LINE
  8
_0-1_作画層１
  6
CONTINUOUS
 62
    7
 10
46.248847961425781
 20
259.35237503051758
 11
45.938262939453125
 21
260.51147842407227
  0
LINE
  8
_0-1_作画層１
  6
CONTINUOUS
 62
    7
 10
47.749992370605469
 20
260.7499885559082
 11
47.749992370605469
 21
259.55000305175781
  0
LINE
  8
_0-1_作画層１
  6
CONTINUOUS
 62
    7
 10
50.649986267089844
 20
258.77294158935547
 11
51.249990463256836
 21
259.81216430664062
  0
LINE
  8
_0-1_作画層１
  6
CONTINUOUS
 62
    7
 10
40.749992370605469
 20
253.7499885559082
 11
41.949989318847656
 21
253.7499885559082
  0
LINE
  8
_0-1_作画層１
  6
CONTINUOUS
 62
    7
 10
46.248847961425781
 20
248.14763069152832
 11
42.424270629882813
 21
248.14763069152832
  0
LINE
  8
_0-1_作画層１
  6
CONTINUOUS
 62
    7
 10
42.424270629882813
 20
248.14763069152832
 11
42.940502166748047
 21
248.66386413574219
  0
LINE
  8
_0-1_作画層１
  6
CONTINUOUS
 62
    7
 10
42.961349487304688
 20
255.18835830688477
 11
44.125541687011719
 21
255.44215774536133
  0
LINE
  8
_0-1_作画層１
  6
CONTINUOUS
 62
    7
 10
42.88372802734375
 20
254.89862823486328
 11
43.765060424804688
 21
254.09675216674805
  0
LINE
  8
_0-1_作画層１
  6
CONTINUOUS
 62
    7
 10
46.601352691650391
 20
248.88371467590332
 11
47.403228759765625
 21
249.76504516601562
  0
LINE
  8
_0-1_作画層１
  6
CONTINUOUS
 62
    7
 10
46.057823181152344
 20
250.12556457519531
 11
46.311611175537109
 21
248.96136093139648
  0
LINE
  8
_0-1_作画層１
  6
CONTINUOUS
 62
    7
 10
48.898632049560547
 20
258.61626434326172
 11
48.096765518188477
 21
257.73493194580078
  0
LINE
  8
_0-1_作画層１
  6
CONTINUOUS
 62
    7
 10
49.188371658325195
 20
258.53864288330078
 11
49.442157745361328
 21
257.37443923950195
  0
LINE
  8
_0-1_作画層１
  6
CONTINUOUS
 62
    7
 10
52.538633346557617
 20
252.31159591674805
 11
51.374441146850586
 21
252.05782318115234
  0
LINE
  8
_0-1_作画層１
  6
CONTINUOUS
 62
    7
 10
51.734935760498047
 20
253.40322685241699
 11
52.616266250610352
 21
252.60134887695312
  0
ARC
  8
_0-1_作画層１
  6
CONTINUOUS
 62
    7
 10
47.749992370605241
 20
253.74998855590718
 40
5.79999971389873
 50
60.000015258792068
 51
89.999999999997542
  0
ARC
  8
_0-1_作画層１
  6
CONTINUOUS
 62
    7
 10
47.749992370605867
 20
253.74998855590758
 40
5.7999997138984289
 50
104.99995422363479
 51
134.99993896484187
  0
ARC
  8
_0-1_作画層１
  6
CONTINUOUS
 62
    7
 10
47.749992370605355
 20
253.74998855590835
 40
6.9999999999998215
 50
104.99996948242118
 51
134.99995422363284
  0
ARC
  8
_0-1_作画層１
  6
CONTINUOUS
 62
    7
 10
47.749992370605611
 20
253.74998855590866
 40
6.9999999999995417
 50
60.000030517577208
 51
90.000000000001037
  0
ARC
  8
_0-1_作画層１
  6
CONTINUOUS
 62
    7
 10
47.749992370605611
 20
253.74998855590866
 40
6.9999999999995417
 50
60.000030517577208
 51
90.000000000001037
  0
ARC
  8
_0-1_作画層１
  6
CONTINUOUS
 62
    7
 10
47.749992370605469
 20
253.74998855590823
 40
5.7999997138977051
 50
180.00000000000028
 51
255.00004577636727
  0
ARC
  8
_0-1_作画層１
  6
CONTINUOUS
 62
    7
 10
47.749992370605469
 20
253.7499885559082
 40
6.9999999999999716
 50
180
 51
226.60130310058605
  0
ARC
  8
_0-1_作画層１
  6
CONTINUOUS
 62
    7
 10
47.749992370600467
 20
253.7499885559096
 40
4.9999999999947882
 50
163.28129577636597
 51
166.71910095215082
  0
ARC
  8
_0-1_作画層１
  6
CONTINUOUS
 62
    7
 10
47.749992370605526
 20
253.74998855590823
 40
4.0000000000000355
 50
175.02694702148472
 51
244.97319030761696
  0
ARC
  8
_0-1_作画層１
  6
CONTINUOUS
 62
    7
 10
47.749992370593418
 20
253.74998855586239
 40
4.9999999999526414
 50
253.28106689451249
 51
256.71881103517001
  0
ARC
  8
_0-1_作画層１
  6
CONTINUOUS
 62
    7
 10
47.749992370605469
 20
253.7499885559082
 40
3.9999999999999925
 50
265.02670288085937
 51
334.97319030761724
  0
ARC
  8
_0-1_作画層１
  6
CONTINUOUS
 62
    7
 10
47.749992370605469
 20
253.7499885559082
 40
3.9999999999999929
 50
85.02670288085929
 51
154.97346496582014
  0
ARC
  8
_0-1_作画層１
  6
CONTINUOUS
 62
    7
 10
47.749992370605582
 20
253.74998855590823
 40
3.9999999999999085
 50
355.02670288085909
 51
64.973190307618097
  0
ARC
  8
_0-1_作画層１
  6
CONTINUOUS
 62
    7
 10
47.749992370602996
 20
253.74998855590053
 40
5.0000000000080433
 50
73.281173706052698
 51
76.718902587883193
  0
ARC
  8
_0-1_作画層１
  6
CONTINUOUS
 62
    7
 10
47.749992370602996
 20
253.74998855590053
 40
5.0000000000080433
 50
73.281173706052698
 51
76.718902587883193
  0
ARC
  8
_0-1_作画層１
  6
CONTINUOUS
 62
    7
 10
47.749992370601944
 20
253.74998855590906
 40
5.000000000003654
 50
343.28106689453352
 51
346.71890258789051
  0
ARC
  8
_0-1_作画層１
  6
CONTINUOUS
 62
    7
 10
47.749992370601944
 20
253.74998855590906
 40
5.000000000003654
 50
343.28106689453352
 51
346.71890258789051
  0
CIRCLE
  8
_0-1_作画層１
  6
CONTINUOUS
 62
    7
 10
47.749992370605469
 20
253.7499885559082
 40
2
  0
TEXT
  8
_0-7_注記層１
 62
    7
 10
38.699999999999989
 20
257.25
 40
2.6000000000000001
 41
1
 50
0
  1
ON
  0
TEXT
  8
_0-7_注記層１
 62
    7
 10
48.050000000000011
 20
262.25
 40
2.6000000000000001
 41
1
 50
0
  1
OFF
  0
TEXT
  8
_0-7_注記層１
 62
    7
 10
95.975246548323469
 20
182.54832347140038
 40
2.2999999999999998
 41
1
 50
0
  1
日
  0
TEXT
  8
_0-7_注記層１
 62
    7
 10
97.802169625246535
 20
178.28550295857985
 40
2.2999999999999998
 41
1
 50
0
  1
月
  0
TEXT
  8
_0-7_注記層１
 62
    7
 10
111.05907297830375
 20
175.7559171597633
 40
2.2999999999999998
 41
1
 50
0
  1
木
  0
TEXT
  8
_0-7_注記層１
 62
    7
 10
114.66607495069034
 20
178.51972386587772
 40
2.2999999999999998
 41
1
 50
0
  1
金
  0
TEXT
  8
_0-7_注記層１
 62
    7
 10
116.49299802761342
 20
183.34467455621302
 40
2.2999999999999998
 41
1
 50
0
  1
土
  0
TEXT
  8
_0-7_注記層１
 62
    7
 10
106.51518737672583
 20
174.77218934911244
 40
2.2999999999999998
 41
1
 50
0
  1
水
  0
TEXT
  8
_0-7_注記層１
 62
    7
 10
101.69023668639053
 20
175.52169625246549
 40
2.2999999999999998
 41
1
 50
0
  1
火
  0
LINE
  8
_0-d_0_1
  6
CONTINUOUS
 62
    7
 10
228.875
 20
139.39624183399957
 11
228.875
 21
146.58925793433491
  0
LINE
  8
_0-d_0_1
  6
CONTINUOUS
 62
    7
 10
228.875
 20
146.58925793433491
 11
228.85000117570965
 21
146.58900794534998
  0
ARC
  8
_0-d_0_1
  6
CONTINUOUS
 62
    7
 10
228.875
 20
144.08913293671773
 40
2.5
 50
0
 51
90.572940398229505
  0
LINE
  8
_0-d_0_1
  6
CONTINUOUS
 62
    7
 10
231.375
 20
144.08913293671773
 11
231.375
 21
141.89636683161677
  0
LINE
  8
_0-d_0_1
  6
CONTINUOUS
 62
    7
 10
228.875
 20
139.39624183399957
 11
228.89999882429035
 21
139.3964918229845
  0
ARC
  8
_0-d_0_1
  6
CONTINUOUS
 62
    7
 10
228.87499999999994
 20
141.8963668316168
 40
2.5000000000000568
 50
270.5729403982308
 51
359.99999999999937
  0
LINE
  8
_0-d_0_1
  6
CONTINUOUS
 62
    7
 10
225.75000381469727
 20
142.96499177938699
 11
228.875
 21
142.99624183399956
  0
LINE
  8
_0-d_0_1
  6
CONTINUOUS
 62
    7
 10
225.75000381469727
 20
139.864991779387
 11
228.875
 21
139.89624183399957
  0
LINE
  8
_0-d_0_1
  6
CONTINUOUS
 62
    7
 10
223.75
 20
146.04499168187371
 11
228.875
 21
146.09624183399956
  0
LINE
  8
_0-d_0_1
  6
CONTINUOUS
 62
    7
 10
166.59999237060546
 20
181.0749580383301
 11
166.59999237060546
 21
186.5749580383301
  0
LINE
  8
_0-d_0_1
  6
CONTINUOUS
 62
    7
 10
166.59999237060546
 20
181.0749580383301
 11
166.59999237060546
 21
186.5749580383301
  0
LINE
  8
_0-d_0_1
  6
CONTINUOUS
 62
    7
 10
165.59999237060546
 20
186.55348562810386
 11
174.74998569488525
 21
186.74995803833011
  0
LINE
  8
_0-d_0_1
  6
CONTINUOUS
 62
    7
 10
165.59999237060546
 20
181.09643044855633
 11
165.59999237060546
 21
186.55348562810386
  0
LINE
  8
_0-d_0_1
  6
CONTINUOUS
 62
    7
 10
165.59999237060546
 20
181.09643044855633
 11
165.59999237060546
 21
186.55348562810386
  0
LINE
  8
_0-d_0_1
  6
CONTINUOUS
 62
    7
 10
165.59999237060546
 20
181.09643044855633
 11
174.74998569488525
 21
180.89995803833011
  0
LINE
  8
_0-d_0_1
  6
CONTINUOUS
 62
    7
 10
166.74998378753662
 20
186.57817871556483
 11
166.74998378753662
 21
258.24997711181641
  0
LINE
  8
_0-d_0_1
  6
CONTINUOUS
 62
    7
 10
174.74998569488525
 20
223.24998760223386
 11
166.74995899200439
 21
223.24998760223386
  0
LINE
  8
_0-d_0_1
  6
CONTINUOUS
 62
    7
 10
174.74998569488525
 20
224.24999070167539
 11
166.74995899200439
 21
224.24999070167539
  0
LINE
  8
_0-d_0_1
  6
CONTINUOUS
 62
    7
 10
174.74998569488525
 20
225.24999427795407
 11
166.74995899200439
 21
225.24999427795407
  0
LINE
  8
_0-d_0_1
  6
CONTINUOUS
 62
    7
 10
174.74998569488525
 20
226.24999761581418
 11
166.74995899200439
 21
226.24999761581418
  0
LINE
  8
_0-d_0_1
  6
CONTINUOUS
 62
    7
 10
174.74998569488525
 20
227.25000047683713
 11
166.74995899200439
 21
227.25000047683713
  0
LINE
  8
_0-d_0_1
  6
CONTINUOUS
 62
    7
 10
174.74998569488525
 20
228.25000381469724
 11
166.74995899200439
 21
228.25000381469724
  0
LINE
  8
_0-d_0_1
  6
CONTINUOUS
 62
    7
 10
174.74998569488525
 20
229.2500076293945
 11
166.74995899200439
 21
229.2500076293945
  0
LINE
  8
_0-d_0_1
  6
CONTINUOUS
 62
    7
 10
174.74998569488525
 20
230.25001049041745
 11
166.74995899200439
 21
230.25001049041745
  0
LINE
  8
_0-d_0_1
  6
CONTINUOUS
 62
    7
 10
174.74998569488525
 20
231.24998950958249
 11
166.74995899200439
 21
231.24998950958249
  0
LINE
  8
_0-d_0_1
  6
CONTINUOUS
 62
    7
 10
174.74998569488525
 20
221.24998092651364
 11
166.74995899200439
 21
221.24998092651364
  0
LINE
  8
_0-d_0_1
  6
CONTINUOUS
 62
    7
 10
174.74998569488525
 20
220.24997758865354
 11
166.74995899200439
 21
220.24997758865354
  0
LINE
  8
_0-d_0_1
  6
CONTINUOUS
 62
    7
 10
174.74998569488525
 20
219.24997425079343
 11
166.74995899200439
 21
219.24997425079343
  0
LINE
  8
_0-d_0_1
  6
CONTINUOUS
 62
    7
 10
174.74998569488525
 20
218.2499711513519
 11
166.74995899200439
 21
218.2499711513519
  0
LINE
  8
_0-d_0_1
  6
CONTINUOUS
 62
    7
 10
174.74998569488525
 20
217.24996757507327
 11
166.74995899200439
 21
217.24996757507327
  0
LINE
  8
_0-d_0_1
  6
CONTINUOUS
 62
    7
 10
174.74998569488525
 20
216.24996423721316
 11
166.74995899200439
 21
216.24996423721316
  0
LINE
  8
_0-d_0_1
  6
CONTINUOUS
 62
    7
 10
174.74998569488525
 20
215.24996137619021
 11
166.74995899200439
 21
215.24996137619021
  0
LINE
  8
_0-d_0_1
  6
CONTINUOUS
 62
    7
 10
174.74998569488525
 20
214.24995803833011
 11
166.74995899200439
 21
214.24995803833011
  0
LINE
  8
_0-d_0_1
  6
CONTINUOUS
 62
    7
 10
174.74998569488525
 20
213.24995422363284
 11
166.74995899200439
 21
213.24995422363284
  0
LINE
  8
_0-d_0_1
  6
CONTINUOUS
 62
    7
 10
174.74998569488525
 20
212.24995136260989
 11
166.74995899200439
 21
212.24995136260989
  0
LINE
  8
_0-d_0_1
  6
CONTINUOUS
 62
    7
 10
174.74998569488525
 20
211.24997234344485
 11
166.74995899200439
 21
211.24997234344485
  0
LINE
  8
_0-d_0_1
  6
CONTINUOUS
 62
    7
 10
174.74998569488525
 20
211.24998092651364
 11
166.74995899200439
 21
211.24998092651364
  0
LINE
  8
_0-d_0_1
  6
CONTINUOUS
 62
    7
 10
174.74998569488525
 20
210.24997758865354
 11
166.74995899200439
 21
210.24997758865354
  0
LINE
  8
_0-d_0_1
  6
CONTINUOUS
 62
    7
 10
174.74998569488525
 20
209.24997425079343
 11
166.74995899200439
 21
209.24997425079343
  0
LINE
  8
_0-d_0_1
  6
CONTINUOUS
 62
    7
 10
174.74998569488525
 20
208.2499711513519
 11
166.74995899200439
 21
208.2499711513519
  0
LINE
  8
_0-d_0_1
  6
CONTINUOUS
 62
    7
 10
174.74998569488525
 20
207.24996757507327
 11
166.74995899200439
 21
207.24996757507327
  0
LINE
  8
_0-d_0_1
  6
CONTINUOUS
 62
    7
 10
174.74998569488525
 20
206.24996423721316
 11
166.74995899200439
 21
206.24996423721316
  0
LINE
  8
_0-d_0_1
  6
CONTINUOUS
 62
    7
 10
174.74998569488525
 20
205.24996137619021
 11
166.74995899200439
 21
205.24996137619021
  0
LINE
  8
_0-d_0_1
  6
CONTINUOUS
 62
    7
 10
174.74998569488525
 20
204.24995803833011
 11
166.74995899200439
 21
204.24995803833011
  0
LINE
  8
_0-d_0_1
  6
CONTINUOUS
 62
    7
 10
174.74998569488525
 20
203.24995422363284
 11
166.74995899200439
 21
203.24995422363284
  0
LINE
  8
_0-d_0_1
  6
CONTINUOUS
 62
    7
 10
174.74998569488525
 20
202.24995136260989
 11
166.74995899200439
 21
202.24995136260989
  0
LINE
  8
_0-d_0_1
  6
CONTINUOUS
 62
    7
 10
174.74998569488525
 20
201.24997234344485
 11
166.74995899200439
 21
201.24997234344485
  0
LINE
  8
_0-d_0_1
  6
CONTINUOUS
 62
    7
 10
174.74998569488525
 20
241.24998760223386
 11
166.74995899200439
 21
241.24998760223386
  0
LINE
  8
_0-d_0_1
  6
CONTINUOUS
 62
    7
 10
174.74998569488525
 20
242.24999070167539
 11
166.74995899200439
 21
242.24999070167539
  0
LINE
  8
_0-d_0_1
  6
CONTINUOUS
 62
    7
 10
174.74998569488525
 20
243.24999427795407
 11
166.74995899200439
 21
243.24999427795407
  0
LINE
  8
_0-d_0_1
  6
CONTINUOUS
 62
    7
 10
174.74998569488525
 20
244.24999761581418
 11
166.74995899200439
 21
244.24999761581418
  0
LINE
  8
_0-d_0_1
  6
CONTINUOUS
 62
    7
 10
174.74998569488525
 20
245.25000047683713
 11
166.74995899200439
 21
245.25000047683713
  0
LINE
  8
_0-d_0_1
  6
CONTINUOUS
 62
    7
 10
174.74998569488525
 20
246.25000381469724
 11
166.74995899200439
 21
246.25000381469724
  0
LINE
  8
_0-d_0_1
  6
CONTINUOUS
 62
    7
 10
174.74998569488525
 20
247.2500076293945
 11
166.74995899200439
 21
247.2500076293945
  0
LINE
  8
_0-d_0_1
  6
CONTINUOUS
 62
    7
 10
174.74998569488525
 20
248.25001049041745
 11
166.74995899200439
 21
248.25001049041745
  0
LINE
  8
_0-d_0_1
  6
CONTINUOUS
 62
    7
 10
174.74998569488525
 20
249.24998950958249
 11
166.74995899200439
 21
249.24998950958249
  0
LINE
  8
_0-d_0_1
  6
CONTINUOUS
 62
    7
 10
174.74998569488525
 20
232.24998760223386
 11
166.74995899200439
 21
232.24998760223386
  0
LINE
  8
_0-d_0_1
  6
CONTINUOUS
 62
    7
 10
174.74998569488525
 20
233.24999070167539
 11
166.74995899200439
 21
233.24999070167539
  0
LINE
  8
_0-d_0_1
  6
CONTINUOUS
 62
    7
 10
174.74998569488525
 20
234.24999427795407
 11
166.74995899200439
 21
234.24999427795407
  0
LINE
  8
_0-d_0_1
  6
CONTINUOUS
 62
    7
 10
174.74998569488525
 20
235.24999761581418
 11
166.74995899200439
 21
235.24999761581418
  0
LINE
  8
_0-d_0_1
  6
CONTINUOUS
 62
    7
 10
174.74998569488525
 20
236.25000047683713
 11
166.74995899200439
 21
236.25000047683713
  0
LINE
  8
_0-d_0_1
  6
CONTINUOUS
 62
    7
 10
174.74998569488525
 20
237.25000381469724
 11
166.74995899200439
 21
237.25000381469724
  0
LINE
  8
_0-d_0_1
  6
CONTINUOUS
 62
    7
 10
174.74998569488525
 20
238.2500076293945
 11
166.74995899200439
 21
238.2500076293945
  0
LINE
  8
_0-d_0_1
  6
CONTINUOUS
 62
    7
 10
174.74998569488525
 20
239.25001049041745
 11
166.74995899200439
 21
239.25001049041745
  0
LINE
  8
_0-d_0_1
  6
CONTINUOUS
 62
    7
 10
174.74998569488525
 20
240.24998950958249
 11
166.74995899200439
 21
240.24998950958249
  0
LINE
  8
_0-d_0_1
  6
CONTINUOUS
 62
    7
 10
174.74998569488525
 20
192.24998760223386
 11
166.74995899200439
 21
192.24998760223386
  0
LINE
  8
_0-d_0_1
  6
CONTINUOUS
 62
    7
 10
174.74998569488525
 20
193.24999070167539
 11
166.74995899200439
 21
193.24999070167539
  0
LINE
  8
_0-d_0_1
  6
CONTINUOUS
 62
    7
 10
174.74998569488525
 20
194.24999427795407
 11
166.74995899200439
 21
194.24999427795407
  0
LINE
  8
_0-d_0_1
  6
CONTINUOUS
 62
    7
 10
174.74998569488525
 20
195.24999761581418
 11
166.74995899200439
 21
195.24999761581418
  0
LINE
  8
_0-d_0_1
  6
CONTINUOUS
 62
    7
 10
174.74998569488525
 20
196.25000047683713
 11
166.74995899200439
 21
196.25000047683713
  0
LINE
  8
_0-d_0_1
  6
CONTINUOUS
 62
    7
 10
174.74998569488525
 20
197.25000381469724
 11
166.74995899200439
 21
197.25000381469724
  0
LINE
  8
_0-d_0_1
  6
CONTINUOUS
 62
    7
 10
174.74998569488525
 20
198.2500076293945
 11
166.74995899200439
 21
198.2500076293945
  0
LINE
  8
_0-d_0_1
  6
CONTINUOUS
 62
    7
 10
174.74998569488525
 20
199.25001049041745
 11
166.74995899200439
 21
199.25001049041745
  0
LINE
  8
_0-d_0_1
  6
CONTINUOUS
 62
    7
 10
174.74998569488525
 20
200.24998950958249
 11
166.74995899200439
 21
200.24998950958249
  0
LINE
  8
_0-d_0_1
  6
CONTINUOUS
 62
    7
 10
174.74998569488525
 20
250.24999761581418
 11
166.74995899200439
 21
250.24999761581418
  0
LINE
  8
_0-d_0_1
  6
CONTINUOUS
 62
    7
 10
174.74998569488525
 20
251.25000047683713
 11
166.74995899200439
 21
251.25000047683713
  0
LINE
  8
_0-d_0_1
  6
CONTINUOUS
 62
    7
 10
174.74998569488525
 20
252.25000381469724
 11
166.74995899200439
 21
252.25000381469724
  0
LINE
  8
_0-d_0_1
  6
CONTINUOUS
 62
    7
 10
174.74998569488525
 20
253.2500076293945
 11
166.74995899200439
 21
253.2500076293945
  0
LINE
  8
_0-d_0_1
  6
CONTINUOUS
 62
    7
 10
174.74998569488525
 20
254.25001049041745
 11
166.74995899200439
 21
254.25001049041745
  0
LINE
  8
_0-d_0_1
  6
CONTINUOUS
 62
    7
 10
174.74998569488525
 20
255.24998950958249
 11
166.74995899200439
 21
255.24998950958249
  0
LINE
  8
_0-d_0_1
  6
CONTINUOUS
 62
    7
 10
174.74998569488525
 20
187.25000047683713
 11
166.74995899200439
 21
187.25000047683713
  0
LINE
  8
_0-d_0_1
  6
CONTINUOUS
 62
    7
 10
174.74998569488525
 20
188.25000381469724
 11
166.74995899200439
 21
188.25000381469724
  0
LINE
  8
_0-d_0_1
  6
CONTINUOUS
 62
    7
 10
174.74998569488525
 20
189.2500076293945
 11
166.74995899200439
 21
189.2500076293945
  0
LINE
  8
_0-d_0_1
  6
CONTINUOUS
 62
    7
 10
174.74998569488525
 20
190.25001049041745
 11
166.74995899200439
 21
190.25001049041745
  0
LINE
  8
_0-d_0_1
  6
CONTINUOUS
 62
    7
 10
174.74998569488525
 20
191.24998950958249
 11
166.74995899200439
 21
191.24998950958249
  0
LINE
  8
_0-d_0_1
  6
CONTINUOUS
 62
    7
 10
174.74998569488525
 20
255.2500076293945
 11
166.74995899200439
 21
255.2500076293945
  0
LINE
  8
_0-d_0_1
  6
CONTINUOUS
 62
    7
 10
174.74998569488525
 20
256.25001049041748
 11
166.74995899200439
 21
256.25001049041748
  0
LINE
  8
_0-d_0_1
  6
CONTINUOUS
 62
    7
 10
174.74998569488525
 20
257.24998950958252
 11
166.74995899200439
 21
257.24998950958252
  0
LINE
  8
_0-d_0_1
  6
CONTINUOUS
 62
    7
 10
174.74998569488525
 20
258.24997711181641
 11
166.74998378753662
 21
258.24997711181641
  0
INSERT
  2
-000-_D0
  8
_0-9_寸法線層１
 10
6.25
 20
4.75
 41
1
 42
1
 50
0
  0
INSERT
  2
-001-_D1
  8
_0-9_寸法線層１
 10
6.25
 20
4.75
 41
1
 42
1
 50
0
  0
INSERT
  2
-002-_D2
  8
_0-9_寸法線層１
 10
6.25
 20
4.75
 41
1
 42
1
 50
0
  0
LINE
  8
_0-1_作画層１
  6
CONTINUOUS
 62
    7
 10
124.24999999999999
 20
129.75
 11
34.25
 21
129.75
  0
LINE
  8
_0-1_作画層１
  6
CONTINUOUS
 62
    7
 10
31.25
 20
268.75
 11
31.25
 21
132.75
  0
ARC
  8
_0-1_作画層１
  6
CONTINUOUS
 62
    7
 10
34.249999999999972
 20
132.74999999999997
 40
2.9999999999999716
 50
179.99999999999946
 51
270.00000000000051
  0
LINE
  8
_0-1_作画層１
  6
CONTINUOUS
 62
    7
 10
33.25
 20
268.75508260033854
 11
33.25
 21
133.64442719099992
  0
ARC
  8
_0-1_作画層１
  6
CONTINUOUS
 62
    7
 10
34.25
 20
133.64442719099992
 40
1
 50
180
 51
270.00000000000063
  0
LINE
  8
_0-1_作画層１
  6
CONTINUOUS
 62
    7
 10
34.25
 20
132.64442719099992
 11
124.24999999999999
 21
132.64442719099992
  0
ARC
  8
_0-d_0_1
  6
CONTINUOUS
 62
    7
 10
40.25000005077797
 20
138.74999829893699
 40
4.0000000000000213
 50
0
 51
89.999999999999687
  0
LINE
  8
_0-1_作画層１
  6
CONTINUOUS
 62
    7
 10
58.749999999999943
 20
139.14442719099992
 11
46.249999999999943
 21
139.14442719099992
  0
LINE
  8
_0-1_作画層１
  6
CONTINUOUS
 62
    7
 10
46.249999999999943
 20
139.14442719099992
 11
46.249999999999943
 21
147.14442719099992
  0
LINE
  8
_0-1_作画層１
  6
CONTINUOUS
 62
    7
 10
47.249999999999943
 20
140.64442719099992
 11
47.249999999999943
 21
145.64442719099992
  0
LINE
  8
_0-1_作画層１
  6
CONTINUOUS
 62
    7
 10
47.249999999999943
 20
140.64442719099992
 11
57.749999999999943
 21
140.64442719099992
  0
LINE
  8
_0-1_作画層１
  6
CONTINUOUS
 62
    7
 10
51.749999999999943
 20
145.64442719099992
 11
51.749999999999943
 21
140.64442719099992
  0
LINE
  8
_0-1_作画層１
  6
CONTINUOUS
 62
    7
 10
53.249999999999943
 20
145.64442719099992
 11
53.249999999999943
 21
140.64442719099992
  0
TEXT
  8
_0-7_注記層１
 62
    7
 10
49.25
 20
134.75
 40
2.6000000000000001
 41
1
 50
0
  1
SPARE
  0
LINE
  8
_0-d_0_1
  6
CONTINUOUS
 62
    7
 10
44.25
 20
133.89442719099992
 11
44.25
 21
138.75
  0
LINE
  8
_0-1_作画層１
  6
CONTINUOUS
 62
    7
 10
122.74999999999999
 20
133.89442719099992
 11
35.5
 21
133.89442719099992
  0
LINE
  8
_0-1_作画層１
  6
CONTINUOUS
 62
    7
 10
34.749999999999972
 20
267.25
 11
34.749999999999972
 21
134.89442719099995
  0
ARC
  8
_0-1_作画層１
  6
CONTINUOUS
 62
    7
 10
35.749999999999943
 20
134.89442719099992
 40
0.9999999999999785
 50
179.99999999999838
 51
270.00000000000119
  0
LINE
  8
_0-1_作画層１
  6
CONTINUOUS
 62
    7
 10
188.04112377850163
 20
179.36797638436485
 11
218.04112377850163
 21
179.36797638436485
  0
LINE
  8
_0-1_作画層１
  6
CONTINUOUS
 62
    7
 10
218.04112377850163
 20
179.36797638436485
 11
218.04112377850163
 21
239.36797638436485
  0
LINE
  8
_0-1_作画層１
  6
CONTINUOUS
 62
    7
 10
218.04112377850163
 20
239.36797638436485
 11
188.04112377850163
 21
239.36797638436485
  0
LINE
  8
_0-1_作画層１
  6
CONTINUOUS
 62
    7
 10
188.04112377850163
 20
239.36797638436485
 11
188.04112377850163
 21
179.36797638436485
  0
LINE
  8
_0-1_作画層１
  6
CONTINUOUS
 62
    7
 10
199.2911237785016
 20
188.11797638436488
 11
199.2911237785016
 21
230.61797638436488
  0
LINE
  8
_0-1_作画層１
  6
CONTINUOUS
 62
    7
 10
199.2911237785016
 20
230.61797638436488
 11
208.0411237785016
 21
230.61797638436488
  0
LINE
  8
_0-1_作画層１
  6
CONTINUOUS
 62
    7
 10
208.0411237785016
 20
230.61797638436488
 11
208.0411237785016
 21
188.11797638436488
  0
LINE
  8
_0-1_作画層１
  6
CONTINUOUS
 62
    7
 10
208.0411237785016
 20
188.11797638436488
 11
199.2911237785016
 21
188.11797638436488
  0
LINE
  8
_0-1_作画層１
  6
CONTINUOUS
 62
    7
 10
203.6661237785016
 20
192.34132595491533
 11
201.01447334905205
 21
194.99297638436488
  0
LINE
  8
_0-1_作画層１
  6
CONTINUOUS
 62
    7
 10
201.01447334905205
 20
194.99297638436488
 11
203.6661237785016
 21
197.64462681381443
  0
LINE
  8
_0-1_作画層１
  6
CONTINUOUS
 62
    7
 10
203.6661237785016
 20
197.64462681381443
 11
206.31777420795115
 21
194.99297638436488
  0
LINE
  8
_0-1_作画層１
  6
CONTINUOUS
 62
    7
 10
206.31777420795115
 20
194.99297638436488
 11
203.6661237785016
 21
192.34132595491533
  0
TEXT
  8
_0-7_注記層１
 62
    7
 10
203.99112377850159
 20
194.04297638436489
 40
1.8999999999999999
 41
1
 50
90
  1
PS
  0
TEXT
  8
_0-7_注記層１
 62
    7
 10
205.89112377850157
 20
194.51797638436489
 40
1.8999999999999999
 41
1
 50
90
  1
E
  0
TEXT
  8
_0-7_注記層１
 62
    7
 10
207.1661237785016
 20
196.61797638436488
 40
2
 41
1
 50
90
  1
JET
  0
TEXT
  8
_0-7_注記層１
 62
    7
 10
211.69112377850161
 20
188.74297638436488
 40
2.2999999999999998
 41
1
 50
90
  1
製造年月
  0
TEXT
  8
_0-7_注記層１
 62
    7
 10
211.69112377850161
 20
223.74297638436488
 40
2.2999999999999998
 41
1
 50
90
  1
盤内用
  0
CIRCLE
  8
_0-d_0_1
  6
CONTINUOUS
 62
    7
 10
269.50000320475573
 20
100.24999883959295
 40
1
  0
CIRCLE
  8
_0-d_0_1
  6
CONTINUOUS
 62
    7
 10
311.00000320475573
 20
100.24999883959295
 40
1
  0
LINE
  8
_0-1_作画層１
  6
CONTINUOUS
 62
    7
 10
307.73781967163086
 20
67.745292663574219
 11
307.73781967163086
 21
70.245290756225586
  0
LINE
  8
_0-1_作画層１
  6
CONTINUOUS
 62
    7
 10
307.73781967163086
 20
67.745292663574219
 11
307.73781967163086
 21
66.000003814697266
  0
LINE
  8
_0-1_作画層１
  6
CONTINUOUS
 62
    7
 10
272.73782157897949
 20
70.245290756225586
 11
272.73782157897949
 21
66.000003814697266
  0
CIRCLE
  8
_0-1_作画層１
  6
CONTINUOUS
 62
    7
 10
270.4999942779541
 20
70.250017166137695
 40
2.25
  0
CIRCLE
  8
_0-1_作画層１
  6
CONTINUOUS
 62
    7
 10
310.00000190734863
 20
70.250017166137695
 40
2.25
  0
CIRCLE
  8
_0-1_作画層１
  6
CONTINUOUS
 62
    7
 10
270.4999942779541
 20
70.250017166137695
 40
0.75
  0
CIRCLE
  8
_0-1_作画層１
  6
CONTINUOUS
 62
    7
 10
310.00000190734863
 20
70.250017166137695
 40
0.75
  0
LINE
  8
_0-d_0_1
  6
CONTINUOUS
 62
    7
 10
267.74999809265137
 20
65.999988555908203
 11
274.49999618530273
 21
65.999988555908203
  0
ARC
  8
_0-d_0_1
  6
CONTINUOUS
 62
    7
 10
312.75000320475579
 20
67.499979766106605
 40
1.4999999999999929
 50
269.99999999999784
 51
0.0000000000003053
  0
ARC
  8
_0-d_0_1
  6
CONTINUOUS
 62
    7
 10
267.75000320475567
 20
67.499979766106605
 40
1.4999999999999432
 50
179.99999999999974
 51
270.0000000000021
  0
LINE
  8
_0-d_0_1
  6
CONTINUOUS
 62
    7
 10
274.49999618530273
 20
65.999988555908203
 11
312.75000381469727
 21
65.999988555908203
  0
LINE
  8
_0-d_0_1
  6
CONTINUOUS
 62
    7
 10
266.25
 20
134.2500114440918
 11
266.25
 21
67.25
  0
LINE
  8
_0-d_0_1
  6
CONTINUOUS
 62
    7
 10
312.75000381469727
 20
135.75000381469727
 11
267.74999809265137
 21
135.75000381469727
  0
LINE
  8
_0-d_0_1
  6
CONTINUOUS
 62
    7
 10
311.99999618530273
 20
134.50000381469727
 11
268.5
 21
134.50000381469727
  0
LINE
  8
_0-d_0_1
  6
CONTINUOUS
 62
    7
 10
312.99999809265137
 20
66.999992370605469
 11
312.99999809265137
 21
133.50000762939453
  0
LINE
  8
_0-d_0_1
  6
CONTINUOUS
 62
    7
 10
267.49999809265137
 20
66.999992370605469
 11
267.49999809265137
 21
133.50000762939453
  0
LINE
  8
_0-d_0_1
  6
CONTINUOUS
 62
    7
 10
287.23782658576965
 20
130.24529075622559
 11
287.23782658576965
 21
127.24528694152833
  0
LINE
  8
_0-d_0_1
  6
CONTINUOUS
 62
    7
 10
293.23782157897949
 20
130.24529075622559
 11
293.23782157897949
 21
127.24528694152833
  0
LINE
  8
_0-d_0_1
  6
CONTINUOUS
 62
    7
 10
289.4378325343132
 20
130.24999809265137
 11
289.4378325343132
 21
128.79670333862305
  0
LINE
  8
_0-d_0_1
  6
CONTINUOUS
 62
    7
 10
291.03780937194824
 20
130.24999809265137
 11
291.03780937194824
 21
128.78978729248047
  0
ARC
  8
_0-d_0_1
  6
CONTINUOUS
 62
    7
 10
267.75000320475567
 20
134.25001409838202
 40
1.4999999999999716
 50
89.999999999997826
 51
180.00000000000105
  0
ARC
  8
_0-d_0_1
  6
CONTINUOUS
 62
    7
 10
312.75000320475579
 20
134.25001409838202
 40
1.4999999999999432
 50
359.99999999999892
 51
90.00000000000216
  0
ARC
  8
_0-d_0_1
  6
CONTINUOUS
 62
    7
 10
268.50000320475573
 20
133.50001409838202
 40
0.9999999999999714
 50
90
 51
180.00000000000162
  0
ARC
  8
_0-d_0_1
  6
CONTINUOUS
 62
    7
 10
312.00000320475573
 20
133.50001409838202
 40
1
 50
359.99999999999835
 51
90.000000000000014
  0
ARC
  8
_0-d_0_1
  6
CONTINUOUS
 62
    7
 10
290.2378266910838
 20
130.24528387377262
 40
0.8000000119210124
 50
0.3370971679715827
 51
179.66290283202838
  0
ARC
  8
_0-d_0_1
  6
CONTINUOUS
 62
    7
 10
290.23782669108385
 20
127.24528387377264
 40
1.7500000000000049
 50
117.27784729003849
 51
62.617691040038949
  0
ARC
  8
_0-d_0_1
  6
CONTINUOUS
 62
    7
 10
290.23782669108385
 20
127.24528387377264
 40
3
 50
180
 51
0
  0
ARC
  8
_0-d_0_1
  6
CONTINUOUS
 62
    7
 10
290.23782669108385
 20
130.24528387377262
 40
3
 50
0.0000000000002714
 51
179.99999999999974
  0
INSERT
  2
-003-_D3
  8
_0-9_寸法線層１
 10
6.25
 20
4.75
 41
1
 42
1
 50
0
  0
INSERT
  2
-004-_D4
  8
_0-9_寸法線層１
 10
6.25
 20
4.75
 41
1
 42
1
 50
0
  0
LINE
  8
_0-d_0_1
  6
CONTINUOUS
 62
    7
 10
314.24999618530273
 20
67.49539083269471
 11
314.24999618530273
 21
134.2500114440918
  0
INSERT
  2
-005-_D5
  8
_0-9_寸法線層１
 10
6.25
 20
4.75
 41
1
 42
1
 50
0
  0
CIRCLE
  8
_0-1_作画層１
  6
CONTINUOUS
 62
    7
 10
293.49999809265137
 20
114.80000381469726
 40
1.25
  0
CIRCLE
  8
_0-1_作画層１
  6
CONTINUOUS
 62
    7
 10
293.49999809265137
 20
114.80000381469726
 40
1
  0
LINE
  8
_0-1_作画層１
  6
CONTINUOUS
 62
    7
 10
293.46457654723127
 20
115.75234120521176
 11
293.46457654723127
 21
113.8142304560261
  0
LINE
  8
_0-1_作画層１
  6
CONTINUOUS
 62
    7
 10
294.3124815650504
 20
113.4365877698948
 11
295.68293281849014
 21
112.06613651645506
  0
LINE
  8
_0-1_作画層１
  6
CONTINUOUS
 62
    7
 10
293.46457654723127
 20
113.25234120521176
 11
293.46457654723127
 21
111.3142304560261
  0
TEXT
  8
_0-7_注記層１
 62
    7
 10
292.53422042544446
 20
108.39263121671199
 40
2
 41
1
 50
0
  1
60
  0
TEXT
  8
_0-7_注記層１
 62
    7
 10
296.47925593586535
 20
109.51441295420993
 40
2
 41
1
 50
45
  1
50
  0
LINE
  8
_0-1_作画層１
  6
CONTINUOUS
 62
    7
 10
302.61000022888186
 20
104.50000381469727
 11
302.61000022888186
 21
104.66000900268554
  0
LINE
  8
_0-1_作画層１
  6
CONTINUOUS
 62
    7
 10
302.61000022888186
 20
104.50000381469727
 11
302.61000022888186
 21
104.34000930786132
  0
LINE
  8
_0-1_作画層１
  6
CONTINUOUS
 62
    7
 10
303.8899913787842
 20
104.50000381469727
 11
303.8899913787842
 21
104.34000930786132
  0
LINE
  8
_0-1_作画層１
  6
CONTINUOUS
 62
    7
 10
303.8899913787842
 20
104.50000381469727
 11
303.8899913787842
 21
104.66000900268554
  0
LINE
  8
_0-1_作画層１
  6
CONTINUOUS
 62
    7
 10
303.24999809265137
 20
105.1400032043457
 11
303.40999717712401
 21
105.1400032043457
  0
LINE
  8
_0-1_作画層１
  6
CONTINUOUS
 62
    7
 10
303.24999809265137
 20
105.1400032043457
 11
303.08999900817872
 21
105.1400032043457
  0
LINE
  8
_0-1_作画層１
  6
CONTINUOUS
 62
    7
 10
303.24999809265137
 20
103.86000595092773
 11
303.08999900817872
 21
103.86000595092773
  0
LINE
  8
_0-1_作画層１
  6
CONTINUOUS
 62
    7
 10
303.24999809265137
 20
103.86000595092773
 11
303.40999717712401
 21
103.86000595092773
  0
LINE
  8
_0-1_作画層１
  6
CONTINUOUS
 62
    7
 10
302.92999382019042
 20
104.66000900268554
 11
302.61000022888186
 21
104.66000900268554
  0
LINE
  8
_0-1_作画層１
  6
CONTINUOUS
 62
    7
 10
303.08999900817872
 20
104.82001266479492
 11
303.08999900817872
 21
105.1400032043457
  0
LINE
  8
_0-1_作画層１
  6
CONTINUOUS
 62
    7
 10
303.40999717712401
 20
104.82001266479492
 11
303.40999717712401
 21
105.1400032043457
  0
LINE
  8
_0-1_作画層１
  6
CONTINUOUS
 62
    7
 10
303.57000236511232
 20
104.66000900268554
 11
303.8899913787842
 21
104.66000900268554
  0
LINE
  8
_0-1_作画層１
  6
CONTINUOUS
 62
    7
 10
303.57000236511232
 20
104.34000930786132
 11
303.8899913787842
 21
104.34000930786132
  0
LINE
  8
_0-1_作画層１
  6
CONTINUOUS
 62
    7
 10
303.40999717712401
 20
104.18000564575195
 11
303.40999717712401
 21
103.86000595092773
  0
LINE
  8
_0-1_作画層１
  6
CONTINUOUS
 62
    7
 10
303.08999900817872
 20
104.18000564575195
 11
303.08999900817872
 21
103.86000595092773
  0
LINE
  8
_0-1_作画層１
  6
CONTINUOUS
 62
    7
 10
302.92999382019042
 20
104.34000930786132
 11
302.61000022888186
 21
104.34000930786132
  0
CIRCLE
  8
_0-1_作画層１
  6
CONTINUOUS
 62
    7
 10
303.24999809265137
 20
104.50000381469727
 40
0.9600000381469725
  0
ARC
  8
_0-1_作画層１
  6
CONTINUOUS
 62
    7
 10
302.92999382019042
 20
104.82001266479492
 40
0.1600000023841801
 50
270
 51
0
  0
ARC
  8
_0-1_作画層１
  6
CONTINUOUS
 62
    7
 10
303.57000236511226
 20
104.82001266479493
 40
0.1600000023841517
 50
180.00000000000512
 51
270.00000000002035
  0
ARC
  8
_0-1_作画層１
  6
CONTINUOUS
 62
    7
 10
303.57000236511232
 20
104.18000564575195
 40
0.1600000023841942
 50
90
 51
180
  0
ARC
  8
_0-1_作画層１
  6
CONTINUOUS
 62
    7
 10
302.92999382019048
 20
104.18000564575195
 40
0.1600000023841517
 50
0
 51
90.000000000020364
  0
LINE
  8
_0-d_0_1
  6
CONTINUOUS
 62
    7
 10
100.00000572204591
 20
71.250000000000028
 11
58.499994277954102
 21
71.250000000000028
  0
LINE
  8
_0-d_0_1
  6
CONTINUOUS
 62
    7
 10
34.75
 20
92.24999427795413
 11
33.75
 21
71.250000000000028
  0
LINE
  8
_0-d_0_1
  6
CONTINUOUS
 62
    7
 10
127.24999618530275
 20
71.250000000000028
 11
127.24999618530275
 21
69.249997377395658
  0
LINE
  8
_0-d_0_1
  6
CONTINUOUS
 62
    7
 10
31.250003814697266
 20
69.249997377395658
 11
127.24999618530275
 21
69.249997377395658
  0
LINE
  8
_0-d_0_1
  6
CONTINUOUS
 62
    7
 10
31.250003814697266
 20
71.250000000000028
 11
127.24999618530275
 21
71.250000000000028
  0
LINE
  8
_0-d_0_1
  6
CONTINUOUS
 62
    7
 10
31.250003814697266
 20
69.249997377395658
 11
31.250003814697266
 21
71.250000000000028
  0
LINE
  8
_0-d_0_1
  6
CONTINUOUS
 62
    7
 10
34.75
 20
92.24999427795413
 11
123.75000000000001
 21
92.24999427795413
  0
LINE
  8
_0-d_0_1
  6
CONTINUOUS
 62
    7
 10
124.75001907348634
 20
64.250008106231718
 11
124.75001907348634
 21
24.249988555908232
  0
LINE
  8
_0-d_0_1
  6
CONTINUOUS
 62
    7
 10
33.75
 20
64.250008106231718
 11
33.75
 21
24.249988555908232
  0
LINE
  8
_0-d_0_1
  6
CONTINUOUS
 62
    7
 10
127.24999618530275
 20
71.250000000000028
 11
127.24999618530275
 21
64.250008106231718
  0
LINE
  8
_0-d_0_1
  6
CONTINUOUS
 62
    7
 10
31.250003814697266
 20
64.250008106231718
 11
127.24999618530275
 21
64.250008106231718
  0
LINE
  8
_0-d_0_1
  6
CONTINUOUS
 62
    7
 10
31.250003814697266
 20
64.250008106231718
 11
31.250003814697266
 21
71.250000000000028
  0
LINE
  8
_0-d_0_1
  6
CONTINUOUS
 62
    7
 10
31.250003814697266
 20
71.250000000000028
 11
127.24999618530275
 21
71.250000000000028
  0
LINE
  8
_0-d_0_1
  6
CONTINUOUS
 62
    7
 10
124.27381965741287
 20
81.24999427795413
 11
34.226190333463677
 21
81.24999427795413
  0
LINE
  8
_0-d_0_1
  6
CONTINUOUS
 62
    7
 10
122.36905959512428
 20
79.249994277954102
 11
122.75001907348634
 21
71.250000000000028
  0
LINE
  8
_0-d_0_1
  6
CONTINUOUS
 62
    7
 10
124.27381965741286
 20
81.249994277954102
 11
123.75000000000001
 21
92.24999427795413
  0
LINE
  8
_0-d_0_1
  6
CONTINUOUS
 62
    7
 10
124.27381965741286
 20
81.249994277954102
 11
124.75001907348634
 21
71.250000000000028
  0
LINE
  8
_0-d_0_1
  6
CONTINUOUS
 62
    7
 10
122.36905959512428
 20
79.24999427795413
 11
36.130952212275247
 21
79.24999427795413
  0
LINE
  8
_0-d_0_1
  6
CONTINUOUS
 62
    7
 10
36.130952212275247
 20
79.249994277954102
 11
35.75
 21
71.250000000000028
  0
LINE
  8
_0-d_0_1
  6
CONTINUOUS
 62
    7
 10
36.654761878811598
 20
90.249994277954102
 11
36.226190333463677
 21
81.249994277954102
  0
LINE
  8
_0-d_0_1
  6
CONTINUOUS
 62
    7
 10
121.84523993771145
 20
90.24999427795413
 11
36.654761878811598
 21
90.24999427795413
  0
LINE
  8
_0-d_0_1
  6
CONTINUOUS
 62
    7
 10
121.84523993771144
 20
90.249994277954102
 11
122.27381965741286
 21
81.249994277954102
  0
LINE
  8
_0-d_0_1
  6
CONTINUOUS
 62
    7
 10
122.25001907348634
 20
24.249988555908232
 11
122.25001907348634
 21
22.100008106231712
  0
LINE
  8
_0-d_0_1
  6
CONTINUOUS
 62
    7
 10
36.249980926513615
 20
24.249988555908232
 11
36.249980926513615
 21
22.100008106231712
  0
LINE
  8
_0-d_0_1
  6
CONTINUOUS
 62
    7
 10
114.25000572204588
 20
24.249988555908232
 11
124.75001907348634
 21
24.249988555908232
  0
LINE
  8
_0-d_0_1
  6
CONTINUOUS
 62
    7
 10
114.25000572204588
 20
22.100008106231712
 11
122.25001907348634
 21
22.100008106231712
  0
LINE
  8
_0-1_作画層１
  6
CONTINUOUS
 62
    7
 10
114.25000572204588
 20
22.100008106231712
 11
114.25000572204588
 21
57.249988555908232
  0
ARC
  8
_0-1_作画層１
  6
CONTINUOUS
 62
    7
 10
112.25000572204587
 20
57.249988555908232
 40
2.0000000000000071
 50
0.0000000000002036
 51
89.999999999999588
  0
LINE
  8
_0-d_0_1
  6
CONTINUOUS
 62
    7
 10
44.249994277954045
 20
22.100008106231712
 11
36.249980926513615
 21
22.100008106231712
  0
LINE
  8
_0-d_0_1
  6
CONTINUOUS
 62
    7
 10
44.249994277954045
 20
24.249988555908232
 11
33.749980926513615
 21
24.249988555908232
  0
LINE
  8
_0-1_作画層１
  6
CONTINUOUS
 62
    7
 10
112.25000572204588
 20
59.249988555908232
 11
46.249994277954045
 21
59.249988555908232
  0
LINE
  8
_0-1_作画層１
  6
CONTINUOUS
 62
    7
 10
44.249994277954045
 20
22.100008106231712
 11
44.249994277954073
 21
57.249988555908232
  0
ARC
  8
_0-1_作画層１
  6
CONTINUOUS
 62
    7
 10
46.249994277954045
 20
57.24998855590826
 40
1.9999999999999645
 50
89.999999999999389
 51
180.00000000000102
  0
LINE
  8
_0-1_作画層１
  6
CENTER
 62
    7
 10
79.25
 20
14.75
 11
79.25
 21
96.867976384364852
  0
LINE
  8
_0-1_作画層１
  6
CONTINUOUS
 62
    7
 10
60.750009536743164
 20
124.75000762939453
 11
60.750009536743164
 21
125.25002288818359
  0
LINE
  8
_0-1_作画層１
  6
CONTINUOUS
 62
    7
 10
60.750009536743164
 20
124.75000762939453
 11
60.750009536743164
 21
124.25000762939453
  0
LINE
  8
_0-1_作画層１
  6
CONTINUOUS
 62
    7
 10
64.75001049041748
 20
124.75000762939453
 11
64.75001049041748
 21
124.25000762939453
  0
LINE
  8
_0-1_作画層１
  6
CONTINUOUS
 62
    7
 10
64.75001049041748
 20
124.75000762939453
 11
64.75001049041748
 21
125.25002288818359
  0
LINE
  8
_0-1_作画層１
  6
CONTINUOUS
 62
    7
 10
62.750015258789063
 20
126.75001525878906
 11
63.250018119812012
 21
126.75001525878906
  0
LINE
  8
_0-1_作画層１
  6
CONTINUOUS
 62
    7
 10
62.750015258789063
 20
126.75001525878906
 11
62.250001907348633
 21
126.75001525878906
  0
LINE
  8
_0-1_作画層１
  6
CONTINUOUS
 62
    7
 10
62.750015258789063
 20
122.75001525878906
 11
62.250001907348633
 21
122.75001525878906
  0
LINE
  8
_0-1_作画層１
  6
CONTINUOUS
 62
    7
 10
62.750015258789063
 20
122.75001525878906
 11
63.250018119812012
 21
122.75001525878906
  0
LINE
  8
_0-1_作画層１
  6
CONTINUOUS
 62
    7
 10
61.75001335144043
 20
125.25002288818359
 11
60.750009536743164
 21
125.25002288818359
  0
LINE
  8
_0-1_作画層１
  6
CONTINUOUS
 62
    7
 10
62.250001907348633
 20
125.75001525878906
 11
62.250001907348633
 21
126.75001525878906
  0
LINE
  8
_0-1_作画層１
  6
CONTINUOUS
 62
    7
 10
63.250018119812012
 20
125.75001525878906
 11
63.250018119812012
 21
126.75001525878906
  0
LINE
  8
_0-1_作画層１
  6
CONTINUOUS
 62
    7
 10
63.750019073486328
 20
125.25002288818359
 11
64.75001049041748
 21
125.25002288818359
  0
LINE
  8
_0-1_作画層１
  6
CONTINUOUS
 62
    7
 10
63.750019073486328
 20
124.25000762939453
 11
64.75001049041748
 21
124.25000762939453
  0
LINE
  8
_0-1_作画層１
  6
CONTINUOUS
 62
    7
 10
63.250018119812012
 20
123.75002288818359
 11
63.250018119812012
 21
122.75001525878906
  0
LINE
  8
_0-1_作画層１
  6
CONTINUOUS
 62
    7
 10
62.250001907348633
 20
123.75002288818359
 11
62.250001907348633
 21
122.75001525878906
  0
LINE
  8
_0-1_作画層１
  6
CONTINUOUS
 62
    7
 10
61.75001335144043
 20
124.25000762939453
 11
60.750009536743164
 21
124.25000762939453
  0
LINE
  8
_0-1_作画層１
  6
CONTINUOUS
 62
    7
 10
71.750008583068848
 20
124.75000762939453
 11
71.750008583068848
 21
125.25002288818359
  0
LINE
  8
_0-1_作画層１
  6
CONTINUOUS
 62
    7
 10
71.750008583068848
 20
124.75000762939453
 11
71.750008583068848
 21
124.25000762939453
  0
LINE
  8
_0-1_作画層１
  6
CONTINUOUS
 62
    7
 10
75.750009298324585
 20
124.75000762939453
 11
75.750009298324585
 21
124.25000762939453
  0
LINE
  8
_0-1_作画層１
  6
CONTINUOUS
 62
    7
 10
75.750009298324585
 20
124.75000762939453
 11
75.750009298324585
 21
125.25002288818359
  0
LINE
  8
_0-1_作画層１
  6
CONTINUOUS
 62
    7
 10
73.750015258789063
 20
126.75001525878906
 11
74.250016689300537
 21
126.75001525878906
  0
LINE
  8
_0-1_作画層１
  6
CONTINUOUS
 62
    7
 10
73.750015258789063
 20
126.75001525878906
 11
73.250000953674316
 21
126.75001525878906
  0
LINE
  8
_0-1_作画層１
  6
CONTINUOUS
 62
    7
 10
73.750015258789063
 20
122.75001525878906
 11
73.250000953674316
 21
122.75001525878906
  0
LINE
  8
_0-1_作画層１
  6
CONTINUOUS
 62
    7
 10
73.750015258789063
 20
122.75001525878906
 11
74.250016689300537
 21
122.75001525878906
  0
LINE
  8
_0-1_作画層１
  6
CONTINUOUS
 62
    7
 10
72.750011920928955
 20
125.25002288818359
 11
71.750008583068848
 21
125.25002288818359
  0
LINE
  8
_0-1_作画層１
  6
CONTINUOUS
 62
    7
 10
73.250000953674316
 20
125.75001525878906
 11
73.250000953674316
 21
126.75001525878906
  0
LINE
  8
_0-1_作画層１
  6
CONTINUOUS
 62
    7
 10
74.250016689300537
 20
125.75001525878906
 11
74.250016689300537
 21
126.75001525878906
  0
LINE
  8
_0-1_作画層１
  6
CONTINUOUS
 62
    7
 10
74.750006198883057
 20
125.25002288818359
 11
75.750009298324585
 21
125.25002288818359
  0
LINE
  8
_0-1_作画層１
  6
CONTINUOUS
 62
    7
 10
74.750006198883057
 20
124.25000762939453
 11
75.750009298324585
 21
124.25000762939453
  0
LINE
  8
_0-1_作画層１
  6
CONTINUOUS
 62
    7
 10
74.250016689300537
 20
123.75002288818359
 11
74.250016689300537
 21
122.75001525878906
  0
LINE
  8
_0-1_作画層１
  6
CONTINUOUS
 62
    7
 10
73.250000953674316
 20
123.75002288818359
 11
73.250000953674316
 21
122.75001525878906
  0
LINE
  8
_0-1_作画層１
  6
CONTINUOUS
 62
    7
 10
72.750011920928955
 20
124.25000762939453
 11
71.750008583068848
 21
124.25000762939453
  0
LINE
  8
_0-1_作画層１
  6
CONTINUOUS
 62
    7
 10
82.750007629394545
 20
124.75000762939453
 11
82.750007629394545
 21
125.25002288818359
  0
LINE
  8
_0-1_作画層１
  6
CONTINUOUS
 62
    7
 10
82.750007629394545
 20
124.75000762939453
 11
82.750007629394545
 21
124.25000762939453
  0
LINE
  8
_0-1_作画層１
  6
CONTINUOUS
 62
    7
 10
86.750008583068862
 20
124.75000762939453
 11
86.750008583068862
 21
124.25000762939453
  0
LINE
  8
_0-1_作画層１
  6
CONTINUOUS
 62
    7
 10
86.750008583068862
 20
124.75000762939453
 11
86.750008583068862
 21
125.25002288818359
  0
LINE
  8
_0-1_作画層１
  6
CONTINUOUS
 62
    7
 10
84.750001907348647
 20
126.75001525878906
 11
85.250015735626235
 21
126.75001525878906
  0
LINE
  8
_0-1_作画層１
  6
CONTINUOUS
 62
    7
 10
84.750001907348647
 20
126.75001525878906
 11
84.250000476837172
 21
126.75001525878906
  0
LINE
  8
_0-1_作画層１
  6
CONTINUOUS
 62
    7
 10
84.750001907348647
 20
122.75001525878906
 11
84.250000476837172
 21
122.75001525878906
  0
LINE
  8
_0-1_作画層１
  6
CONTINUOUS
 62
    7
 10
84.750001907348647
 20
122.75001525878906
 11
85.250015735626235
 21
122.75001525878906
  0
LINE
  8
_0-1_作画層１
  6
CONTINUOUS
 62
    7
 10
83.750010967254653
 20
125.25002288818359
 11
82.750007629394545
 21
125.25002288818359
  0
LINE
  8
_0-1_作画層１
  6
CONTINUOUS
 62
    7
 10
84.250000476837172
 20
125.75001525878906
 11
84.250000476837172
 21
126.75001525878906
  0
LINE
  8
_0-1_作画層１
  6
CONTINUOUS
 62
    7
 10
85.250015735626235
 20
125.75001525878906
 11
85.250015735626235
 21
126.75001525878906
  0
LINE
  8
_0-1_作画層１
  6
CONTINUOUS
 62
    7
 10
85.750005245208754
 20
125.25002288818359
 11
86.750008583068862
 21
125.25002288818359
  0
LINE
  8
_0-1_作画層１
  6
CONTINUOUS
 62
    7
 10
85.750005245208754
 20
124.25000762939453
 11
86.750008583068862
 21
124.25000762939453
  0
LINE
  8
_0-1_作画層１
  6
CONTINUOUS
 62
    7
 10
85.250015735626235
 20
123.75002288818359
 11
85.250015735626235
 21
122.75001525878906
  0
LINE
  8
_0-1_作画層１
  6
CONTINUOUS
 62
    7
 10
84.250000476837172
 20
123.75002288818359
 11
84.250000476837172
 21
122.75001525878906
  0
LINE
  8
_0-1_作画層１
  6
CONTINUOUS
 62
    7
 10
83.750010967254653
 20
124.25000762939453
 11
82.750007629394545
 21
124.25000762939453
  0
LINE
  8
_0-1_作画層１
  6
CONTINUOUS
 62
    7
 10
93.750006675720229
 20
124.75000762939453
 11
93.750006675720229
 21
125.25003814697266
  0
LINE
  8
_0-1_作画層１
  6
CONTINUOUS
 62
    7
 10
93.750006675720229
 20
124.75000762939453
 11
93.750006675720229
 21
124.25000762939453
  0
LINE
  8
_0-1_作画層１
  6
CONTINUOUS
 62
    7
 10
97.750007629394545
 20
124.75000762939453
 11
97.750007629394545
 21
124.25000762939453
  0
LINE
  8
_0-1_作画層１
  6
CONTINUOUS
 62
    7
 10
97.750007629394545
 20
124.75000762939453
 11
97.750007629394545
 21
125.25003814697266
  0
LINE
  8
_0-1_作画層１
  6
CONTINUOUS
 62
    7
 10
95.750001907348647
 20
126.75001525878906
 11
96.250015258789077
 21
126.75001525878906
  0
LINE
  8
_0-1_作画層１
  6
CONTINUOUS
 62
    7
 10
95.750001907348647
 20
126.75001525878906
 11
95.250000000000014
 21
126.75001525878906
  0
LINE
  8
_0-1_作画層１
  6
CONTINUOUS
 62
    7
 10
95.750001907348647
 20
122.75001525878906
 11
95.250000000000014
 21
122.75001525878906
  0
LINE
  8
_0-1_作画層１
  6
CONTINUOUS
 62
    7
 10
95.750001907348647
 20
122.75001525878906
 11
96.250015258789077
 21
122.75001525878906
  0
LINE
  8
_0-1_作画層１
  6
CONTINUOUS
 62
    7
 10
94.749998092651381
 20
125.25003814697266
 11
93.750006675720229
 21
125.25003814697266
  0
LINE
  8
_0-1_作画層１
  6
CONTINUOUS
 62
    7
 10
95.250000000000014
 20
125.75001525878906
 11
95.250000000000014
 21
126.75001525878906
  0
LINE
  8
_0-1_作画層１
  6
CONTINUOUS
 62
    7
 10
96.250015258789077
 20
125.75001525878906
 11
96.250015258789077
 21
126.75001525878906
  0
LINE
  8
_0-1_作画層１
  6
CONTINUOUS
 62
    7
 10
96.75000381469728
 20
125.25003814697266
 11
97.750007629394545
 21
125.25003814697266
  0
LINE
  8
_0-1_作画層１
  6
CONTINUOUS
 62
    7
 10
96.75000381469728
 20
124.25000762939453
 11
97.750007629394545
 21
124.25000762939453
  0
LINE
  8
_0-1_作画層１
  6
CONTINUOUS
 62
    7
 10
96.250015258789077
 20
123.75002288818359
 11
96.250015258789077
 21
122.75001525878906
  0
LINE
  8
_0-1_作画層１
  6
CONTINUOUS
 62
    7
 10
95.250000000000014
 20
123.75002288818359
 11
95.250000000000014
 21
122.75001525878906
  0
LINE
  8
_0-1_作画層１
  6
CONTINUOUS
 62
    7
 10
94.749998092651381
 20
124.25000762939453
 11
93.750006675720229
 21
124.25000762939453
  0
LINE
  8
_0-1_作画層１
  6
CONTINUOUS
 62
    7
 10
49.750009536743164
 20
126.75000762939453
 11
49.750009536743164
 21
127.50000762939453
  0
LINE
  8
_0-1_作画層１
  6
CONTINUOUS
 62
    7
 10
49.750009536743164
 20
126.75000762939453
 11
49.750009536743164
 21
126
  0
LINE
  8
_0-1_作画層１
  6
CONTINUOUS
 62
    7
 10
55.750017166137695
 20
126.75000762939453
 11
55.750017166137695
 21
126
  0
LINE
  8
_0-1_作画層１
  6
CONTINUOUS
 62
    7
 10
55.750017166137695
 20
126.75000762939453
 11
55.750017166137695
 21
127.50000762939453
  0
LINE
  8
_0-1_作画層１
  6
CONTINUOUS
 62
    7
 10
52.750020980834961
 20
123.74999237060547
 11
52.000017166137695
 21
123.74999237060547
  0
LINE
  8
_0-1_作画層１
  6
CONTINUOUS
 62
    7
 10
52.750020980834961
 20
123.74999237060547
 11
53.500009536743164
 21
123.74999237060547
  0
LINE
  8
_0-1_作画層１
  6
CONTINUOUS
 62
    7
 10
51.250003814697266
 20
127.50000762939453
 11
49.750009536743164
 21
127.50000762939453
  0
LINE
  8
_0-1_作画層１
  6
CONTINUOUS
 62
    7
 10
52.000017166137695
 20
128.25002288818359
 11
52.000017166137695
 21
129.75
  0
LINE
  8
_0-1_作画層１
  6
CONTINUOUS
 62
    7
 10
53.500009536743164
 20
128.25002288818359
 11
53.500009536743164
 21
129.75
  0
LINE
  8
_0-1_作画層１
  6
CONTINUOUS
 62
    7
 10
54.250024795532227
 20
127.50000762939453
 11
55.750017166137695
 21
127.50000762939453
  0
LINE
  8
_0-1_作画層１
  6
CONTINUOUS
 62
    7
 10
54.250024795532227
 20
126
 11
55.750017166137695
 21
126
  0
LINE
  8
_0-1_作画層１
  6
CONTINUOUS
 62
    7
 10
53.500009536743164
 20
125.24998474121094
 11
53.500009536743164
 21
123.74999237060547
  0
LINE
  8
_0-1_作画層１
  6
CONTINUOUS
 62
    7
 10
52.000017166137695
 20
125.24998474121094
 11
52.000017166137695
 21
123.74999237060547
  0
LINE
  8
_0-1_作画層１
  6
CONTINUOUS
 62
    7
 10
51.250003814697266
 20
126
 11
49.750009536743164
 21
126
  0
LINE
  8
_0-1_作画層１
  6
CONTINUOUS
 62
    7
 10
104.74999427795412
 20
126.75000762939453
 11
104.74999427795412
 21
127.00000762939453
  0
LINE
  8
_0-1_作画層１
  6
CONTINUOUS
 62
    7
 10
104.74999427795412
 20
126.75000762939453
 11
104.74999427795412
 21
126.5
  0
LINE
  8
_0-1_作画層１
  6
CONTINUOUS
 62
    7
 10
106.75000000000001
 20
126.75000762939453
 11
106.75000000000001
 21
126.5
  0
LINE
  8
_0-1_作画層１
  6
CONTINUOUS
 62
    7
 10
106.75000000000001
 20
126.75000762939453
 11
106.75000000000001
 21
127.00000762939453
  0
LINE
  8
_0-1_作画層１
  6
CONTINUOUS
 62
    7
 10
105.74999618530275
 20
127.75000762939453
 11
106.00000953674318
 21
127.75000762939453
  0
LINE
  8
_0-1_作画層１
  6
CONTINUOUS
 62
    7
 10
105.74999618530275
 20
127.75000762939453
 11
105.49999618530275
 21
127.75000762939453
  0
LINE
  8
_0-1_作画層１
  6
CONTINUOUS
 62
    7
 10
105.74999618530275
 20
125.75
 11
105.49999618530275
 21
125.75
  0
LINE
  8
_0-1_作画層１
  6
CONTINUOUS
 62
    7
 10
105.74999618530275
 20
125.75
 11
106.00000953674318
 21
125.75
  0
LINE
  8
_0-1_作画層１
  6
CONTINUOUS
 62
    7
 10
105.24999427795412
 20
127.00000762939453
 11
104.74999427795412
 21
127.00000762939453
  0
LINE
  8
_0-1_作画層１
  6
CONTINUOUS
 62
    7
 10
105.49999618530275
 20
127.25001525878906
 11
105.49999618530275
 21
127.75000762939453
  0
LINE
  8
_0-1_作画層１
  6
CONTINUOUS
 62
    7
 10
106.00000953674318
 20
127.25001525878906
 11
106.00000953674318
 21
127.75000762939453
  0
LINE
  8
_0-1_作画層１
  6
CONTINUOUS
 62
    7
 10
106.25001144409181
 20
127.00000762939453
 11
106.75000000000001
 21
127.00000762939453
  0
LINE
  8
_0-1_作画層１
  6
CONTINUOUS
 62
    7
 10
106.25001144409181
 20
126.5
 11
106.75000000000001
 21
126.5
  0
LINE
  8
_0-1_作画層１
  6
CONTINUOUS
 62
    7
 10
106.00000953674318
 20
126.24999237060547
 11
106.00000953674318
 21
125.75
  0
LINE
  8
_0-1_作画層１
  6
CONTINUOUS
 62
    7
 10
105.49999618530275
 20
126.24999237060547
 11
105.49999618530275
 21
125.75
  0
LINE
  8
_0-1_作画層１
  6
CONTINUOUS
 62
    7
 10
105.24999427795412
 20
126.5
 11
104.74999427795412
 21
126.5
  0
LINE
  8
_0-1_作画層１
  6
CONTINUOUS
 62
    7
 10
107.9215774536133
 20
120.75000762939453
 11
102.25000953674318
 21
120.75000762939453
  0
LINE
  8
_0-1_作画層１
  6
CONTINUOUS
 62
    7
 10
107.9215774536133
 20
120.75000762939453
 11
110.75001335144044
 21
123.57843017578125
  0
LINE
  8
_0-1_作画層１
  6
CONTINUOUS
 62
    7
 10
50.578439712524414
 20
120.75000762939453
 11
56.250007629394531
 21
120.75000762939453
  0
LINE
  8
_0-1_作画層１
  6
CONTINUOUS
 62
    7
 10
50.578439712524414
 20
120.75000762939453
 11
47.750003814697266
 21
123.57843017578125
  0
LINE
  8
_0-1_作画層１
  6
CONTINUOUS
 62
    7
 10
67.250005722045898
 20
119.25001525878906
 11
58.25001335144043
 21
119.25001525878906
  0
LINE
  8
_0-1_作画層１
  6
CONTINUOUS
 62
    7
 10
78.25000524520874
 20
119.25001525878906
 11
69.250012397766113
 21
119.25001525878906
  0
LINE
  8
_0-1_作画層１
  6
CONTINUOUS
 62
    7
 10
89.250004768371596
 20
119.25001525878906
 11
80.250011801719666
 21
119.25001525878906
  0
LINE
  8
_0-1_作画層１
  6
CONTINUOUS
 62
    7
 10
100.25000381469728
 20
119.25001525878906
 11
91.250010490417495
 21
119.25001525878906
  0
LINE
  8
_0-1_作画層１
  6
CONTINUOUS
 62
    7
 10
110.75001335144044
 20
123.57843017578125
 11
110.75001335144044
 21
129.75
  0
LINE
  8
_0-1_作画層１
  6
CONTINUOUS
 62
    7
 10
47.750003814697266
 20
123.57843017578125
 11
47.750003814697266
 21
129.75
  0
LINE
  8
_0-1_作画層１
  6
CONTINUOUS
 62
    7
 10
112.24999237060548
 20
122.95710754394531
 11
112.24999237060548
 21
129.75
  0
LINE
  8
_0-1_作画層１
  6
CONTINUOUS
 62
    7
 10
108.54290008544923
 20
119.25000762939453
 11
112.24999237060548
 21
122.95710754394531
  0
LINE
  8
_0-1_作画層１
  6
CONTINUOUS
 62
    7
 10
108.54290008544923
 20
119.25000762939453
 11
103.75000190734865
 21
119.25000762939453
  0
LINE
  8
_0-1_作画層１
  6
CONTINUOUS
 62
    7
 10
49.957117080688477
 20
119.25000762939453
 11
54.750015258789063
 21
119.25000762939453
  0
LINE
  8
_0-1_作画層１
  6
CONTINUOUS
 62
    7
 10
49.957117080688477
 20
119.25000762939453
 11
46.250011444091797
 21
122.95712280273437
  0
LINE
  8
_0-1_作画層１
  6
CONTINUOUS
 62
    7
 10
46.250011444091797
 20
122.95712280273437
 11
46.250011444091797
 21
129.75
  0
CIRCLE
  8
_0-1_作画層１
  6
CONTINUOUS
 62
    7
 10
62.750015258789063
 20
124.75000762939453
 40
3
  0
ARC
  8
_0-1_作画層１
  6
CONTINUOUS
 62
    7
 10
61.750013351440458
 20
125.75001525878905
 40
0.4999999999999856
 50
269.9999999999992
 51
0.0000000000016284
  0
ARC
  8
_0-1_作画層１
  6
CONTINUOUS
 62
    7
 10
63.750019073486328
 20
125.75001525878905
 40
0.4999999999999927
 50
179.99999999999838
 51
270.0000000000008
  0
ARC
  8
_0-1_作画層１
  6
CONTINUOUS
 62
    7
 10
63.750019073486328
 20
123.75002288818361
 40
0.4999999999999856
 50
89.99999999999919
 51
180.00000000000162
  0
ARC
  8
_0-1_作画層１
  6
CONTINUOUS
 62
    7
 10
61.750013351440458
 20
123.75002288818361
 40
0.4999999999999927
 50
359.99999999999835
 51
90.00000000000081
  0
CIRCLE
  8
_0-1_作画層１
  6
CONTINUOUS
 62
    7
 10
73.750015258789063
 20
124.75000762939453
 40
3
  0
ARC
  8
_0-1_作画層１
  6
CONTINUOUS
 62
    7
 10
72.750011920928983
 20
125.75001525878905
 40
0.4999999999999856
 50
269.99999999999835
 51
0.0000000000016666
  0
ARC
  8
_0-1_作画層１
  6
CONTINUOUS
 62
    7
 10
74.750006198883057
 20
125.75001525878905
 40
0.4999999999999856
 50
179.99999999999838
 51
270.00000000000159
  0
ARC
  8
_0-1_作画層１
  6
CONTINUOUS
 62
    7
 10
74.750006198883057
 20
123.75002288818361
 40
0.4999999999999856
 50
89.99999999999838
 51
180.00000000000162
  0
ARC
  8
_0-1_作画層１
  6
CONTINUOUS
 62
    7
 10
72.750011920928983
 20
123.75002288818361
 40
0.4999999999999856
 50
359.99999999999835
 51
90.000000000001663
  0
CIRCLE
  8
_0-1_作画層１
  6
CONTINUOUS
 62
    7
 10
84.750001907348647
 20
124.75000762939453
 40
3
  0
ARC
  8
_0-1_作画層１
  6
CONTINUOUS
 62
    7
 10
83.750010967254667
 20
125.75001525878905
 40
0.4999999999999856
 50
269.99999999999835
 51
0.0000000000016666
  0
ARC
  8
_0-1_作画層１
  6
CONTINUOUS
 62
    7
 10
85.75000524520874
 20
125.75001525878905
 40
0.4999999999999856
 50
179.99999999999838
 51
270.00000000000159
  0
ARC
  8
_0-1_作画層１
  6
CONTINUOUS
 62
    7
 10
85.75000524520874
 20
123.75002288818361
 40
0.4999999999999856
 50
89.99999999999838
 51
180.00000000000162
  0
ARC
  8
_0-1_作画層１
  6
CONTINUOUS
 62
    7
 10
83.750010967254667
 20
123.75002288818361
 40
0.4999999999999856
 50
359.99999999999835
 51
90.000000000001663
  0
CIRCLE
  8
_0-1_作画層１
  6
CONTINUOUS
 62
    7
 10
95.750001907348647
 20
124.75000762939453
 40
3
  0
ARC
  8
_0-1_作画層１
  6
CONTINUOUS
 62
    7
 10
94.749998092651396
 20
125.75001525878905
 40
0.4999999999999856
 50
269.99999999999835
 51
0.0000000000016666
  0
ARC
  8
_0-1_作画層１
  6
CONTINUOUS
 62
    7
 10
96.750003814697266
 20
125.75001525878905
 40
0.4999999999999856
 50
179.99999999999838
 51
270.00000000000159
  0
ARC
  8
_0-1_作画層１
  6
CONTINUOUS
 62
    7
 10
96.750003814697266
 20
123.75002288818361
 40
0.4999999999999856
 50
89.99999999999838
 51
180.00000000000162
  0
ARC
  8
_0-1_作画層１
  6
CONTINUOUS
 62
    7
 10
94.749998092651396
 20
123.75002288818361
 40
0.4999999999999856
 50
359.99999999999835
 51
90.000000000001663
  0
ARC
  8
_0-1_作画層１
  6
CONTINUOUS
 62
    7
 10
51.250003814697294
 20
128.25002288818359
 40
0.7499999999999856
 50
269.99999999999886
 51
0.0000000000010941
  0
ARC
  8
_0-1_作画層１
  6
CONTINUOUS
 62
    7
 10
54.250024795532227
 20
128.25002288818359
 40
0.7499999999999856
 50
179.99999999999892
 51
270.00000000000114
  0
ARC
  8
_0-1_作画層１
  6
CONTINUOUS
 62
    7
 10
54.250024795532227
 20
125.24998474121095
 40
0.7499999999999856
 50
89.99999999999892
 51
180.00000000000108
  0
ARC
  8
_0-1_作画層１
  6
CONTINUOUS
 62
    7
 10
51.250003814697294
 20
125.24998474121095
 40
0.7499999999999856
 50
359.99999999999892
 51
90.000000000001094
  0
CIRCLE
  8
_0-1_作画層１
  6
CONTINUOUS
 62
    7
 10
105.74999618530275
 20
126.75000762939453
 40
1.5
  0
ARC
  8
_0-1_作画層１
  6
CONTINUOUS
 62
    7
 10
105.24999427795412
 20
127.25001525878906
 40
0.25
 50
270
 51
0
  0
ARC
  8
_0-1_作画層１
  6
CONTINUOUS
 62
    7
 10
106.25001144409181
 20
127.25001525878906
 40
0.25
 50
180
 51
270
  0
ARC
  8
_0-1_作画層１
  6
CONTINUOUS
 62
    7
 10
106.25001144409181
 20
126.24999237060547
 40
0.25
 50
90
 51
180
  0
ARC
  8
_0-1_作画層１
  6
CONTINUOUS
 62
    7
 10
105.24999427795412
 20
126.24999237060547
 40
0.25
 50
0
 51
90
  0
ARC
  8
_0-1_作画層１
  6
CONTINUOUS
 62
    7
 10
52.750020980834961
 20
126.75000762939452
 40
4.5000000000000133
 50
139.39877319335918
 51
40.601364135742301
  0
INSERT
  2
-006-_D6
  8
_0-9_寸法線層１
 10
6.25
 20
4.75
 41
1
 42
1
 50
0
  0
LINE
  8
_0-1_作画層１
  6
CONTINUOUS
 62
    7
 10
103.66780241369595
 20
116.74321985009966
 11
54.667815765136396
 21
116.74321985009966
  0
LINE
  8
_0-1_作画層１
  6
CONTINUOUS
 62
    7
 10
100.25000381469728
 20
116.74321985009966
 11
100.25000381469728
 21
129.75
  0
LINE
  8
_0-1_作画層１
  6
CONTINUOUS
 62
    7
 10
58.25001335144043
 20
116.74321985009966
 11
58.25001335144043
 21
129.75
  0
LINE
  8
_0-1_作画層１
  6
CONTINUOUS
 62
    7
 10
91.250010490417495
 20
116.74321985009966
 11
91.250010490417495
 21
129.75
  0
LINE
  8
_0-1_作画層１
  6
CONTINUOUS
 62
    7
 10
89.250004768371596
 20
116.74321985009966
 11
89.250004768371596
 21
129.75
  0
LINE
  8
_0-1_作画層１
  6
CONTINUOUS
 62
    7
 10
80.250011801719666
 20
116.74321985009966
 11
80.250011801719666
 21
129.75
  0
LINE
  8
_0-1_作画層１
  6
CONTINUOUS
 62
    7
 10
69.250012397766113
 20
116.74321985009966
 11
69.250012397766113
 21
129.75
  0
LINE
  8
_0-1_作画層１
  6
CONTINUOUS
 62
    7
 10
67.250005722045898
 20
116.74321985009966
 11
67.250005722045898
 21
129.75
  0
LINE
  8
_0-1_作画層１
  6
CONTINUOUS
 62
    7
 10
78.25000524520874
 20
116.74321985009966
 11
78.25000524520874
 21
129.75
  0
LINE
  8
_0-1_作画層１
  6
CONTINUOUS
 62
    7
 10
102.25000953674318
 20
116.74321985009966
 11
102.25000953674318
 21
129.75
  0
LINE
  8
_0-1_作画層１
  6
CONTINUOUS
 62
    7
 10
56.250007629394531
 20
116.74321985009966
 11
56.250007629394531
 21
123.92156982421875
  0
LINE
  8
_0-1_作画層１
  6
CONTINUOUS
 62
    7
 10
54.750015258789063
 20
116.74321985009966
 11
54.750015258789063
 21
119.25000762939453
  0
LINE
  8
_0-1_作画層１
  6
CONTINUOUS
 62
    7
 10
103.75000190734865
 20
116.74321985009966
 11
103.75000190734865
 21
119.25000762939453
  0
LINE
  8
_0-1_作画層１
  6
CENTER
 62
    7
 10
79.25
 20
112.25
 11
79.25
 21
276.75
  0
LINE
  8
_0-1_作画層１
  6
CONTINUOUS
 62
    7
 10
44.25
 20
134.87
 11
114.24999999999996
 21
134.87
  0
INSERT
  2
-007-_D7
  8
_0-9_寸法線層１
 10
6.25
 20
4.75
 41
1
 42
1
 50
0
  0
INSERT
  2
-008-_D8
  8
_0-9_寸法線層１
 10
6.25
 20
4.75
 41
1
 42
1
 50
0
  0
CIRCLE
  8
_0-1_作画層１
  6
CONTINUOUS
 62
    7
 10
156.25
 20
59.75
 40
5
  0
LINE
  8
_0-1_作画層１
  6
CONTINUOUS
 62
    7
 10
155
 20
64.125
 11
157.5
 21
64.125
  0
LINE
  8
_0-1_作画層１
  6
CONTINUOUS
 62
    7
 10
157.5
 20
55.375
 11
155
 21
55.375
  0
LINE
  8
_0-1_作画層１
  6
CONTINUOUS
 62
    7
 10
160.625
 20
61
 11
160.625
 21
58.5
  0
LINE
  8
_0-1_作画層１
  6
CONTINUOUS
 62
    7
 10
151.875
 20
58.5
 11
151.875
 21
61
  0
ARC
  8
_0-1_作画層１
  6
CONTINUOUS
 62
    7
 10
154.00000000000003
 20
61.999999999999972
 40
0.9999999999999714
 50
269.99999999999835
 51
0.0000000000012086
  0
LINE
  8
_0-1_作画層１
  6
CONTINUOUS
 62
    7
 10
151.875
 20
58.5
 11
154
 21
58.5
  0
ARC
  8
_0-1_作画層１
  6
CONTINUOUS
 62
    7
 10
154.00000000000003
 20
57.500000000000028
 40
0.9999999999999785
 50
359.99999999999881
 51
90.00000000000162
  0
LINE
  8
_0-1_作画層１
  6
CONTINUOUS
 62
    7
 10
160.625
 20
61
 11
158.5
 21
61
  0
ARC
  8
_0-1_作画層１
  6
CONTINUOUS
 62
    7
 10
158.49999999999997
 20
61.999999999999972
 40
0.9999999999999785
 50
179.99999999999878
 51
270.00000000000159
  0
LINE
  8
_0-1_作画層１
  6
CONTINUOUS
 62
    7
 10
154.0000001271566
 20
61
 11
151.875
 21
61
  0
LINE
  8
_0-1_作画層１
  6
CONTINUOUS
 62
    7
 10
160.625
 20
58.5
 11
158.5
 21
58.5
  0
LINE
  8
_0-1_作画層１
  6
CONTINUOUS
 62
    7
 10
157.5
 20
55.375
 11
157.5
 21
57.5
  0
ARC
  8
_0-1_作画層１
  6
CONTINUOUS
 62
    7
 10
158.49999999999997
 20
57.500000000000028
 40
0.9999999999999785
 50
89.99999999999838
 51
180.00000000000122
  0
LINE
  8
_0-1_作画層１
  6
CONTINUOUS
 62
    7
 10
155
 20
61.999999999999986
 11
155
 21
64.125
  0
LINE
  8
_0-1_作画層１
  6
CONTINUOUS
 62
    7
 10
155
 20
57.500000000000014
 11
155
 21
55.375
  0
LINE
  8
_0-1_作画層１
  6
CONTINUOUS
 62
    7
 10
157.5
 20
61.999999999999986
 11
157.5
 21
64.125
  0
CIRCLE
  8
_0-1_作画層１
  6
CONTINUOUS
 62
    7
 10
173.75
 20
59.75
 40
5
  0
LINE
  8
_0-1_作画層１
  6
CONTINUOUS
 62
    7
 10
172.5
 20
64.125
 11
175
 21
64.125
  0
LINE
  8
_0-1_作画層１
  6
CONTINUOUS
 62
    7
 10
175
 20
55.375
 11
172.5
 21
55.375
  0
LINE
  8
_0-1_作画層１
  6
CONTINUOUS
 62
    7
 10
178.125
 20
61
 11
178.125
 21
58.5
  0
LINE
  8
_0-1_作画層１
  6
CONTINUOUS
 62
    7
 10
169.375
 20
58.5
 11
169.375
 21
61
  0
ARC
  8
_0-1_作画層１
  6
CONTINUOUS
 62
    7
 10
171.50000000000003
 20
61.999999999999972
 40
0.9999999999999714
 50
269.99999999999835
 51
0.0000000000012086
  0
LINE
  8
_0-1_作画層１
  6
CONTINUOUS
 62
    7
 10
169.375
 20
58.5
 11
171.5
 21
58.5
  0
ARC
  8
_0-1_作画層１
  6
CONTINUOUS
 62
    7
 10
171.50000000000003
 20
57.500000000000028
 40
0.9999999999999785
 50
359.99999999999881
 51
90.00000000000162
  0
LINE
  8
_0-1_作画層１
  6
CONTINUOUS
 62
    7
 10
178.125
 20
61
 11
176
 21
61
  0
ARC
  8
_0-1_作画層１
  6
CONTINUOUS
 62
    7
 10
175.99999999999997
 20
61.999999999999972
 40
0.9999999999999785
 50
179.99999999999878
 51
270.00000000000159
  0
LINE
  8
_0-1_作画層１
  6
CONTINUOUS
 62
    7
 10
171.5000001271566
 20
61
 11
169.375
 21
61
  0
LINE
  8
_0-1_作画層１
  6
CONTINUOUS
 62
    7
 10
178.125
 20
58.5
 11
176
 21
58.5
  0
LINE
  8
_0-1_作画層１
  6
CONTINUOUS
 62
    7
 10
175
 20
55.375
 11
175
 21
57.5
  0
ARC
  8
_0-1_作画層１
  6
CONTINUOUS
 62
    7
 10
175.99999999999997
 20
57.500000000000028
 40
0.9999999999999785
 50
89.99999999999838
 51
180.00000000000122
  0
LINE
  8
_0-1_作画層１
  6
CONTINUOUS
 62
    7
 10
172.5
 20
61.999999999999986
 11
172.5
 21
64.125
  0
LINE
  8
_0-1_作画層１
  6
CONTINUOUS
 62
    7
 10
172.5
 20
57.500000000000014
 11
172.5
 21
55.375
  0
LINE
  8
_0-1_作画層１
  6
CONTINUOUS
 62
    7
 10
175
 20
61.999999999999986
 11
175
 21
64.125
  0
CIRCLE
  8
_0-1_作画層１
  6
CONTINUOUS
 62
    7
 10
191.25
 20
59.75
 40
5
  0
LINE
  8
_0-1_作画層１
  6
CONTINUOUS
 62
    7
 10
190
 20
64.125
 11
192.5
 21
64.125
  0
LINE
  8
_0-1_作画層１
  6
CONTINUOUS
 62
    7
 10
192.5
 20
55.375
 11
190
 21
55.375
  0
LINE
  8
_0-1_作画層１
  6
CONTINUOUS
 62
    7
 10
195.625
 20
61
 11
195.625
 21
58.5
  0
LINE
  8
_0-1_作画層１
  6
CONTINUOUS
 62
    7
 10
186.875
 20
58.5
 11
186.875
 21
61
  0
ARC
  8
_0-1_作画層１
  6
CONTINUOUS
 62
    7
 10
189.00000000000003
 20
61.999999999999972
 40
0.9999999999999714
 50
269.99999999999835
 51
0.0000000000012086
  0
LINE
  8
_0-1_作画層１
  6
CONTINUOUS
 62
    7
 10
186.875
 20
58.5
 11
189
 21
58.5
  0
ARC
  8
_0-1_作画層１
  6
CONTINUOUS
 62
    7
 10
189.00000000000003
 20
57.500000000000028
 40
0.9999999999999785
 50
359.99999999999881
 51
90.00000000000162
  0
LINE
  8
_0-1_作画層１
  6
CONTINUOUS
 62
    7
 10
195.625
 20
61
 11
193.5
 21
61
  0
ARC
  8
_0-1_作画層１
  6
CONTINUOUS
 62
    7
 10
193.49999999999997
 20
61.999999999999972
 40
0.9999999999999785
 50
179.99999999999878
 51
270.00000000000159
  0
LINE
  8
_0-1_作画層１
  6
CONTINUOUS
 62
    7
 10
189.0000001271566
 20
61
 11
186.875
 21
61
  0
LINE
  8
_0-1_作画層１
  6
CONTINUOUS
 62
    7
 10
195.625
 20
58.5
 11
193.5
 21
58.5
  0
LINE
  8
_0-1_作画層１
  6
CONTINUOUS
 62
    7
 10
192.5
 20
55.375
 11
192.5
 21
57.5
  0
ARC
  8
_0-1_作画層１
  6
CONTINUOUS
 62
    7
 10
193.49999999999997
 20
57.500000000000028
 40
0.9999999999999785
 50
89.99999999999838
 51
180.00000000000122
  0
LINE
  8
_0-1_作画層１
  6
CONTINUOUS
 62
    7
 10
190
 20
61.999999999999986
 11
190
 21
64.125
  0
LINE
  8
_0-1_作画層１
  6
CONTINUOUS
 62
    7
 10
190
 20
57.500000000000014
 11
190
 21
55.375
  0
LINE
  8
_0-1_作画層１
  6
CONTINUOUS
 62
    7
 10
192.5
 20
61.999999999999986
 11
192.5
 21
64.125
  0
CIRCLE
  8
_0-1_作画層１
  6
CONTINUOUS
 62
    7
 10
208.75
 20
59.75
 40
5
  0
LINE
  8
_0-1_作画層１
  6
CONTINUOUS
 62
    7
 10
207.5
 20
64.125
 11
210
 21
64.125
  0
LINE
  8
_0-1_作画層１
  6
CONTINUOUS
 62
    7
 10
210
 20
55.375
 11
207.5
 21
55.375
  0
LINE
  8
_0-1_作画層１
  6
CONTINUOUS
 62
    7
 10
213.125
 20
61
 11
213.125
 21
58.5
  0
LINE
  8
_0-1_作画層１
  6
CONTINUOUS
 62
    7
 10
204.375
 20
58.5
 11
204.375
 21
61
  0
ARC
  8
_0-1_作画層１
  6
CONTINUOUS
 62
    7
 10
206.50000000000003
 20
61.999999999999972
 40
0.9999999999999714
 50
269.99999999999835
 51
0.0000000000012086
  0
LINE
  8
_0-1_作画層１
  6
CONTINUOUS
 62
    7
 10
204.375
 20
58.5
 11
206.5
 21
58.5
  0
ARC
  8
_0-1_作画層１
  6
CONTINUOUS
 62
    7
 10
206.50000000000003
 20
57.500000000000028
 40
0.9999999999999785
 50
359.99999999999881
 51
90.00000000000162
  0
LINE
  8
_0-1_作画層１
  6
CONTINUOUS
 62
    7
 10
213.125
 20
61
 11
211
 21
61
  0
ARC
  8
_0-1_作画層１
  6
CONTINUOUS
 62
    7
 10
210.99999999999997
 20
61.999999999999972
 40
0.9999999999999785
 50
179.99999999999878
 51
270.00000000000159
  0
LINE
  8
_0-1_作画層１
  6
CONTINUOUS
 62
    7
 10
206.5000001271566
 20
61
 11
204.375
 21
61
  0
LINE
  8
_0-1_作画層１
  6
CONTINUOUS
 62
    7
 10
213.125
 20
58.5
 11
211
 21
58.5
  0
LINE
  8
_0-1_作画層１
  6
CONTINUOUS
 62
    7
 10
210
 20
55.375
 11
210
 21
57.5
  0
ARC
  8
_0-1_作画層１
  6
CONTINUOUS
 62
    7
 10
210.99999999999997
 20
57.500000000000028
 40
0.9999999999999785
 50
89.99999999999838
 51
180.00000000000122
  0
LINE
  8
_0-1_作画層１
  6
CONTINUOUS
 62
    7
 10
207.5
 20
61.999999999999986
 11
207.5
 21
64.125
  0
LINE
  8
_0-1_作画層１
  6
CONTINUOUS
 62
    7
 10
207.5
 20
57.500000000000014
 11
207.5
 21
55.375
  0
LINE
  8
_0-1_作画層１
  6
CONTINUOUS
 62
    7
 10
210
 20
61.999999999999986
 11
210
 21
64.125
  0
LINE
  8
_0-1_作画層１
  6
CONTINUOUS
 62
    7
 10
148.75
 20
67.25
 11
216.25
 21
67.25
  0
LINE
  8
_0-1_作画層１
  6
CONTINUOUS
 62
    7
 10
216.25
 20
67.25
 11
216.25
 21
52.25
  0
LINE
  8
_0-1_作画層１
  6
CONTINUOUS
 62
    7
 10
216.25
 20
52.25
 11
148.75
 21
52.25
  0
LINE
  8
_0-1_作画層１
  6
CONTINUOUS
 62
    7
 10
148.75
 20
52.25
 11
148.75
 21
67.25
  0
LINE
  8
_0-1_作画層１
  6
CONTINUOUS
 62
    7
 10
208.75
 20
44.75
 11
221.25
 21
44.75
  0
CIRCLE
  8
_0-1_作画層１
  6
CONTINUOUS
 62
    7
 10
165
 20
37.25
 40
5
  0
ARC
  8
_0-1_作画層１
  6
CONTINUOUS
 62
    7
 10
163.4375
 20
37.409974466828913
 40
1.5706680362308238
 50
185.84578235473452
 51
354.15421764526542
  0
ARC
  8
_0-1_作画層１
  6
CONTINUOUS
 62
    7
 10
166.5625
 20
37.090025533171058
 40
1.5706680362308283
 50
5.8457823547360706
 51
174.15421764526394
  0
LINE
  8
_0-1_作画層１
  6
CONTINUOUS
 62
    7
 10
160
 20
37.25
 11
156.25
 21
37.25
  0
LINE
  8
_0-1_作画層１
  6
CONTINUOUS
 62
    7
 10
173.75
 20
37.25
 11
170
 21
37.25
  0
LINE
  8
_0-1_作画層１
  6
CONTINUOUS
 62
    7
 10
193.75
 20
37.25
 11
191.25
 21
37.25
  0
TEXT
  8
_0-7_注記層１
 62
    7
 10
195.25
 20
35.5
 40
3.5
 41
1
 50
0
  1
負荷
  0
LINE
  8
_0-1_作画層１
  6
CONTINUOUS
 62
    7
 10
193.75
 20
34.75
 11
203.75
 21
34.75
  0
LINE
  8
_0-1_作画層１
  6
CONTINUOUS
 62
    7
 10
203.75
 20
34.75
 11
203.75
 21
39.75
  0
LINE
  8
_0-1_作画層１
  6
CONTINUOUS
 62
    7
 10
203.75
 20
39.75
 11
193.75
 21
39.75
  0
LINE
  8
_0-1_作画層１
  6
CONTINUOUS
 62
    7
 10
193.75
 20
39.75
 11
193.75
 21
34.75
  0
LINE
  8
_0-1_作画層１
  6
CONTINUOUS
 62
    7
 10
203.75
 20
37.25
 11
221.25
 21
37.25
  0
CIRCLE
  8
_0-1_作画層１
  6
CONTINUOUS
 62
    7
 10
195
 20
82.25
 40
1.25
  0
CIRCLE
  8
_0-1_作画層１
  6
CONTINUOUS
 62
    7
 10
205
 20
82.25
 40
1.25
  0
LINE
  8
_0-1_作画層１
  6
CONTINUOUS
 62
    7
 10
193.75
 20
82.25
 11
191.25
 21
82.25
  0
LINE
  8
_0-1_作画層１
  6
CONTINUOUS
 62
    7
 10
206.25
 20
82.25
 11
208.75
 21
82.25
  0
TEXT
  8
_0-7_注記層１
 62
    7
 10
158
 20
80.5
 40
3.5
 41
1
 50
0
  1
内部回路
  0
LINE
  8
_0-1_作画層１
  6
CONTINUOUS
 62
    7
 10
153.75
 20
79.75
 11
176.25
 21
79.75
  0
LINE
  8
_0-1_作画層１
  6
CONTINUOUS
 62
    7
 10
176.25
 20
79.75
 11
176.25
 21
84.75
  0
LINE
  8
_0-1_作画層１
  6
CONTINUOUS
 62
    7
 10
176.25
 20
84.75
 11
153.75
 21
84.75
  0
LINE
  8
_0-1_作画層１
  6
CONTINUOUS
 62
    7
 10
153.75
 20
84.75
 11
153.75
 21
79.75
  0
LINE
  8
_0-1_作画層１
  6
CONTINUOUS
 62
    7
 10
191.25
 20
67.25
 11
191.25
 21
82.25
  0
LINE
  8
_0-1_作画層１
  6
CONTINUOUS
 62
    7
 10
208.75
 20
67.25
 11
208.75
 21
82.25
  0
LINE
  8
_0-1_作画層１
  6
CONTINUOUS
 62
    7
 10
156.25
 20
67.25
 11
156.25
 21
79.75
  0
LINE
  8
_0-1_作画層１
  6
CONTINUOUS
 62
    7
 10
173.75
 20
67.25
 11
173.75
 21
79.75
  0
LINE
  8
_0-1_作画層１
  6
CONTINUOUS
 62
    7
 10
156.25
 20
52.25
 11
156.25
 21
37.25
  0
LINE
  8
_0-1_作画層１
  6
CONTINUOUS
 62
    7
 10
173.75
 20
52.25
 11
173.75
 21
37.25
  0
LINE
  8
_0-1_作画層１
  6
CONTINUOUS
 62
    7
 10
208.75
 20
52.25
 11
208.75
 21
44.75
  0
LINE
  8
_0-1_作画層１
  6
CONTINUOUS
 62
    7
 10
191.25
 20
52.25
 11
191.25
 21
37.25
  0
TEXT
  8
_0-7_注記層１
 62
    7
 10
222.5
 20
39.75
 40
3.5
 41
1
 50
0
  1
負荷用電源
  0
LINE
  8
_0-1_作画層１
  6
CONTINUOUS
 62
    7
 10
195.75
 20
83.25
 11
203.75
 21
87.25
  0
TEXT
  8
_0-7_注記層１
 62
    7
 10
194.25
 20
90.5
 40
3.5
 41
1
 50
0
  1
接点出力
  0
LINE
  8
_0-1_作画層１
  6
CONTINUOUS
 62
    7
 10
156.25
 20
99.75
 11
181.25
 21
99.75
  0
TEXT
  8
_0-7_注記層１
 62
    7
 10
158.75
 20
99.75
 40
5
 41
1
 50
0
  1
端子接続
  0
LINE
  8
_0-1_作画層１
  6
DASHED
 62
    7
 10
228.75
 20
92.25
 11
228.75
 21
59.75
  0
LINE
  8
_0-1_作画層１
  6
DASHED
 62
    7
 10
228.75
 20
59.75
 11
216.25
 21
59.75
  0
LINE
  8
_0-1_作画層１
  6
DASHED
 62
    7
 10
136.25
 20
92.25
 11
136.25
 21
59.75
  0
LINE
  8
_0-1_作画層１
  6
DASHED
 62
    7
 10
136.25
 20
59.75
 11
148.75
 21
59.75
  0
LINE
  8
_0-1_作画層１
  6
DASHDOT
 62
    7
 10
198.92827033996582
 20
124.91072463989258
 11
223.92830276489258
 21
124.91073226928711
  0
LINE
  8
_0-1_作画層１
  6
CONTINUOUS
 62
    7
 10
202.92828369140625
 20
130.91073989868164
 11
202.92828369140625
 21
118.91073989868164
  0
LINE
  8
_0-1_作画層１
  6
CONTINUOUS
 62
    7
 10
202.92828369140625
 20
122.91073989868164
 11
219.92829132080078
 21
122.9107551574707
  0
LINE
  8
_0-1_作画層１
  6
CONTINUOUS
 62
    7
 10
197.92826843261719
 20
121.91072463989258
 11
197.92826843261719
 21
127.91073226928711
  0
LINE
  8
_0-1_作画層１
  6
CONTINUOUS
 62
    7
 10
198.92827033996582
 20
127.91073226928711
 11
198.92827033996582
 21
130.91073989868164
  0
LINE
  8
_0-1_作画層１
  6
CONTINUOUS
 62
    7
 10
197.92826843261719
 20
121.91072463989258
 11
202.92828369140625
 21
121.91072463989258
  0
LINE
  8
_0-1_作画層１
  6
CONTINUOUS
 62
    7
 10
197.92826843261719
 20
122.91072463989258
 11
202.92828369140625
 21
122.91072463989258
  0
LINE
  8
_0-1_作画層１
  6
CONTINUOUS
 62
    7
 10
197.92826843261719
 20
126.91073226928711
 11
202.92828369140625
 21
126.91073226928711
  0
LINE
  8
_0-1_作画層１
  6
CONTINUOUS
 62
    7
 10
197.92826843261719
 20
127.91073226928711
 11
202.92828369140625
 21
127.91073226928711
  0
LINE
  8
_0-1_作画層１
  6
CONTINUOUS
 62
    7
 10
219.92829132080078
 20
128.91073226928711
 11
223.92830276489258
 21
128.91073226928711
  0
LINE
  8
_0-1_作画層１
  6
CONTINUOUS
 62
    7
 10
223.92830276489258
 20
128.91073226928711
 11
223.92830276489258
 21
117.91073226928711
  0
LINE
  8
_0-1_作画層１
  6
CONTINUOUS
 62
    7
 10
219.92829132080078
 20
115.56573867797852
 11
219.92829132080078
 21
114.41074752807617
  0
LINE
  8
_0-1_作画層１
  6
CONTINUOUS
 62
    7
 10
219.92829132080078
 20
117.91073226928711
 11
223.92830276489258
 21
117.91073226928711
  0
LINE
  8
_0-1_作画層１
  6
CONTINUOUS
 62
    7
 10
202.92828369140625
 20
118.91073989868164
 11
219.92829132080078
 21
118.91073989868164
  0
LINE
  8
_0-1_作画層１
  6
CONTINUOUS
 62
    7
 10
198.92827033996582
 20
116.41073989868164
 11
198.92827033996582
 21
121.91072463989258
  0
LINE
  8
_0-1_作画層１
  6
CONTINUOUS
 62
    7
 10
200.92827796936035
 20
114.41073989868164
 11
219.92829132080078
 21
114.41074752807617
  0
LINE
  8
_0-1_作画層１
  6
CONTINUOUS
 62
    7
 10
202.92828369140625
 20
122.91073989868164
 11
219.92829132080078
 21
122.9107551574707
  0
LINE
  8
_0-1_作画層１
  6
CONTINUOUS
 62
    7
 10
224.92828369140625
 20
122.41073989868164
 11
224.92828369140625
 21
127.41073226928711
  0
LINE
  8
_0-1_作画層１
  6
CONTINUOUS
 62
    7
 10
223.92827987670898
 20
122.41073989868164
 11
223.92827987670898
 21
127.41073226928711
  0
LINE
  8
_0-1_作画層１
  6
CONTINUOUS
 62
    7
 10
225.42828369140625
 20
127.41073226928711
 11
223.92827987670898
 21
127.41073226928711
  0
LINE
  8
_0-1_作画層１
  6
CONTINUOUS
 62
    7
 10
226.42828750610352
 20
123.41073989868164
 11
226.42828750610352
 21
126.41072463989258
  0
LINE
  8
_0-1_作画層１
  6
CONTINUOUS
 62
    7
 10
225.42828369140625
 20
122.41073989868164
 11
223.92827987670898
 21
122.41073989868164
  0
LINE
  8
_0-1_作画層１
  6
CONTINUOUS
 62
    7
 10
226.74528121948242
 20
124.91073226928711
 11
223.52925872802734
 21
124.91073226928711
  0
LINE
  8
_0-1_作画層１
  6
CONTINUOUS
 62
    7
 10
219.92829132080078
 20
130.91073989868164
 11
219.92829132080078
 21
115.56573867797852
  0
LINE
  8
_0-1_作画層１
  6
CONTINUOUS
 62
    7
 10
198.92827033996582
 20
130.91073989868164
 11
219.92829132080078
 21
130.91073989868164
  0
ARC
  8
_0-1_作画層１
  6
CONTINUOUS
 62
    7
 10
200.92827796936032
 20
116.41073989868161
 40
1.9999999999999716
 50
179.99999999999918
 51
270.0000000000008
  0
ARC
  8
_0-1_作画層１
  6
CONTINUOUS
 62
    7
 10
225.42828369140628
 20
126.41072463989259
 40
0.9999999999999714
 50
359.9999999999992
 51
90.000000000001634
  0
ARC
  8
_0-1_作画層１
  6
CONTINUOUS
 62
    7
 10
225.42828369140628
 20
123.41073989868163
 40
0.9999999999999856
 50
269.99999999999835
 51
0.0000000000008142
  0
LINE
  8
_0-1_作画層１
  6
CONTINUOUS
 62
    7
 10
302.99999046325684
 20
62.746330261230469
 11
302.99999046325684
 21
62.871337890625
  0
LINE
  8
_0-1_作画層１
  6
CONTINUOUS
 62
    7
 10
302.99999046325684
 20
62.746330261230469
 11
302.99999046325684
 21
62.621334075927734
  0
LINE
  8
_0-1_作画層１
  6
CONTINUOUS
 62
    7
 10
303.9999942779541
 20
62.746330261230469
 11
303.9999942779541
 21
62.621334075927734
  0
LINE
  8
_0-1_作画層１
  6
CONTINUOUS
 62
    7
 10
303.9999942779541
 20
62.746330261230469
 11
303.9999942779541
 21
62.871337890625
  0
LINE
  8
_0-1_作画層１
  6
CONTINUOUS
 62
    7
 10
303.49999237060547
 20
63.246330261230469
 11
303.62499904632568
 21
63.246330261230469
  0
LINE
  8
_0-1_作画層１
  6
CONTINUOUS
 62
    7
 10
303.49999237060547
 20
63.246330261230469
 11
303.37499141693115
 21
63.246330261230469
  0
LINE
  8
_0-1_作画層１
  6
CONTINUOUS
 62
    7
 10
303.49999237060547
 20
62.246326446533203
 11
303.37499141693115
 21
62.246326446533203
  0
LINE
  8
_0-1_作画層１
  6
CONTINUOUS
 62
    7
 10
303.49999237060547
 20
62.246326446533203
 11
303.62499904632568
 21
62.246326446533203
  0
LINE
  8
_0-1_作画層１
  6
CONTINUOUS
 62
    7
 10
303.24999141693115
 20
62.871337890625
 11
302.99999046325684
 21
62.871337890625
  0
LINE
  8
_0-1_作画層１
  6
CONTINUOUS
 62
    7
 10
303.37499141693115
 20
62.996330261230469
 11
303.37499141693115
 21
63.246330261230469
  0
LINE
  8
_0-1_作画層１
  6
CONTINUOUS
 62
    7
 10
303.62499904632568
 20
62.996330261230469
 11
303.62499904632568
 21
63.246330261230469
  0
LINE
  8
_0-1_作画層１
  6
CONTINUOUS
 62
    7
 10
303.74999904632568
 20
62.871337890625
 11
303.9999942779541
 21
62.871337890625
  0
LINE
  8
_0-1_作画層１
  6
CONTINUOUS
 62
    7
 10
303.74999904632568
 20
62.621334075927734
 11
303.9999942779541
 21
62.621334075927734
  0
LINE
  8
_0-1_作画層１
  6
CONTINUOUS
 62
    7
 10
303.62499904632568
 20
62.496330261230469
 11
303.62499904632568
 21
62.246326446533203
  0
LINE
  8
_0-1_作画層１
  6
CONTINUOUS
 62
    7
 10
303.37499141693115
 20
62.496330261230469
 11
303.37499141693115
 21
62.246326446533203
  0
LINE
  8
_0-1_作画層１
  6
CONTINUOUS
 62
    7
 10
303.24999141693115
 20
62.621334075927734
 11
302.99999046325684
 21
62.621334075927734
  0
LINE
  8
_0-1_作画層１
  6
CONTINUOUS
 62
    7
 10
301.74999904632568
 20
57.496337890625
 11
278.74999713897705
 21
57.496337890625
  0
LINE
  8
_0-1_作画層１
  6
CONTINUOUS
 62
    7
 10
304.58578300476074
 20
59.746330261230469
 11
306
 21
61.160549163818359
  0
LINE
  8
_0-1_作画層１
  6
CONTINUOUS
 62
    7
 10
275.91421318054199
 20
59.746330261230469
 11
274.49999618530273
 21
61.160549163818359
  0
LINE
  8
_0-1_作画層１
  6
CONTINUOUS
 62
    7
 10
306
 20
61.160549163818359
 11
306
 21
64.746337890625
  0
LINE
  8
_0-1_作画層１
  6
CONTINUOUS
 62
    7
 10
276.50000190734863
 20
62.746330261230469
 11
276.50000190734863
 21
62.871337890625
  0
LINE
  8
_0-1_作画層１
  6
CONTINUOUS
 62
    7
 10
276.50000190734863
 20
62.746330261230469
 11
276.50000190734863
 21
62.621334075927734
  0
LINE
  8
_0-1_作画層１
  6
CONTINUOUS
 62
    7
 10
277.5000057220459
 20
62.746330261230469
 11
277.5000057220459
 21
62.621334075927734
  0
LINE
  8
_0-1_作画層１
  6
CONTINUOUS
 62
    7
 10
277.5000057220459
 20
62.746330261230469
 11
277.5000057220459
 21
62.871337890625
  0
LINE
  8
_0-1_作画層１
  6
CONTINUOUS
 62
    7
 10
277.00000381469727
 20
63.246330261230469
 11
277.12500476837158
 21
63.246330261230469
  0
LINE
  8
_0-1_作画層１
  6
CONTINUOUS
 62
    7
 10
277.00000381469727
 20
63.246330261230469
 11
276.87499713897705
 21
63.246330261230469
  0
LINE
  8
_0-1_作画層１
  6
CONTINUOUS
 62
    7
 10
277.00000381469727
 20
62.246326446533203
 11
276.87499713897705
 21
62.246326446533203
  0
LINE
  8
_0-1_作画層１
  6
CONTINUOUS
 62
    7
 10
277.00000381469727
 20
62.246326446533203
 11
277.12500476837158
 21
62.246326446533203
  0
LINE
  8
_0-1_作画層１
  6
CONTINUOUS
 62
    7
 10
276.75000286102295
 20
62.871337890625
 11
276.50000190734863
 21
62.871337890625
  0
LINE
  8
_0-1_作画層１
  6
CONTINUOUS
 62
    7
 10
276.87499713897705
 20
62.996330261230469
 11
276.87499713897705
 21
63.246330261230469
  0
LINE
  8
_0-1_作画層１
  6
CONTINUOUS
 62
    7
 10
277.12500476837158
 20
62.996330261230469
 11
277.12500476837158
 21
63.246330261230469
  0
LINE
  8
_0-1_作画層１
  6
CONTINUOUS
 62
    7
 10
277.25000476837158
 20
62.871337890625
 11
277.5000057220459
 21
62.871337890625
  0
LINE
  8
_0-1_作画層１
  6
CONTINUOUS
 62
    7
 10
277.25000476837158
 20
62.621334075927734
 11
277.5000057220459
 21
62.621334075927734
  0
LINE
  8
_0-1_作画層１
  6
CONTINUOUS
 62
    7
 10
277.12500476837158
 20
62.496330261230469
 11
277.12500476837158
 21
62.246326446533203
  0
LINE
  8
_0-1_作画層１
  6
CONTINUOUS
 62
    7
 10
276.87499713897705
 20
62.496330261230469
 11
276.87499713897705
 21
62.246326446533203
  0
LINE
  8
_0-1_作画層１
  6
CONTINUOUS
 62
    7
 10
276.75000286102295
 20
62.621334075927734
 11
276.50000190734863
 21
62.621334075927734
  0
LINE
  8
_0-1_作画層１
  6
CONTINUOUS
 62
    7
 10
275.91421318054199
 20
59.746330261230469
 11
278.74999713897705
 21
59.746330261230469
  0
LINE
  8
_0-1_作画層１
  6
CONTINUOUS
 62
    7
 10
278.74999713897705
 20
59.746330261230469
 11
278.74999713897705
 21
57.496337890625
  0
LINE
  8
_0-1_作画層１
  6
CONTINUOUS
 62
    7
 10
301.74999904632568
 20
59.746330261230469
 11
301.74999904632568
 21
57.496337890625
  0
LINE
  8
_0-1_作画層１
  6
CONTINUOUS
 62
    7
 10
304.58578300476074
 20
59.746330261230469
 11
301.74999904632568
 21
59.746330261230469
  0
LINE
  8
_0-1_作画層１
  6
CONTINUOUS
 62
    7
 10
300.74999523162842
 20
63.496330261230469
 11
279.7499942779541
 21
63.496330261230469
  0
LINE
  8
_0-1_作画層１
  6
CONTINUOUS
 62
    7
 10
279.7499942779541
 20
63.496330261230469
 11
279.7499942779541
 21
58.496341705322266
  0
LINE
  8
_0-1_作画層１
  6
CONTINUOUS
 62
    7
 10
300.74999523162842
 20
58.496341705322266
 11
279.7499942779541
 21
58.496341705322266
  0
LINE
  8
_0-1_作画層１
  6
CONTINUOUS
 62
    7
 10
300.74999523162842
 20
63.496330261230469
 11
300.74999523162842
 21
58.496341705322266
  0
LINE
  8
_0-1_作画層１
  6
CONTINUOUS
 62
    7
 10
274.49999618530273
 20
61.160549163818359
 11
274.49999618530273
 21
64.746337890625
  0
LINE
  8
_0-1_作画層１
  6
CONTINUOUS
 62
    7
 10
275.49999904632568
 20
64.746337890625
 11
275.49999904632568
 21
60.996337890625
  0
LINE
  8
_0-1_作画層１
  6
CONTINUOUS
 62
    7
 10
304.99999713897705
 20
64.746337890625
 11
304.99999713897705
 21
60.996337890625
  0
LINE
  8
_0-1_作画層１
  6
CONTINUOUS
 62
    7
 10
304.99999713897705
 20
60.996337890625
 11
300.74999523162842
 21
60.996337890625
  0
LINE
  8
_0-1_作画層１
  6
CONTINUOUS
 62
    7
 10
279.7499942779541
 20
60.996337890625
 11
275.49999904632568
 21
60.996337890625
  0
LINE
  8
_0-1_作画層１
  6
CONTINUOUS
 62
    7
 10
274.49999618530273
 20
64.746337890625
 11
274.49999618530273
 21
65.999988555908203
  0
LINE
  8
_0-1_作画層１
  6
CONTINUOUS
 62
    7
 10
306
 20
64.746337890625
 11
306
 21
65.997020721435547
  0
LINE
  8
_0-1_作画層１
  6
CONTINUOUS
 62
    7
 10
275.49999904632568
 20
64.746337890625
 11
305
 21
64.746337890625
  0
LINE
  8
_0-1_作画層１
  6
CONTINUOUS
 62
    7
 10
275.51751804351807
 20
64.746337890625
 11
305
 21
64.746337890625
  0
CIRCLE
  8
_0-1_作画層１
  6
CONTINUOUS
 62
    7
 10
303.49999237060547
 20
62.746330261230469
 40
0.75
  0
ARC
  8
_0-1_作画層１
  6
CONTINUOUS
 62
    7
 10
303.24999141693115
 20
62.99633026123044
 40
0.1249999999999716
 50
270
 51
0.0000000000130148
  0
ARC
  8
_0-1_作画層１
  6
CONTINUOUS
 62
    7
 10
303.74999904632568
 20
62.99633026123044
 40
0.125
 50
179.99999999998701
 51
270
  0
ARC
  8
_0-1_作画層１
  6
CONTINUOUS
 62
    7
 10
303.74999904632568
 20
62.496330261230497
 40
0.1249999999999716
 50
90
 51
180.00000000001305
  0
ARC
  8
_0-1_作画層１
  6
CONTINUOUS
 62
    7
 10
303.24999141693115
 20
62.496330261230497
 40
0.125
 50
359.99999999998698
 51
89.999999999999986
  0
CIRCLE
  8
_0-1_作画層１
  6
CONTINUOUS
 62
    7
 10
277.00000381469727
 20
62.746330261230469
 40
0.75
  0
ARC
  8
_0-1_作画層１
  6
CONTINUOUS
 62
    7
 10
276.75000286102295
 20
62.99633026123044
 40
0.1249999999999716
 50
270
 51
0.0000000000130148
  0
ARC
  8
_0-1_作画層１
  6
CONTINUOUS
 62
    7
 10
277.25000476837158
 20
62.99633026123044
 40
0.125
 50
179.99999999998701
 51
270
  0
ARC
  8
_0-1_作画層１
  6
CONTINUOUS
 62
    7
 10
277.25000476837158
 20
62.496330261230497
 40
0.1249999999999716
 50
90
 51
180.00000000001305
  0
ARC
  8
_0-1_作画層１
  6
CONTINUOUS
 62
    7
 10
276.75000286102295
 20
62.496330261230497
 40
0.125
 50
359.99999999998698
 51
89.999999999999986
  0
CIRCLE
  8
_0-1_作画層１
  6
CONTINUOUS
 62
    7
 10
298.4999942779541
 20
61.746337890625
 40
0.75
  0
CIRCLE
  8
_0-1_作画層１
  6
CONTINUOUS
 62
    7
 10
292.99999475479126
 20
61.746337890625
 40
0.75
  0
CIRCLE
  8
_0-1_作画層１
  6
CONTINUOUS
 62
    7
 10
287.50000143051147
 20
61.746337890625
 40
0.75
  0
CIRCLE
  8
_0-1_作画層１
  6
CONTINUOUS
 62
    7
 10
282.00000190734863
 20
61.746337890625
 40
0.75
  0
LINE
  8
_0-1_作画層１
  6
CONTINUOUS
 62
    7
 10
309.00000381469727
 20
79.749988555908203
 11
271.49999237060547
 21
79.749988555908203
  0
LINE
  8
_0-1_作画層１
  6
CONTINUOUS
 62
    7
 10
310.00000190734863
 20
78.74998664855957
 11
310.00000190734863
 21
71.749988555908203
  0
LINE
  8
_0-1_作画層１
  6
CONTINUOUS
 62
    7
 10
270.4999942779541
 20
78.74998664855957
 11
270.4999942779541
 21
71.749988555908203
  0
LINE
  8
_0-1_作画層１
  6
CONTINUOUS
 62
    7
 10
271.45000267028809
 20
78.549993515014648
 11
271.45000267028809
 21
78.74998664855957
  0
LINE
  8
_0-1_作画層１
  6
CONTINUOUS
 62
    7
 10
271.45000267028809
 20
78.549993515014648
 11
271.45000267028809
 21
78.350000381469727
  0
LINE
  8
_0-1_作画層１
  6
CONTINUOUS
 62
    7
 10
273.04999923706055
 20
78.549993515014648
 11
273.04999923706055
 21
78.350000381469727
  0
LINE
  8
_0-1_作画層１
  6
CONTINUOUS
 62
    7
 10
273.04999923706055
 20
78.549993515014648
 11
273.04999923706055
 21
78.74998664855957
  0
LINE
  8
_0-1_作画層１
  6
CONTINUOUS
 62
    7
 10
272.25
 20
79.349990844726563
 11
272.44999313354492
 21
79.349990844726563
  0
LINE
  8
_0-1_作画層１
  6
CONTINUOUS
 62
    7
 10
272.25
 20
79.349990844726563
 11
272.05000114440918
 21
79.349990844726563
  0
LINE
  8
_0-1_作画層１
  6
CONTINUOUS
 62
    7
 10
272.25
 20
77.749994277954102
 11
272.05000114440918
 21
77.749994277954102
  0
LINE
  8
_0-1_作画層１
  6
CONTINUOUS
 62
    7
 10
272.25
 20
77.749994277954102
 11
272.44999313354492
 21
77.749994277954102
  0
LINE
  8
_0-1_作画層１
  6
CONTINUOUS
 62
    7
 10
271.85000228881836
 20
78.74998664855957
 11
271.45000267028809
 21
78.74998664855957
  0
LINE
  8
_0-1_作画層１
  6
CONTINUOUS
 62
    7
 10
272.05000114440918
 20
78.949991226196289
 11
272.05000114440918
 21
79.349990844726563
  0
LINE
  8
_0-1_作画層１
  6
CONTINUOUS
 62
    7
 10
272.44999313354492
 20
78.949991226196289
 11
272.44999313354492
 21
79.349990844726563
  0
LINE
  8
_0-1_作画層１
  6
CONTINUOUS
 62
    7
 10
272.64999961853027
 20
78.74998664855957
 11
273.04999923706055
 21
78.74998664855957
  0
LINE
  8
_0-1_作画層１
  6
CONTINUOUS
 62
    7
 10
272.64999961853027
 20
78.350000381469727
 11
273.04999923706055
 21
78.350000381469727
  0
LINE
  8
_0-1_作画層１
  6
CONTINUOUS
 62
    7
 10
272.44999313354492
 20
78.149993896484375
 11
272.44999313354492
 21
77.749994277954102
  0
LINE
  8
_0-1_作画層１
  6
CONTINUOUS
 62
    7
 10
272.05000114440918
 20
78.149993896484375
 11
272.05000114440918
 21
77.749994277954102
  0
LINE
  8
_0-1_作画層１
  6
CONTINUOUS
 62
    7
 10
271.85000228881836
 20
78.350000381469727
 11
271.45000267028809
 21
78.350000381469727
  0
LINE
  8
_0-1_作画層１
  6
CONTINUOUS
 62
    7
 10
271.45000267028809
 20
73.54998779296875
 11
271.45000267028809
 21
73.749994277954102
  0
LINE
  8
_0-1_作画層１
  6
CONTINUOUS
 62
    7
 10
271.45000267028809
 20
73.54998779296875
 11
271.45000267028809
 21
73.350008010864258
  0
LINE
  8
_0-1_作画層１
  6
CONTINUOUS
 62
    7
 10
273.04999923706055
 20
73.54998779296875
 11
273.04999923706055
 21
73.350008010864258
  0
LINE
  8
_0-1_作画層１
  6
CONTINUOUS
 62
    7
 10
273.04999923706055
 20
73.54998779296875
 11
273.04999923706055
 21
73.749994277954102
  0
LINE
  8
_0-1_作画層１
  6
CONTINUOUS
 62
    7
 10
272.25
 20
74.349987030029297
 11
272.44999313354492
 21
74.349987030029297
  0
LINE
  8
_0-1_作画層１
  6
CONTINUOUS
 62
    7
 10
272.25
 20
74.349987030029297
 11
272.05000114440918
 21
74.349987030029297
  0
LINE
  8
_0-1_作画層１
  6
CONTINUOUS
 62
    7
 10
272.25
 20
72.750003814697266
 11
272.05000114440918
 21
72.750003814697266
  0
LINE
  8
_0-1_作画層１
  6
CONTINUOUS
 62
    7
 10
272.25
 20
72.750003814697266
 11
272.44999313354492
 21
72.750003814697266
  0
LINE
  8
_0-1_作画層１
  6
CONTINUOUS
 62
    7
 10
271.85000228881836
 20
73.749994277954102
 11
271.45000267028809
 21
73.749994277954102
  0
LINE
  8
_0-1_作画層１
  6
CONTINUOUS
 62
    7
 10
272.05000114440918
 20
73.950000762939453
 11
272.05000114440918
 21
74.349987030029297
  0
LINE
  8
_0-1_作画層１
  6
CONTINUOUS
 62
    7
 10
272.44999313354492
 20
73.950000762939453
 11
272.44999313354492
 21
74.349987030029297
  0
LINE
  8
_0-1_作画層１
  6
CONTINUOUS
 62
    7
 10
272.64999961853027
 20
73.749994277954102
 11
273.04999923706055
 21
73.749994277954102
  0
LINE
  8
_0-1_作画層１
  6
CONTINUOUS
 62
    7
 10
272.64999961853027
 20
73.350008010864258
 11
273.04999923706055
 21
73.350008010864258
  0
LINE
  8
_0-1_作画層１
  6
CONTINUOUS
 62
    7
 10
272.44999313354492
 20
73.149990081787109
 11
272.44999313354492
 21
72.750003814697266
  0
LINE
  8
_0-1_作画層１
  6
CONTINUOUS
 62
    7
 10
272.05000114440918
 20
73.149990081787109
 11
272.05000114440918
 21
72.750003814697266
  0
LINE
  8
_0-1_作画層１
  6
CONTINUOUS
 62
    7
 10
271.85000228881836
 20
73.350008010864258
 11
271.45000267028809
 21
73.350008010864258
  0
LINE
  8
_0-1_作画層１
  6
CONTINUOUS
 62
    7
 10
307.43782997131348
 20
73.495279312133789
 11
307.43782997131348
 21
73.695285797119141
  0
LINE
  8
_0-1_作画層１
  6
CONTINUOUS
 62
    7
 10
307.43782997131348
 20
73.495279312133789
 11
307.43782997131348
 21
73.295286178588867
  0
LINE
  8
_0-1_作画層１
  6
CONTINUOUS
 62
    7
 10
309.03781890869141
 20
73.495279312133789
 11
309.03781890869141
 21
73.295286178588867
  0
LINE
  8
_0-1_作画層１
  6
CONTINUOUS
 62
    7
 10
309.03781890869141
 20
73.495279312133789
 11
309.03781890869141
 21
73.695285797119141
  0
LINE
  8
_0-1_作画層１
  6
CONTINUOUS
 62
    7
 10
308.23782730102539
 20
74.295276641845703
 11
308.43782615661621
 21
74.295276641845703
  0
LINE
  8
_0-1_作画層１
  6
CONTINUOUS
 62
    7
 10
308.23782730102539
 20
74.295276641845703
 11
308.03782844543457
 21
74.295276641845703
  0
LINE
  8
_0-1_作画層１
  6
CONTINUOUS
 62
    7
 10
308.23782730102539
 20
72.695281982421875
 11
308.03782844543457
 21
72.695281982421875
  0
LINE
  8
_0-1_作画層１
  6
CONTINUOUS
 62
    7
 10
308.23782730102539
 20
72.695281982421875
 11
308.43782615661621
 21
72.695281982421875
  0
LINE
  8
_0-1_作画層１
  6
CONTINUOUS
 62
    7
 10
307.83782196044922
 20
73.695285797119141
 11
307.43782997131348
 21
73.695285797119141
  0
LINE
  8
_0-1_作画層１
  6
CONTINUOUS
 62
    7
 10
308.03782844543457
 20
73.895290374755859
 11
308.03782844543457
 21
74.295276641845703
  0
LINE
  8
_0-1_作画層１
  6
CONTINUOUS
 62
    7
 10
308.43782615661621
 20
73.895290374755859
 11
308.43782615661621
 21
74.295276641845703
  0
LINE
  8
_0-1_作画層１
  6
CONTINUOUS
 62
    7
 10
308.63783264160156
 20
73.695285797119141
 11
309.03781890869141
 21
73.695285797119141
  0
LINE
  8
_0-1_作画層１
  6
CONTINUOUS
 62
    7
 10
308.63783264160156
 20
73.295286178588867
 11
309.03781890869141
 21
73.295286178588867
  0
LINE
  8
_0-1_作画層１
  6
CONTINUOUS
 62
    7
 10
308.43782615661621
 20
73.095281600952148
 11
308.43782615661621
 21
72.695281982421875
  0
LINE
  8
_0-1_作画層１
  6
CONTINUOUS
 62
    7
 10
308.03782844543457
 20
73.095281600952148
 11
308.03782844543457
 21
72.695281982421875
  0
LINE
  8
_0-1_作画層１
  6
CONTINUOUS
 62
    7
 10
307.83782196044922
 20
73.295286178588867
 11
307.43782997131348
 21
73.295286178588867
  0
LINE
  8
_0-1_作画層１
  6
CONTINUOUS
 62
    7
 10
307.43782997131348
 20
78.495283126831055
 11
307.43782997131348
 21
78.695276260375977
  0
LINE
  8
_0-1_作画層１
  6
CONTINUOUS
 62
    7
 10
307.43782997131348
 20
78.495283126831055
 11
307.43782997131348
 21
78.295278549194336
  0
LINE
  8
_0-1_作画層１
  6
CONTINUOUS
 62
    7
 10
309.03781890869141
 20
78.495283126831055
 11
309.03781890869141
 21
78.295278549194336
  0
LINE
  8
_0-1_作画層１
  6
CONTINUOUS
 62
    7
 10
309.03781890869141
 20
78.495283126831055
 11
309.03781890869141
 21
78.695276260375977
  0
LINE
  8
_0-1_作画層１
  6
CONTINUOUS
 62
    7
 10
308.23782730102539
 20
79.295269012451172
 11
308.43782615661621
 21
79.295269012451172
  0
LINE
  8
_0-1_作画層１
  6
CONTINUOUS
 62
    7
 10
308.23782730102539
 20
79.295269012451172
 11
308.03782844543457
 21
79.295269012451172
  0
LINE
  8
_0-1_作画層１
  6
CONTINUOUS
 62
    7
 10
308.23782730102539
 20
77.695285797119141
 11
308.03782844543457
 21
77.695285797119141
  0
LINE
  8
_0-1_作画層１
  6
CONTINUOUS
 62
    7
 10
308.23782730102539
 20
77.695285797119141
 11
308.43782615661621
 21
77.695285797119141
  0
LINE
  8
_0-1_作画層１
  6
CONTINUOUS
 62
    7
 10
307.83782196044922
 20
78.695276260375977
 11
307.43782997131348
 21
78.695276260375977
  0
LINE
  8
_0-1_作画層１
  6
CONTINUOUS
 62
    7
 10
308.03782844543457
 20
78.895282745361328
 11
308.03782844543457
 21
79.295269012451172
  0
LINE
  8
_0-1_作画層１
  6
CONTINUOUS
 62
    7
 10
308.43782615661621
 20
78.895282745361328
 11
308.43782615661621
 21
79.295269012451172
  0
LINE
  8
_0-1_作画層１
  6
CONTINUOUS
 62
    7
 10
308.63783264160156
 20
78.695276260375977
 11
309.03781890869141
 21
78.695276260375977
  0
LINE
  8
_0-1_作画層１
  6
CONTINUOUS
 62
    7
 10
308.63783264160156
 20
78.295278549194336
 11
309.03781890869141
 21
78.295278549194336
  0
LINE
  8
_0-1_作画層１
  6
CONTINUOUS
 62
    7
 10
308.43782615661621
 20
78.095272064208984
 11
308.43782615661621
 21
77.695285797119141
  0
LINE
  8
_0-1_作画層１
  6
CONTINUOUS
 62
    7
 10
308.03782844543457
 20
78.095272064208984
 11
308.03782844543457
 21
77.695285797119141
  0
LINE
  8
_0-1_作画層１
  6
CONTINUOUS
 62
    7
 10
307.83782196044922
 20
78.295278549194336
 11
307.43782997131348
 21
78.295278549194336
  0
ARC
  8
_0-1_作画層１
  6
CONTINUOUS
 62
    7
 10
271.49999237060547
 20
78.749986648559585
 40
0.9999999999999856
 50
90
 51
180.00000000000082
  0
ARC
  8
_0-1_作画層１
  6
CONTINUOUS
 62
    7
 10
309.00000381469727
 20
78.749986648559585
 40
1
 50
359.9999999999992
 51
89.999999999999986
  0
CIRCLE
  8
_0-1_作画層１
  6
CONTINUOUS
 62
    7
 10
272.25
 20
78.549993515014648
 40
1.2000000476837158
  0
ARC
  8
_0-1_作画層１
  6
CONTINUOUS
 62
    7
 10
271.8500022888183
 20
78.949991226196317
 40
0.2000000029802606
 50
270.00000000001626
 51
359.99999999999187
  0
ARC
  8
_0-1_作画層１
  6
CONTINUOUS
 62
    7
 10
272.64999961853033
 20
78.949991226196317
 40
0.2000000029802891
 50
180.00000000000816
 51
269.99999999998369
  0
ARC
  8
_0-1_作画層１
  6
CONTINUOUS
 62
    7
 10
272.64999961853033
 20
78.149993896484347
 40
0.2000000029802606
 50
90.000000000016286
 51
179.99999999999184
  0
ARC
  8
_0-1_作画層１
  6
CONTINUOUS
 62
    7
 10
271.8500022888183
 20
78.149993896484347
 40
0.2000000029802891
 50
0.0000000000081422
 51
89.999999999983714
  0
CIRCLE
  8
_0-1_作画層１
  6
CONTINUOUS
 62
    7
 10
272.25
 20
73.54998779296875
 40
1.2000000476837158
  0
ARC
  8
_0-1_作画層１
  6
CONTINUOUS
 62
    7
 10
271.8500022888183
 20
73.950000762939482
 40
0.2000000029802606
 50
270.00000000001626
 51
359.99999999999187
  0
ARC
  8
_0-1_作画層１
  6
CONTINUOUS
 62
    7
 10
272.64999961853033
 20
73.950000762939482
 40
0.2000000029802891
 50
180.00000000000816
 51
269.99999999998369
  0
ARC
  8
_0-1_作画層１
  6
CONTINUOUS
 62
    7
 10
272.64999961853033
 20
73.149990081787081
 40
0.2000000029802606
 50
90.000000000016286
 51
179.99999999999184
  0
ARC
  8
_0-1_作画層１
  6
CONTINUOUS
 62
    7
 10
271.8500022888183
 20
73.149990081787081
 40
0.2000000029802891
 50
0.0000000000081422
 51
89.999999999983714
  0
CIRCLE
  8
_0-1_作画層１
  6
CONTINUOUS
 62
    7
 10
308.23782730102539
 20
73.495279312133789
 40
1.2000000476837158
  0
ARC
  8
_0-1_作画層１
  6
CONTINUOUS
 62
    7
 10
307.83782196044916
 20
73.895290374755888
 40
0.2000000029802606
 50
270.00000000001626
 51
359.99999999999187
  0
ARC
  8
_0-1_作画層１
  6
CONTINUOUS
 62
    7
 10
308.63783264160162
 20
73.895290374755888
 40
0.2000000029802891
 50
180.00000000000816
 51
269.99999999998369
  0
ARC
  8
_0-1_作画層１
  6
CONTINUOUS
 62
    7
 10
308.63783264160162
 20
73.09528160095212
 40
0.2000000029802606
 50
90.000000000016286
 51
179.99999999999184
  0
ARC
  8
_0-1_作画層１
  6
CONTINUOUS
 62
    7
 10
307.83782196044916
 20
73.09528160095212
 40
0.2000000029802891
 50
0.0000000000081422
 51
89.999999999983714
  0
CIRCLE
  8
_0-1_作画層１
  6
CONTINUOUS
 62
    7
 10
308.23782730102539
 20
78.495283126831055
 40
1.2000000476837158
  0
ARC
  8
_0-1_作画層１
  6
CONTINUOUS
 62
    7
 10
307.83782196044916
 20
78.895282745361357
 40
0.2000000029802606
 50
270.00000000001626
 51
359.99999999999187
  0
ARC
  8
_0-1_作画層１
  6
CONTINUOUS
 62
    7
 10
308.63783264160162
 20
78.895282745361357
 40
0.2000000029802891
 50
180.00000000000816
 51
269.99999999998369
  0
ARC
  8
_0-1_作画層１
  6
CONTINUOUS
 62
    7
 10
308.63783264160162
 20
78.095272064208956
 40
0.2000000029802606
 50
90.000000000016286
 51
179.99999999999184
  0
ARC
  8
_0-1_作画層１
  6
CONTINUOUS
 62
    7
 10
307.83782196044916
 20
78.095272064208956
 40
0.2000000029802891
 50
0.0000000000081422
 51
89.999999999983714
  0
INSERT
  2
-009-_D9
  8
_0-9_寸法線層１
 10
6.25
 20
4.75
 41
1
 42
1
 50
0
  0
INSERT
  2
-010-_D10
  8
_0-9_寸法線層１
 10
6.25
 20
4.75
 41
1
 42
1
 50
0
  0
TEXT
  8
_0-7_注記層１
 62
    7
 10
346.25
 20
52.25
 40
5
 41
1
 50
0
  1
 1/2
  0
LINE
  8
_0-1_作画層１
  6
CONTINUOUS
 62
    7
 10
343.75
 20
52.25
 11
361.25
 21
52.25
  0
TEXT
  8
_0-7_注記層１
 62
    7
 10
202.4161237785016
 20
203.74297638436488
 40
2.5
 41
1
 50
90
  1
スナオ電気株式会社
  0
TEXT
  8
_0-7_注記層１
 62
    7
 10
207.4161237785016
 20
203.74297638436488
 40
2.5
 41
1
 50
90
  1
AC250V 7A
  0
LINE
  8
_0-1_作画層１
  6
CONTINUOUS
 62
    7
 10
79.25
 20
41.99989690998089
 11
79.25
 21
75.312290575294611
  0
LINE
  8
_0-1_作画層１
  6
CONTINUOUS
 62
    7
 10
65.249998092651367
 20
35.686368849067804
 11
60.250009536743164
 21
35.686368849067804
  0
LINE
  8
_0-1_作画層１
  6
CONTINUOUS
 62
    7
 10
65.249998092651367
 20
34.686365034370539
 11
60.250009536743164
 21
34.686365034370539
  0
LINE
  8
_0-1_作画層１
  6
CONTINUOUS
 62
    7
 10
60.250009536743164
 20
36.186357404976008
 11
60.250009536743164
 21
34.686365034370539
  0
LINE
  8
_0-1_作画層１
  6
CONTINUOUS
 62
    7
 10
64.249997138977051
 20
37.186378385810968
 11
61.250011444091797
 21
37.186378385810968
  0
LINE
  8
_0-1_作画層１
  6
CONTINUOUS
 62
    7
 10
65.249998092651367
 20
36.186357404976008
 11
65.249998092651367
 21
34.686365034370539
  0
LINE
  8
_0-1_作画層１
  6
CONTINUOUS
 62
    7
 10
76.249995946884155
 20
35.686368849067804
 11
71.250006675720215
 21
35.686368849067804
  0
LINE
  8
_0-1_作画層１
  6
CONTINUOUS
 62
    7
 10
76.249995946884155
 20
34.686365034370539
 11
71.250006675720215
 21
34.686365034370539
  0
LINE
  8
_0-1_作画層１
  6
CONTINUOUS
 62
    7
 10
71.250006675720215
 20
36.186357404976008
 11
71.250006675720215
 21
34.686365034370539
  0
LINE
  8
_0-1_作画層１
  6
CONTINUOUS
 62
    7
 10
75.24999475479126
 20
37.186378385810968
 11
72.250008106231689
 21
37.186378385810968
  0
LINE
  8
_0-1_作画層１
  6
CONTINUOUS
 62
    7
 10
76.249995946884155
 20
36.186357404976008
 11
76.249995946884155
 21
34.686365034370539
  0
LINE
  8
_0-1_作画層１
  6
CONTINUOUS
 62
    7
 10
98.249990463256822
 20
35.686368849067804
 11
93.250001907348619
 21
35.686368849067804
  0
LINE
  8
_0-1_作画層１
  6
CONTINUOUS
 62
    7
 10
93.250001907348619
 20
36.186357404976008
 11
93.250001907348619
 21
34.686365034370539
  0
LINE
  8
_0-1_作画層１
  6
CONTINUOUS
 62
    7
 10
97.249988555908189
 20
37.186378385810968
 11
94.250002861022935
 21
37.186378385810968
  0
LINE
  8
_0-1_作画層１
  6
CONTINUOUS
 62
    7
 10
98.249990463256822
 20
36.186357404976008
 11
98.249990463256822
 21
34.686365034370539
  0
LINE
  8
_0-1_作画層１
  6
CONTINUOUS
 62
    7
 10
87.249993324279771
 20
35.686368849067804
 11
82.250004053115831
 21
35.686368849067804
  0
LINE
  8
_0-1_作画層１
  6
CONTINUOUS
 62
    7
 10
87.249993324279771
 20
34.686365034370539
 11
82.250004053115831
 21
34.686365034370539
  0
LINE
  8
_0-1_作画層１
  6
CONTINUOUS
 62
    7
 10
82.250004053115831
 20
36.186357404976008
 11
82.250004053115831
 21
34.686365034370539
  0
LINE
  8
_0-1_作画層１
  6
CONTINUOUS
 62
    7
 10
86.249991893768296
 20
37.186378385810968
 11
83.250005245208726
 21
37.186378385810968
  0
LINE
  8
_0-1_作画層１
  6
CONTINUOUS
 62
    7
 10
87.249993324279771
 20
36.186357404976008
 11
87.249993324279771
 21
34.686365034370539
  0
LINE
  8
_0-1_作画層１
  6
CONTINUOUS
 62
    7
 10
100.00000572204588
 20
34.686365034370539
 11
93.250001907348619
 21
34.686365034370539
  0
LINE
  8
_0-1_作画層１
  6
CONTINUOUS
 62
    7
 10
58.499994277954102
 20
34.686365034370539
 11
66.999996185302734
 21
34.686365034370539
  0
LINE
  8
_0-1_作画層１
  6
CONTINUOUS
 62
    7
 10
58.499994277954102
 20
33.18637266376507
 11
66.999996185302734
 21
33.18637266376507
  0
LINE
  8
_0-1_作画層１
  6
CONTINUOUS
 62
    7
 10
58.499994277954102
 20
32.18637266376507
 11
66.999996185302734
 21
32.18637266376507
  0
LINE
  8
_0-1_作画層１
  6
CONTINUOUS
 62
    7
 10
69.499991416931152
 20
34.686365034370539
 11
77.999993920326233
 21
34.686365034370539
  0
LINE
  8
_0-1_作画層１
  6
CONTINUOUS
 62
    7
 10
69.499991416931152
 20
33.18637266376507
 11
77.999993920326233
 21
33.18637266376507
  0
LINE
  8
_0-1_作画層１
  6
CONTINUOUS
 62
    7
 10
69.499991416931152
 20
32.18637266376507
 11
77.999993920326233
 21
32.18637266376507
  0
LINE
  8
_0-1_作画層１
  6
CONTINUOUS
 62
    7
 10
80.500006079673767
 20
34.686365034370539
 11
89.000008583068833
 21
34.686365034370539
  0
LINE
  8
_0-1_作画層１
  6
CONTINUOUS
 62
    7
 10
91.500003814697251
 20
34.686365034370539
 11
100.00000572204588
 21
34.686365034370539
  0
LINE
  8
_0-1_作画層１
  6
CONTINUOUS
 62
    7
 10
80.500006079673767
 20
33.18637266376507
 11
89.000008583068833
 21
33.18637266376507
  0
LINE
  8
_0-1_作画層１
  6
CONTINUOUS
 62
    7
 10
91.500003814697251
 20
33.18637266376507
 11
100.00000572204588
 21
33.18637266376507
  0
LINE
  8
_0-1_作画層１
  6
CONTINUOUS
 62
    7
 10
80.500006079673767
 20
32.18637266376507
 11
89.000008583068833
 21
32.18637266376507
  0
LINE
  8
_0-1_作画層１
  6
CONTINUOUS
 62
    7
 10
91.500003814697251
 20
32.18637266376507
 11
100.00000572204588
 21
32.18637266376507
  0
LINE
  8
_0-1_作画層１
  6
CONTINUOUS
 62
    7
 10
102.75000572204588
 20
24.186361219673273
 11
55.749994277954102
 21
24.186361219673273
  0
LINE
  8
_0-1_作画層１
  6
CONTINUOUS
 62
    7
 10
102.75000572204588
 20
24.186361219673273
 11
110.74999809265135
 21
24.186361219673273
  0
LINE
  8
_0-1_作画層１
  6
CONTINUOUS
 62
    7
 10
55.749994277954102
 20
24.186361219673273
 11
47.750001907348633
 21
24.186361219673273
  0
LINE
  8
_0-1_作画層１
  6
CONTINUOUS
 62
    7
 10
50.249996185302734
 20
23.186357404976008
 11
55.249984741210937
 21
23.186357404976008
  0
LINE
  8
_0-1_作画層１
  6
CONTINUOUS
 62
    7
 10
50.249996185302734
 20
24.186361219673273
 11
55.249984741210937
 21
24.186361219673273
  0
LINE
  8
_0-1_作画層１
  6
CONTINUOUS
 62
    7
 10
55.249984741210937
 20
22.686349775581476
 11
55.249984741210937
 21
24.186361219673273
  0
LINE
  8
_0-1_作画層１
  6
CONTINUOUS
 62
    7
 10
51.249996185302734
 20
21.686365034370539
 11
54.249982833862305
 21
21.686365034370539
  0
LINE
  8
_0-1_作画層１
  6
CONTINUOUS
 62
    7
 10
50.249996185302734
 20
22.686349775581476
 11
50.249996185302734
 21
24.186361219673273
  0
LINE
  8
_0-1_作画層１
  6
CONTINUOUS
 62
    7
 10
103.24998092651366
 20
23.186357404976008
 11
108.24998664855956
 21
23.186357404976008
  0
LINE
  8
_0-1_作画層１
  6
CONTINUOUS
 62
    7
 10
103.24998092651366
 20
24.186361219673273
 11
108.24998664855956
 21
24.186361219673273
  0
LINE
  8
_0-1_作画層１
  6
CONTINUOUS
 62
    7
 10
108.24998664855956
 20
22.686349775581476
 11
108.24998664855956
 21
24.186361219673273
  0
LINE
  8
_0-1_作画層１
  6
CONTINUOUS
 62
    7
 10
104.24998092651366
 20
21.686365034370539
 11
107.24996757507323
 21
21.686365034370539
  0
LINE
  8
_0-1_作画層１
  6
CONTINUOUS
 62
    7
 10
103.24998092651366
 20
22.686349775581476
 11
103.24998092651366
 21
24.186361219673273
  0
LINE
  8
_0-1_作画層１
  6
CONTINUOUS
 62
    7
 10
48.249992370605469
 20
48.186393644600031
 11
48.249992370605469
 21
49.186393644600031
  0
LINE
  8
_0-1_作画層１
  6
CONTINUOUS
 62
    7
 10
48.249992370605469
 20
49.186393644600031
 11
57.249988555908203
 21
49.186393644600031
  0
LINE
  8
_0-1_作画層１
  6
CONTINUOUS
 62
    7
 10
57.249988555908203
 20
48.186393644600031
 11
57.249988555908203
 21
49.186393644600031
  0
LINE
  8
_0-1_作画層１
  6
CONTINUOUS
 62
    7
 10
48.249992370605469
 20
48.186393644600031
 11
53.738811492919922
 21
48.186393644600031
  0
LINE
  8
_0-1_作画層１
  6
CONTINUOUS
 62
    7
 10
53.738811492919922
 20
48.186393644600031
 11
57.249988555908203
 21
48.186393644600031
  0
LINE
  8
_0-1_作画層１
  6
CONTINUOUS
 62
    7
 10
100.00000572204588
 20
20.686365034370539
 11
58.499994277954102
 21
20.686365034370539
  0
LINE
  8
_0-1_作画層１
  6
CONTINUOUS
 62
    7
 10
58.499994277954102
 20
24.186361219673273
 11
58.499994277954102
 21
20.686365034370539
  0
LINE
  8
_0-1_作画層１
  6
CONTINUOUS
 62
    7
 10
100.00000572204588
 20
24.186361219673273
 11
100.00000572204588
 21
20.686365034370539
  0
LINE
  8
_0-1_作画層１
  6
CONTINUOUS
 62
    7
 10
56.499990463256836
 20
49.186393644600031
 11
48.999990463256836
 21
49.186393644600031
  0
LINE
  8
_0-1_作画層１
  6
CONTINUOUS
 62
    7
 10
48.999990463256836
 20
51.436401273994562
 11
48.999990463256836
 21
49.186393644600031
  0
LINE
  8
_0-1_作画層１
  6
CONTINUOUS
 62
    7
 10
54.999980926513672
 20
52.936395551948664
 11
50.5
 21
52.936395551948664
  0
LINE
  8
_0-1_作画層１
  6
CONTINUOUS
 62
    7
 10
56.499990463256836
 20
51.436401273994562
 11
56.499990463256836
 21
49.186393644600031
  0
ARC
  8
_0-1_作画層１
  6
CONTINUOUS
 62
    7
 10
61.250011444091797
 20
36.186357404976008
 40
1
 50
90
 51
180
  0
ARC
  8
_0-1_作画層１
  6
CONTINUOUS
 62
    7
 10
64.249997138977051
 20
36.186357404976008
 40
1
 50
0.0000000000002036
 51
90
  0
ARC
  8
_0-1_作画層１
  6
CONTINUOUS
 62
    7
 10
72.250008106231661
 20
36.186357404976022
 40
0.9999999999999893
 50
89.99999999999919
 51
180.0000000000006
  0
ARC
  8
_0-1_作画層１
  6
CONTINUOUS
 62
    7
 10
75.24999475479126
 20
36.186357404976008
 40
0.9999999999999856
 50
359.9999999999996
 51
90.000000000000782
  0
ARC
  8
_0-1_作画層１
  6
CONTINUOUS
 62
    7
 10
94.250002861022921
 20
36.186357404976022
 40
0.9999999999999893
 50
89.99999999999919
 51
180.0000000000006
  0
ARC
  8
_0-1_作画層１
  6
CONTINUOUS
 62
    7
 10
97.24998855590816
 20
36.186357404975993
 40
1.0000000000000284
 50
0.0000000000010178
 51
89.999999999998352
  0
ARC
  8
_0-1_作画層１
  6
CONTINUOUS
 62
    7
 10
83.250005245208712
 20
36.186357404976022
 40
0.9999999999999893
 50
89.99999999999919
 51
180.0000000000006
  0
ARC
  8
_0-1_作画層１
  6
CONTINUOUS
 62
    7
 10
86.249991893768311
 20
36.186357404976008
 40
0.9999999999999856
 50
359.9999999999996
 51
90.000000000000782
  0
ARC
  8
_0-1_作画層１
  6
CONTINUOUS
 62
    7
 10
54.249982833862305
 20
22.686349775581476
 40
1.0000000000000036
 50
270
 51
359.99999999999977
  0
ARC
  8
_0-1_作画層１
  6
CONTINUOUS
 62
    7
 10
51.249996185302734
 20
22.686349775581476
 40
1
 50
180.0000000000002
 51
270
  0
ARC
  8
_0-1_作画層１
  6
CONTINUOUS
 62
    7
 10
107.2499675750732
 20
22.68634977558149
 40
1.0000000000000178
 50
270.00000000000159
 51
359.99999999999898
  0
ARC
  8
_0-1_作画層１
  6
CONTINUOUS
 62
    7
 10
104.24998092651369
 20
22.68634977558149
 40
1.0000000000000284
 50
180.00000000000105
 51
269.99999999999835
  0
ARC
  8
_0-1_作画層１
  6
CONTINUOUS
 62
    7
 10
50.499999999999972
 20
51.436401273994562
 40
1.4999999999999929
 50
89.99999999999973
 51
180.00000000000026
  0
ARC
  8
_0-1_作画層１
  6
CONTINUOUS
 62
    7
 10
54.999980926513672
 20
51.436401273994562
 40
1.4999999999999929
 50
359.99999999999977
 51
90.00000000000027
  0
LINE
  8
_0-1_作画層１
  6
CONTINUOUS
 62
    7
 10
44.249994277954045
 20
54.249988555908232
 11
114.25000572204588
 21
54.249988555908232
  0
LINE
  8
_0-1_作画層１
  6
CONTINUOUS
 62
    7
 10
45.250001907348633
 20
31.686376478462336
 11
58.499994277954102
 21
31.686376478462336
  0
LINE
  8
_0-1_作画層１
  6
CONTINUOUS
 62
    7
 10
45.250001907348633
 20
48.186380293159601
 11
45.250001907348633
 21
31.686376478462336
  0
LINE
  8
_0-1_作画層１
  6
CONTINUOUS
 62
    7
 10
47.750001907348633
 20
31.686376478462336
 11
47.750001907348633
 21
24.186361219673273
  0
LINE
  8
_0-1_作画層１
  6
CONTINUOUS
 62
    7
 10
77.999993920326233
 20
31.686376478462336
 11
80.500006079673767
 21
31.686376478462336
  0
LINE
  8
_0-1_作画層１
  6
CONTINUOUS
 62
    7
 10
66.999996185302734
 20
31.686376478462336
 11
69.499991416931152
 21
31.686376478462336
  0
LINE
  8
_0-1_作画層１
  6
CONTINUOUS
 62
    7
 10
89.000008583068833
 20
31.686376478462336
 11
91.500003814697251
 21
31.686376478462336
  0
LINE
  8
_0-1_作画層１
  6
CONTINUOUS
 62
    7
 10
55.749994277954102
 20
31.686376478462336
 11
55.749994277954102
 21
24.186361219673273
  0
LINE
  8
_0-1_作画層１
  6
CONTINUOUS
 62
    7
 10
54.249994277954102
 20
31.686376478462336
 11
54.249994277954102
 21
48.186393644600031
  0
LINE
  8
_0-1_作画層１
  6
CONTINUOUS
 62
    7
 10
58.499994277954102
 20
30.686376478462336
 11
58.499994277954102
 21
37.186380293159601
  0
ARC
  8
_0-1_作画層１
  6
CONTINUOUS
 62
    7
 10
59.499994277954102
 20
37.186380293159601
 40
1
 50
90
 51
180
  0
LINE
  8
_0-1_作画層１
  6
CONTINUOUS
 62
    7
 10
59.499994277954102
 20
38.186380293159601
 11
65.999996185302734
 21
38.186380293159601
  0
LINE
  8
_0-1_作画層１
  6
CONTINUOUS
 62
    7
 10
66.999996185302734
 20
30.686376478462336
 11
66.999996185302734
 21
37.186380293159601
  0
ARC
  8
_0-1_作画層１
  6
CONTINUOUS
 62
    7
 10
65.999996185302734
 20
37.186380293159601
 40
1
 50
0
 51
90
  0
LINE
  8
_0-1_作画層１
  6
CONTINUOUS
 62
    7
 10
69.499991416931152
 20
30.686376478462336
 11
69.499991416931152
 21
37.186380293159601
  0
ARC
  8
_0-1_作画層１
  6
CONTINUOUS
 62
    7
 10
70.499991416931152
 20
37.186380293159601
 40
1
 50
90
 51
180
  0
LINE
  8
_0-1_作画層１
  6
CONTINUOUS
 62
    7
 10
70.499991416931152
 20
38.186380293159601
 11
76.999993920326233
 21
38.186380293159601
  0
LINE
  8
_0-1_作画層１
  6
CONTINUOUS
 62
    7
 10
77.999993920326233
 20
30.686376478462336
 11
77.999993920326233
 21
37.186380293159601
  0
ARC
  8
_0-1_作画層１
  6
CONTINUOUS
 62
    7
 10
76.999993920326233
 20
37.186380293159615
 40
0.9999999999999856
 50
359.9999999999992
 51
90.000000000000782
  0
LINE
  8
_0-1_作画層１
  6
CONTINUOUS
 62
    7
 10
80.500006079673767
 20
30.686376478462336
 11
80.500006079673767
 21
37.186380293159601
  0
ARC
  8
_0-1_作画層１
  6
CONTINUOUS
 62
    7
 10
81.500006079673739
 20
37.186380293159615
 40
0.9999999999999856
 50
89.99999999999919
 51
180.0000000000008
  0
LINE
  8
_0-1_作画層１
  6
CONTINUOUS
 62
    7
 10
81.500006079673767
 20
38.186380293159601
 11
88.000008583068833
 21
38.186380293159601
  0
LINE
  8
_0-1_作画層１
  6
CONTINUOUS
 62
    7
 10
89.000008583068833
 20
30.686376478462336
 11
89.000008583068833
 21
37.186380293159601
  0
ARC
  8
_0-1_作画層１
  6
CONTINUOUS
 62
    7
 10
88.000008583068848
 20
37.186380293159615
 40
0.9999999999999856
 50
359.9999999999992
 51
90.000000000000782
  0
LINE
  8
_0-1_作画層１
  6
CONTINUOUS
 62
    7
 10
91.500003814697251
 20
30.686376478462336
 11
91.500003814697251
 21
37.186380293159601
  0
ARC
  8
_0-1_作画層１
  6
CONTINUOUS
 62
    7
 10
92.500003814697237
 20
37.186380293159615
 40
0.9999999999999856
 50
89.99999999999919
 51
180.0000000000008
  0
LINE
  8
_0-1_作画層１
  6
CONTINUOUS
 62
    7
 10
92.500003814697251
 20
38.186380293159601
 11
99.000005722045884
 21
38.186380293159601
  0
LINE
  8
_0-1_作画層１
  6
CONTINUOUS
 62
    7
 10
100.00000572204588
 20
30.686376478462336
 11
100.00000572204588
 21
37.186380293159601
  0
ARC
  8
_0-1_作画層１
  6
CONTINUOUS
 62
    7
 10
99.000005722045898
 20
37.186380293159615
 40
0.9999999999999856
 50
359.9999999999992
 51
90.000000000000782
  0
LINE
  8
_0-1_作画層１
  6
CONTINUOUS
 62
    7
 10
113.24999809265137
 20
48.186380293159601
 11
45.250001907348633
 21
48.186380293159601
  0
LINE
  8
_0-1_作画層１
  6
CONTINUOUS
 62
    7
 10
113.24999809265135
 20
30.686376478462336
 11
113.24999809265137
 21
48.186380293159601
  0
LINE
  8
_0-1_作画層１
  6
CONTINUOUS
 62
    7
 10
104.25000572204588
 20
30.686376478462336
 11
104.2500057220459
 21
48.186393644600031
  0
LINE
  8
_0-1_作画層１
  6
CONTINUOUS
 62
    7
 10
102.75000572204588
 20
30.686376478462336
 11
102.75000572204588
 21
24.186361219673273
  0
LINE
  8
_0-1_作画層１
  6
CONTINUOUS
 62
    7
 10
110.74999809265135
 20
30.686376478462336
 11
110.74999809265134
 21
24.186361219673245
  0
LINE
  8
_0-1_作画層１
  6
CONTINUOUS
 62
    7
 10
108.24998664855956
 20
49.186382200508234
 11
103.24998092651366
 21
49.186382200508234
  0
LINE
  8
_0-1_作画層１
  6
CONTINUOUS
 62
    7
 10
103.24998092651366
 20
49.686391737251398
 11
103.24998092651366
 21
48.186380293159601
  0
LINE
  8
_0-1_作画層１
  6
CONTINUOUS
 62
    7
 10
107.24996757507323
 20
50.686374571113703
 11
104.24998092651366
 21
50.686374571113703
  0
LINE
  8
_0-1_作画層１
  6
CONTINUOUS
 62
    7
 10
108.24998664855956
 20
49.686391737251398
 11
108.24998664855956
 21
48.186380293159601
  0
ARC
  8
_0-1_作画層１
  6
CONTINUOUS
 62
    7
 10
104.24998092651369
 20
49.686391737251384
 40
1.0000000000000142
 50
90.000000000001634
 51
179.99999999999918
  0
ARC
  8
_0-1_作画層１
  6
CONTINUOUS
 62
    7
 10
107.2499675750732
 20
49.686391737251384
 40
1.0000000000000284
 50
0.0000000000008142
 51
89.99999999999838
  0
LINE
  8
_0-1_作画層１
  6
CONTINUOUS
 62
    7
 10
91.500003814697251
 20
30.686376478462336
 11
113.24999809265137
 21
30.686376478462336
  0
LINE
  8
_0-1_作画層１
  6
CONTINUOUS
 62
    7
 10
80.500006079673767
 20
30.686376478462336
 11
89.000008583068833
 21
30.686376478462336
  0
LINE
  8
_0-1_作画層１
  6
CONTINUOUS
 62
    7
 10
69.499991416931152
 20
30.686376478462336
 11
77.999993920326233
 21
30.686376478462336
  0
LINE
  8
_0-1_作画層１
  6
CONTINUOUS
 62
    7
 10
66.999996185302734
 20
30.686376478462336
 11
58.499994277954102
 21
30.686376478462336
  0
TEXT
  8
_0-7_注記層１
 62
    7
 10
66.5
 20
49.75
 40
3.5
 41
1
 50
0
  1
電源　　  負荷
  0
LINE
  8
_0-1_作画層１
  6
CONTINUOUS
 62
    7
 10
60
 20
50.375
 11
61.875
 21
50.375
  0
LINE
  8
_0-1_作画層１
  6
CONTINUOUS
 62
    7
 10
60.625
 20
49.75
 11
61.25
 21
49.75
  0
LINE
  8
_0-1_作画層１
  6
CONTINUOUS
 62
    7
 10
59.375
 20
51
 11
62.5
 21
51
  0
LINE
  8
_0-1_作画層１
  6
CONTINUOUS
 62
    7
 10
60.9375
 20
51
 11
60.9375
 21
52.875
  0
TEXT
  8
_0-7_注記層１
 62
    7
 10
306.25
 20
258
 40
3.5
 41
1
 50
0
  1
AC100V
  0
TEXT
  8
_0-7_注記層１
 62
    7
 10
306.25
 20
263
 40
3.5
 41
1
 50
0
  1
ET-100SC
  0
TEXT
  8
_0-7_注記層１
 62
    7
 10
306.25
 20
243
 40
3.5
 41
1
 50
0
  1
200時間（ニッケル水素電池使用）
  0
TEXT
  8
_0-7_注記層１
 62
    7
 10
271.25
 20
233
 40
3.5
 41
1
 50
0
  1
使 用 周 囲 温 度
  0
TEXT
  8
_0-7_注記層１
 62
    7
 10
271.25
 20
228
 40
3.5
 41
1
 50
0
  1
使 用 周 囲 湿 度
  0
TEXT
  8
_0-7_注記層１
 62
    7
 10
271.25
 20
223
 40
3.5
 41
1
 50
0
  1
接　点　定　格
  0
TEXT
  8
_0-7_注記層１
 62
    7
 10
271.25
 20
218
 40
3.5
 41
1
 50
0
  1
出　　　　　力
  0
TEXT
  8
_0-7_注記層１
 62
    7
 10
271.25
 20
213
 40
3.5
 41
1
 50
0
  1
設　定　回　数
  0
TEXT
  8
_0-7_注記層１
 62
    7
 10
271.25
 20
208
 40
3.5
 41
1
 50
0
  1
最 小 設 定 時 間
  0
TEXT
  8
_0-7_注記層１
 62
    7
 10
271.25
 20
203
 40
3.5
 41
1
 50
0
  1
時　間　精　度
  0
TEXT
  8
_0-7_注記層１
 62
    7
 10
271.25
 20
198
 40
3.5
 41
1
 50
0
  1
消　費　電　力　
  0
TEXT
  8
_0-7_注記層１
 62
    7
 10
271.25
 20
193
 40
3.5
 41
1
 50
0
  1
重　　　  　量
  0
TEXT
  8
_0-7_注記層１
 62
    7
 10
271.25
 20
188
 40
3.5
 41
1
 50
0
  1
外　形　寸　法
  0
TEXT
  8
_0-7_注記層１
 62
    7
 10
306.25
 20
233
 40
3.5
 41
1
 50
0
  1
-10℃～50℃
  0
TEXT
  8
_0-7_注記層１
 62
    7
 10
306.25
 20
218
 40
3.5
 41
1
 50
0
  1
接点出力（1a）
  0
TEXT
  8
_0-7_注記層１
 62
    7
 10
306.25
 20
223
 40
3.5
 41
1
 50
0
  1
抵抗負荷　AC250V  7A
  0
TEXT
  8
_0-7_注記層１
 62
    7
 10
306.25
 20
208
 40
3.5
 41
1
 50
0
  1
15分
  0
TEXT
  8
_0-7_注記層１
 62
    7
 10
306.25
 20
198
 40
3.5
 41
1
 50
0
  1
約3VA
  0
TEXT
  8
_0-7_注記層１
 62
    7
 10
271.25
 20
183
 40
3.5
 41
1
 50
0
  1
付　　属　　品
  0
LINE
  8
_0-1_作画層１
  6
CONTINUOUS
 62
    7
 10
381.25
 20
232.25
 11
268.75
 21
232.25
  0
LINE
  8
_0-1_作画層１
  6
CONTINUOUS
 62
    7
 10
381.25
 20
232.25
 11
268.75
 21
232.25
  0
LINE
  8
_0-1_作画層１
  6
CONTINUOUS
 62
    7
 10
381.25
 20
227.25
 11
268.75
 21
227.25
  0
LINE
  8
_0-1_作画層１
  6
CONTINUOUS
 62
    7
 10
381.25
 20
222.25
 11
268.75
 21
222.25
  0
LINE
  8
_0-1_作画層１
  6
CONTINUOUS
 62
    7
 10
381.25
 20
217.25
 11
268.75
 21
217.25
  0
LINE
  8
_0-1_作画層１
  6
CONTINUOUS
 62
    7
 10
381.25
 20
212.25
 11
268.75
 21
212.25
  0
LINE
  8
_0-1_作画層１
  6
CONTINUOUS
 62
    7
 10
381.25
 20
207.25
 11
268.75
 21
207.25
  0
LINE
  8
_0-1_作画層１
  6
CONTINUOUS
 62
    7
 10
381.25
 20
202.25
 11
268.75
 21
202.25
  0
LINE
  8
_0-1_作画層１
  6
CONTINUOUS
 62
    7
 10
381.25
 20
197.25
 11
268.75
 21
197.25
  0
LINE
  8
_0-1_作画層１
  6
CONTINUOUS
 62
    7
 10
381.25
 20
192.25
 11
268.75
 21
192.25
  0
LINE
  8
_0-1_作画層１
  6
CONTINUOUS
 62
    7
 10
381.25
 20
187.25
 11
268.75
 21
187.25
  0
LINE
  8
_0-1_作画層１
  6
CONTINUOUS
 62
    7
 10
381.25
 20
178.5
 11
268.75
 21
178.5
  0
LINE
  8
_0-1_作画層１
  6
CONTINUOUS
 62
    7
 10
381.25
 20
237.25
 11
268.75
 21
237.25
  0
TEXT
  8
_0-7_注記層１
 62
    7
 10
271.25
 20
238
 40
3.5
 41
1
 50
0
  1
充　電　時　間
  0
TEXT
  8
_0-7_注記層１
 62
    7
 10
306.25
 20
238
 40
3.5
 41
1
 50
0
  1
50時間（100％充電に対して）
  0
TEXT
  8
_0-7_注記層１
 62
    7
 10
306.25
 20
203
 40
3.5
 41
1
 50
0
  1
±15秒／月（25℃）
  0
TEXT
  8
_0-7_注記層１
 62
    7
 10
306.25
 20
183
 40
3.5
 41
1
 50
0
  1
前面カバー、取付ビス３本
  0
TEXT
  8
_0-7_注記層１
 62
    7
 10
306.25
 20
179.5
 40
3.5
 41
1
 50
0
  1
端子台カバー、（赤）（白）色設定子各３個
  0
LINE
  8
_0-1_作画層１
  6
CONTINUOUS
 62
    7
 10
268.75
 20
267.25
 11
268.75
 21
178.5
  0
LINE
  8
_0-1_作画層１
  6
CONTINUOUS
 62
    7
 10
303.75
 20
267.25
 11
303.75
 21
178.5
  0
LINE
  8
_0-1_作画層１
  6
CONTINUOUS
 62
    7
 10
381.25
 20
267.25
 11
381.25
 21
178.5
  0
TEXT
  8
_0-7_注記層１
 62
    7
 10
194.19112377850161
 20
188.11797638436488
 40
2.2999999999999998
 41
1
 50
90
  1
カレンダータイマー　　　ET-100SC
  0
TEXT
  8
_0-7_注記層１
 62
    7
 10
196.49112377850162
 20
188.11797638436488
 40
2.2999999999999998
 41
1
 50
90
  1
操作電圧　　AC100V     50/60Hz共用
  0
LINE
  8
_0-1_作画層１
  6
CONTINUOUS
 62
    7
 10
110.67899408284023
 20
265.1508875739645
 11
110.67817029114184
 21
265.16261134543237
  0
LINE
  8
_0-1_作画層１
  6
CONTINUOUS
 62
    7
 10
110.67817029114184
 20
265.16261134543237
 11
110.67811056882877
 21
265.17233936210761
  0
LINE
  8
_0-1_作画層１
  6
CONTINUOUS
 62
    7
 10
110.67811056882877
 20
265.17233936210761
 11
110.67829068707466
 21
265.18442269182276
  0
LINE
  8
_0-1_作画層１
  6
CONTINUOUS
 62
    7
 10
110.67829068707466
 20
265.18442269182276
 11
110.67871443953067
 21
265.19869475388725
  0
LINE
  8
_0-1_作画層１
  6
CONTINUOUS
 62
    7
 10
110.67871443953067
 20
265.19869475388725
 11
110.67938561984792
 21
265.21498896761045
  0
LINE
  8
_0-1_作画層１
  6
CONTINUOUS
 62
    7
 10
110.67938561984792
 20
265.21498896761045
 11
110.68030802167752
 21
265.23313875230144
  0
LINE
  8
_0-1_作画層１
  6
CONTINUOUS
 62
    7
 10
110.68030802167752
 20
265.23313875230144
 11
110.68148543867072
 21
265.25297752726999
  0
LINE
  8
_0-1_作画層１
  6
CONTINUOUS
 62
    7
 10
110.68148543867072
 20
265.25297752726999
 11
110.68292166447854
 21
265.2743387118249
  0
LINE
  8
_0-1_作画層１
  6
CONTINUOUS
 62
    7
 10
110.68292166447854
 20
265.2743387118249
 11
110.68462049275229
 21
265.29705572527604
  0
LINE
  8
_0-1_作画層１
  6
CONTINUOUS
 62
    7
 10
110.68462049275229
 20
265.29705572527604
 11
110.6865857171429
 21
265.32096198693222
  0
LINE
  8
_0-1_作画層１
  6
CONTINUOUS
 62
    7
 10
110.6865857171429
 20
265.32096198693222
 11
110.68882113130174
 21
265.34589091610314
  0
LINE
  8
_0-1_作画層１
  6
CONTINUOUS
 62
    7
 10
110.68882113130174
 20
265.34589091610314
 11
110.6913305288798
 21
265.37167593209801
  0
LINE
  8
_0-1_作画層１
  6
CONTINUOUS
 62
    7
 10
110.6913305288798
 20
265.37167593209801
 11
110.69411770352833
 21
265.3981504542262
  0
LINE
  8
_0-1_作画層１
  6
CONTINUOUS
 62
    7
 10
110.69411770352833
 20
265.3981504542262
 11
110.69718644889839
 21
265.42514790179695
  0
LINE
  8
_0-1_作画層１
  6
CONTINUOUS
 62
    7
 10
110.69718644889839
 20
265.42514790179695
 11
110.70054055864115
 21
265.45250169411963
  0
LINE
  8
_0-1_作画層１
  6
CONTINUOUS
 62
    7
 10
110.70054055864115
 20
265.45250169411963
 11
110.70418382640777
 21
265.48004525050362
  0
LINE
  8
_0-1_作画層１
  6
CONTINUOUS
 62
    7
 10
110.70418382640777
 20
265.48004525050362
 11
110.70812004584941
 21
265.50761199025823
  0
LINE
  8
_0-1_作画層１
  6
CONTINUOUS
 62
    7
 10
110.70812004584941
 20
265.50761199025823
 11
110.71235301061721
 21
265.53503533269276
  0
LINE
  8
_0-1_作画層１
  6
CONTINUOUS
 62
    7
 10
110.71235301061721
 20
265.53503533269276
 11
110.7168865143623
 21
265.56214869711653
  0
LINE
  8
_0-1_作画層１
  6
CONTINUOUS
 62
    7
 10
110.7168865143623
 20
265.56214869711653
 11
110.7217243507358
 21
265.5887855028389
  0
LINE
  8
_0-1_作画層１
  6
CONTINUOUS
 62
    7
 10
110.7217243507358
 20
265.5887855028389
 11
110.7268703133889
 21
265.6147791691692
  0
LINE
  8
_0-1_作画層１
  6
CONTINUOUS
 62
    7
 10
110.7268703133889
 20
265.6147791691692
 11
110.73232819597277
 21
265.63996311541678
  0
LINE
  8
_0-1_作画層１
  6
CONTINUOUS
 62
    7
 10
110.73232819597277
 20
265.63996311541678
 11
110.73810179213851
 21
265.6641707608909
  0
LINE
  8
_0-1_作画層１
  6
CONTINUOUS
 62
    7
 10
110.73810179213851
 20
265.6641707608909
 11
110.74419489553725
 21
265.68723552490098
  0
LINE
  8
_0-1_作画層１
  6
CONTINUOUS
 62
    7
 10
110.74419489553725
 20
265.68723552490098
 11
110.75061129982019
 21
265.70899082675629
  0
LINE
  8
_0-1_作画層１
  6
CONTINUOUS
 62
    7
 10
110.75061129982019
 20
265.70899082675629
 11
110.75735479863843
 21
265.72927008576619
  0
LINE
  8
_0-1_作画層１
  6
CONTINUOUS
 62
    7
 10
110.75735479863843
 20
265.72927008576619
 11
110.76442918564315
 21
265.74790672123999
  0
LINE
  8
_0-1_作画層１
  6
CONTINUOUS
 62
    7
 10
110.76442918564315
 20
265.74790672123999
 11
110.77183825448547
 21
265.76473415248694
  0
LINE
  8
_0-1_作画層１
  6
CONTINUOUS
 62
    7
 10
110.77183825448547
 20
265.76473415248694
 11
110.77958579881657
 21
265.77958579881658
  0
LINE
  8
_0-1_作画層１
  6
CONTINUOUS
 62
    7
 10
110.77958579881657
 20
265.77958579881658
 11
110.82140406105725
 21
265.84541359691485
  0
LINE
  8
_0-1_作画層１
  6
CONTINUOUS
 62
    7
 10
110.82140406105725
 20
265.84541359691485
 11
110.84612384926483
 21
265.87984672095223
  0
LINE
  8
_0-1_作画層１
  6
CONTINUOUS
 62
    7
 10
110.84612384926483
 20
265.87984672095223
 11
110.87318562716608
 21
265.91512252881057
  0
LINE
  8
_0-1_作画層１
  6
CONTINUOUS
 62
    7
 10
110.87318562716608
 20
265.91512252881057
 11
110.90244055848763
 21
265.95111342086153
  0
LINE
  8
_0-1_作画層１
  6
CONTINUOUS
 62
    7
 10
110.90244055848763
 20
265.95111342086153
 11
110.93373980695615
 21
265.9876917974766
  0
LINE
  8
_0-1_作画層１
  6
CONTINUOUS
 62
    7
 10
110.93373980695615
 20
265.9876917974766
 11
110.9669345362982
 21
266.02473005902726
  0
LINE
  8
_0-1_作画層１
  6
CONTINUOUS
 62
    7
 10
110.9669345362982
 20
266.02473005902726
 11
111.00187591024059
 21
266.06210060588541
  0
LINE
  8
_0-1_作画層１
  6
CONTINUOUS
 62
    7
 10
111.00187591024059
 20
266.06210060588541
 11
111.03841509250975
 21
266.09967583842229
  0
LINE
  8
_0-1_作画層１
  6
CONTINUOUS
 62
    7
 10
111.03841509250975
 20
266.09967583842229
 11
111.0764032468325
 21
266.13732815700985
  0
LINE
  8
_0-1_作画層１
  6
CONTINUOUS
 62
    7
 10
111.0764032468325
 20
266.13732815700985
 11
111.11569153693533
 21
266.17492996201923
  0
LINE
  8
_0-1_作画層１
  6
CONTINUOUS
 62
    7
 10
111.11569153693533
 20
266.17492996201923
 11
111.15613112654502
 21
266.21235365382245
  0
LINE
  8
_0-1_作画層１
  6
CONTINUOUS
 62
    7
 10
111.15613112654502
 20
266.21235365382245
 11
111.1975731793881
 21
266.2494716327908
  0
LINE
  8
_0-1_作画層１
  6
CONTINUOUS
 62
    7
 10
111.1975731793881
 20
266.2494716327908
 11
111.23986885919129
 21
266.28615629929601
  0
LINE
  8
_0-1_作画層１
  6
CONTINUOUS
 62
    7
 10
111.23986885919129
 20
266.28615629929601
 11
111.28286932968116
 21
266.32228005370956
  0
LINE
  8
_0-1_作画層１
  6
CONTINUOUS
 62
    7
 10
111.28286932968116
 20
266.32228005370956
 11
111.32642575458441
 21
266.35771529640317
  0
LINE
  8
_0-1_作画層１
  6
CONTINUOUS
 62
    7
 10
111.32642575458441
 20
266.35771529640317
 11
111.37038929762764
 21
266.39233442774827
  0
LINE
  8
_0-1_作画層１
  6
CONTINUOUS
 62
    7
 10
111.37038929762764
 20
266.39233442774827
 11
111.41461112253751
 21
266.42600984811651
  0
LINE
  8
_0-1_作画層１
  6
CONTINUOUS
 62
    7
 10
111.41461112253751
 20
266.42600984811651
 11
111.45894239304064
 21
266.45861395787949
  0
LINE
  8
_0-1_作画層１
  6
CONTINUOUS
 62
    7
 10
111.45894239304064
 20
266.45861395787949
 11
111.50323427286372
 21
266.49001915740882
  0
LINE
  8
_0-1_作画層１
  6
CONTINUOUS
 62
    7
 10
111.50323427286372
 20
266.49001915740882
 11
111.54733792573329
 21
266.52009784707599
  0
LINE
  8
_0-1_作画層１
  6
CONTINUOUS
 62
    7
 10
111.54733792573329
 20
266.52009784707599
 11
111.59110451537609
 21
266.5487224272527
  0
LINE
  8
_0-1_作画層１
  6
CONTINUOUS
 62
    7
 10
111.59110451537609
 20
266.5487224272527
 11
111.63438520551875
 21
266.5757652983105
  0
LINE
  8
_0-1_作画層１
  6
CONTINUOUS
 62
    7
 10
111.63438520551875
 20
266.5757652983105
 11
111.67703115988786
 21
266.60109886062088
  0
LINE
  8
_0-1_作画層１
  6
CONTINUOUS
 62
    7
 10
111.67703115988786
 20
266.60109886062088
 11
111.71889354221008
 21
266.62459551455549
  0
LINE
  8
_0-1_作画層１
  6
CONTINUOUS
 62
    7
 10
111.71889354221008
 20
266.62459551455549
 11
111.75982351621207
 21
266.64612766048594
  0
LINE
  8
_0-1_作画層１
  6
CONTINUOUS
 62
    7
 10
111.75982351621207
 20
266.64612766048594
 11
111.79967224562043
 21
266.66556769878383
  0
LINE
  8
_0-1_作画層１
  6
CONTINUOUS
 62
    7
 10
111.79967224562043
 20
266.66556769878383
 11
111.83829089416183
 21
266.68278802982064
  0
LINE
  8
_0-1_作画層１
  6
CONTINUOUS
 62
    7
 10
111.83829089416183
 20
266.68278802982064
 11
111.87553062556289
 21
266.69766105396803
  0
LINE
  8
_0-1_作画層１
  6
CONTINUOUS
 62
    7
 10
111.87553062556289
 20
266.69766105396803
 11
111.91124260355029
 21
266.71005917159761
  0
LINE
  8
_0-1_作画層１
  6
CONTINUOUS
 62
    7
 10
111.91124260355029
 20
266.71005917159761
 11
111.98358480126834
 21
266.72875124979225
  0
LINE
  8
_0-1_作画層１
  6
CONTINUOUS
 62
    7
 10
111.98358480126834
 20
266.72875124979225
 11
112.02330002332546
 21
266.736113902532
  0
LINE
  8
_0-1_作画層１
  6
CONTINUOUS
 62
    7
 10
112.02330002332546
 20
266.736113902532
 11
112.06514194358608
 21
266.74221580573936
  0
LINE
  8
_0-1_作画層１
  6
CONTINUOUS
 62
    7
 10
112.06514194358608
 20
266.74221580573936
 11
112.10893352410373
 21
266.7471030904436
  0
LINE
  8
_0-1_作画層１
  6
CONTINUOUS
 62
    7
 10
112.10893352410373
 20
266.7471030904436
 11
112.15449772693194
 21
266.75082188767431
  0
LINE
  8
_0-1_作画層１
  6
CONTINUOUS
 62
    7
 10
112.15449772693194
 20
266.75082188767431
 11
112.20165751412425
 21
266.75341832846067
  0
LINE
  8
_0-1_作画層１
  6
CONTINUOUS
 62
    7
 10
112.20165751412425
 20
266.75341832846067
 11
112.25023584773432
 21
266.75493854383245
  0
LINE
  8
_0-1_作画層１
  6
CONTINUOUS
 62
    7
 10
112.25023584773432
 20
266.75493854383245
 11
112.30005568981555
 21
266.75542866481874
  0
LINE
  8
_0-1_作画層１
  6
CONTINUOUS
 62
    7
 10
112.30005568981555
 20
266.75542866481874
 11
112.35094000242167
 21
266.75493482244929
  0
LINE
  8
_0-1_作画層１
  6
CONTINUOUS
 62
    7
 10
112.35094000242167
 20
266.75493482244929
 11
112.40271174760602
 21
266.75350314775307
  0
LINE
  8
_0-1_作画層１
  6
CONTINUOUS
 62
    7
 10
112.40271174760602
 20
266.75350314775307
 11
112.45519388742234
 21
266.75117977175989
  0
LINE
  8
_0-1_作画層１
  6
CONTINUOUS
 62
    7
 10
112.45519388742234
 20
266.75117977175989
 11
112.50820938392408
 21
266.74801082549908
  0
LINE
  8
_0-1_作画層１
  6
CONTINUOUS
 62
    7
 10
112.50820938392408
 20
266.74801082549908
 11
112.56158119916483
 21
266.74404244000004
  0
LINE
  8
_0-1_作画層１
  6
CONTINUOUS
 62
    7
 10
112.56158119916483
 20
266.74404244000004
 11
112.61513229519811
 21
266.73932074629209
  0
LINE
  8
_0-1_作画層１
  6
CONTINUOUS
 62
    7
 10
112.61513229519811
 20
266.73932074629209
 11
112.66868563407752
 21
266.73389187540477
  0
LINE
  8
_0-1_作画層１
  6
CONTINUOUS
 62
    7
 10
112.66868563407752
 20
266.73389187540477
 11
112.72206417785654
 21
266.72780195836748
  0
LINE
  8
_0-1_作画層１
  6
CONTINUOUS
 62
    7
 10
112.72206417785654
 20
266.72780195836748
 11
112.77509088858881
 21
266.72109712620966
  0
LINE
  8
_0-1_作画層１
  6
CONTINUOUS
 62
    7
 10
112.77509088858881
 20
266.72109712620966
 11
112.82758872832783
 21
266.71382350996066
  0
LINE
  8
_0-1_作画層１
  6
CONTINUOUS
 62
    7
 10
112.82758872832783
 20
266.71382350996066
 11
112.87938065912715
 21
266.70602724064997
  0
LINE
  8
_0-1_作画層１
  6
CONTINUOUS
 62
    7
 10
112.87938065912715
 20
266.70602724064997
 11
112.93028964304034
 21
266.69775444930696
  0
LINE
  8
_0-1_作画層１
  6
CONTINUOUS
 62
    7
 10
112.93028964304034
 20
266.69775444930696
 11
112.98013864212093
 21
266.68905126696109
  0
LINE
  8
_0-1_作画層１
  6
CONTINUOUS
 62
    7
 10
112.98013864212093
 20
266.68905126696109
 11
113.02875061842252
 21
266.67996382464185
  0
LINE
  8
_0-1_作画層１
  6
CONTINUOUS
 62
    7
 10
113.02875061842252
 20
266.67996382464185
 11
113.0759485339986
 21
266.67053825337848
  0
LINE
  8
_0-1_作画層１
  6
CONTINUOUS
 62
    7
 10
113.0759485339986
 20
266.67053825337848
 11
113.12155535090275
 21
266.66082068420053
  0
LINE
  8
_0-1_作画層１
  6
CONTINUOUS
 62
    7
 10
113.12155535090275
 20
266.66082068420053
 11
113.16539403118853
 21
266.65085724813736
  0
LINE
  8
_0-1_作画層１
  6
CONTINUOUS
 62
    7
 10
113.16539403118853
 20
266.65085724813736
 11
113.20728753690949
 21
266.64069407621844
  0
LINE
  8
_0-1_作画層１
  6
CONTINUOUS
 62
    7
 10
113.20728753690949
 20
266.64069407621844
 11
113.24705883011919
 21
266.63037729947314
  0
LINE
  8
_0-1_作画層１
  6
CONTINUOUS
 62
    7
 10
113.24705883011919
 20
266.63037729947314
 11
113.28453087287113
 21
266.61995304893094
  0
LINE
  8
_0-1_作画層１
  6
CONTINUOUS
 62
    7
 10
113.28453087287113
 20
266.61995304893094
 11
113.31952662721893
 21
266.60946745562126
  0
LINE
  8
_0-1_作画層１
  6
CONTINUOUS
 62
    7
 10
113.31952662721893
 20
266.60946745562126
 11
113.43039040152063
 21
266.57136469141119
  0
LINE
  8
_0-1_作画層１
  6
CONTINUOUS
 62
    7
 10
113.43039040152063
 20
266.57136469141119
 11
113.48738506311705
 21
266.54925004711407
  0
LINE
  8
_0-1_作画層１
  6
CONTINUOUS
 62
    7
 10
113.48738506311705
 20
266.54925004711407
 11
113.54537254612593
 21
266.52518933036561
  0
LINE
  8
_0-1_作画層１
  6
CONTINUOUS
 62
    7
 10
113.54537254612593
 20
266.52518933036561
 11
113.60431607938389
 21
266.4992546179231
  0
LINE
  8
_0-1_作画層１
  6
CONTINUOUS
 62
    7
 10
113.60431607938389
 20
266.4992546179231
 11
113.66417889172747
 21
266.47151798654409
  0
LINE
  8
_0-1_作画層１
  6
CONTINUOUS
 62
    7
 10
113.66417889172747
 20
266.47151798654409
 11
113.72492421199323
 21
266.44205151298593
  0
LINE
  8
_0-1_作画層１
  6
CONTINUOUS
 62
    7
 10
113.72492421199323
 20
266.44205151298593
 11
113.78651526901784
 21
266.41092727400638
  0
LINE
  8
_0-1_作画層１
  6
CONTINUOUS
 62
    7
 10
113.78651526901784
 20
266.41092727400638
 11
113.84891529163772
 21
266.37821734636259
  0
LINE
  8
_0-1_作画層１
  6
CONTINUOUS
 62
    7
 10
113.84891529163772
 20
266.37821734636259
 11
113.91208750868962
 21
266.34399380681231
  0
LINE
  8
_0-1_作画層１
  6
CONTINUOUS
 62
    7
 10
113.91208750868962
 20
266.34399380681231
 11
113.97599514900996
 21
266.30832873211256
  0
LINE
  8
_0-1_作画層１
  6
CONTINUOUS
 62
    7
 10
113.97599514900996
 20
266.30832873211256
 11
114.04060144143543
 21
266.27129419902133
  0
LINE
  8
_0-1_作画層１
  6
CONTINUOUS
 62
    7
 10
114.04060144143543
 20
266.27129419902133
 11
114.10586961480251
 21
266.23296228429558
  0
LINE
  8
_0-1_作画層１
  6
CONTINUOUS
 62
    7
 10
114.10586961480251
 20
266.23296228429558
 11
114.17176289794786
 21
266.1934050646932
  0
LINE
  8
_0-1_作画層１
  6
CONTINUOUS
 62
    7
 10
114.17176289794786
 20
266.1934050646932
 11
114.23824451970798
 21
266.15269461697136
  0
LINE
  8
_0-1_作画層１
  6
CONTINUOUS
 62
    7
 10
114.23824451970798
 20
266.15269461697136
 11
114.3052777089195
 21
266.11090301788767
  0
LINE
  8
_0-1_作画層１
  6
CONTINUOUS
 62
    7
 10
114.3052777089195
 20
266.11090301788767
 11
114.37282569441896
 21
266.06810234419947
  0
LINE
  8
_0-1_作画層１
  6
CONTINUOUS
 62
    7
 10
114.37282569441896
 20
266.06810234419947
 11
114.44085170504297
 21
266.02436467266432
  0
LINE
  8
_0-1_作画層１
  6
CONTINUOUS
 62
    7
 10
114.44085170504297
 20
266.02436467266432
 11
114.50931896962808
 21
265.97976208003968
  0
LINE
  8
_0-1_作画層１
  6
CONTINUOUS
 62
    7
 10
114.50931896962808
 20
265.97976208003968
 11
114.57819071701087
 21
265.93436664308297
  0
LINE
  8
_0-1_作画層１
  6
CONTINUOUS
 62
    7
 10
114.57819071701087
 20
265.93436664308297
 11
114.64743017602788
 21
265.88825043855161
  0
LINE
  8
_0-1_作画層１
  6
CONTINUOUS
 62
    7
 10
114.64743017602788
 20
265.88825043855161
 11
114.71700057551573
 21
265.84148554320313
  0
LINE
  8
_0-1_作画層１
  6
CONTINUOUS
 62
    7
 10
114.71700057551573
 20
265.84148554320313
 11
114.78686514431102
 21
265.79414403379502
  0
LINE
  8
_0-1_作画層１
  6
CONTINUOUS
 62
    7
 10
114.78686514431102
 20
265.79414403379502
 11
114.85698711125025
 21
265.74629798708463
  0
LINE
  8
_0-1_作画層１
  6
CONTINUOUS
 62
    7
 10
114.85698711125025
 20
265.74629798708463
 11
114.92732970517005
 21
265.6980194798295
  0
LINE
  8
_0-1_作画層１
  6
CONTINUOUS
 62
    7
 10
114.92732970517005
 20
265.6980194798295
 11
114.99785615490697
 21
265.64938058878704
  0
LINE
  8
_0-1_作画層１
  6
CONTINUOUS
 62
    7
 10
114.99785615490697
 20
265.64938058878704
 11
115.06852968929758
 21
265.60045339071479
  0
LINE
  8
_0-1_作画層１
  6
CONTINUOUS
 62
    7
 10
115.06852968929758
 20
265.60045339071479
 11
115.13931353717847
 21
265.55130996237011
  0
LINE
  8
_0-1_作画層１
  6
CONTINUOUS
 62
    7
 10
115.13931353717847
 20
265.55130996237011
 11
115.21017092738622
 21
265.50202238051054
  0
LINE
  8
_0-1_作画層１
  6
CONTINUOUS
 62
    7
 10
115.21017092738622
 20
265.50202238051054
 11
115.28106508875739
 21
265.45266272189349
  0
LINE
  8
_0-1_作画層１
  6
CONTINUOUS
 62
    7
 10
117.0414201183432
 20
262.68639053254441
 11
117.05433286551352
 21
262.67506469301389
  0
LINE
  8
_0-1_作画層１
  6
CONTINUOUS
 62
    7
 10
117.05433286551352
 20
262.67506469301389
 11
117.06516550181102
 21
262.66600930751787
  0
LINE
  8
_0-1_作画層１
  6
CONTINUOUS
 62
    7
 10
117.06516550181102
 20
262.66600930751787
 11
117.07868121734273
 21
262.65489211014477
  0
LINE
  8
_0-1_作画層１
  6
CONTINUOUS
 62
    7
 10
117.07868121734273
 20
262.65489211014477
 11
117.09470419017825
 21
262.64186297485213
  0
LINE
  8
_0-1_作画層１
  6
CONTINUOUS
 62
    7
 10
117.09470419017825
 20
262.64186297485213
 11
117.11305859838707
 21
262.62707177559764
  0
LINE
  8
_0-1_作画層１
  6
CONTINUOUS
 62
    7
 10
117.11305859838707
 20
262.62707177559764
 11
117.13356862003866
 21
262.61066838633872
  0
LINE
  8
_0-1_作画層１
  6
CONTINUOUS
 62
    7
 10
117.13356862003866
 20
262.61066838633872
 11
117.15605843320269
 21
262.59280268103333
  0
LINE
  8
_0-1_作画層１
  6
CONTINUOUS
 62
    7
 10
117.15605843320269
 20
262.59280268103333
 11
117.18035221594856
 21
262.57362453363862
  0
LINE
  8
_0-1_作画層１
  6
CONTINUOUS
 62
    7
 10
117.18035221594856
 20
262.57362453363862
 11
117.20627414634593
 21
262.55328381811267
  0
LINE
  8
_0-1_作画層１
  6
CONTINUOUS
 62
    7
 10
117.20627414634593
 20
262.55328381811267
 11
117.23364840246415
 21
262.53193040841256
  0
LINE
  8
_0-1_作画層１
  6
CONTINUOUS
 62
    7
 10
117.23364840246415
 20
262.53193040841256
 11
117.26229916237294
 21
262.50971417849632
  0
LINE
  8
_0-1_作画層１
  6
CONTINUOUS
 62
    7
 10
117.26229916237294
 20
262.50971417849632
 11
117.29205060414169
 21
262.48678500232131
  0
LINE
  8
_0-1_作画層１
  6
CONTINUOUS
 62
    7
 10
117.29205060414169
 20
262.48678500232131
 11
117.32272690584001
 21
262.46329275384517
  0
LINE
  8
_0-1_作画層１
  6
CONTINUOUS
 62
    7
 10
117.32272690584001
 20
262.46329275384517
 11
117.35415224553738
 21
262.43938730702553
  0
LINE
  8
_0-1_作画層１
  6
CONTINUOUS
 62
    7
 10
117.35415224553738
 20
262.43938730702553
 11
117.38615080130333
 21
262.41521853582003
  0
LINE
  8
_0-1_作画層１
  6
CONTINUOUS
 62
    7
 10
117.38615080130333
 20
262.41521853582003
 11
117.41854675120742
 21
262.39093631418609
  0
LINE
  8
_0-1_作画層１
  6
CONTINUOUS
 62
    7
 10
117.41854675120742
 20
262.39093631418609
 11
117.45116427331916
 21
262.36669051608146
  0
LINE
  8
_0-1_作画層１
  6
CONTINUOUS
 62
    7
 10
117.45116427331916
 20
262.36669051608146
 11
117.4838275457081
 21
262.34263101546378
  0
LINE
  8
_0-1_作画層１
  6
CONTINUOUS
 62
    7
 10
117.4838275457081
 20
262.34263101546378
 11
117.51636074644374
 21
262.31890768629046
  0
LINE
  8
_0-1_作画層１
  6
CONTINUOUS
 62
    7
 10
117.51636074644374
 20
262.31890768629046
 11
117.54858805359559
 21
262.29567040251925
  0
LINE
  8
_0-1_作画層１
  6
CONTINUOUS
 62
    7
 10
117.54858805359559
 20
262.29567040251925
 11
117.58033364523325
 21
262.27306903810768
  0
LINE
  8
_0-1_作画層１
  6
CONTINUOUS
 62
    7
 10
117.58033364523325
 20
262.27306903810768
 11
117.61142169942623
 21
262.25125346701344
  0
LINE
  8
_0-1_作画層１
  6
CONTINUOUS
 62
    7
 10
117.61142169942623
 20
262.25125346701344
 11
117.641676394244
 21
262.23037356319395
  0
LINE
  8
_0-1_作画層１
  6
CONTINUOUS
 62
    7
 10
117.641676394244
 20
262.23037356319395
 11
117.67092190775614
 21
262.21057920060696
  0
LINE
  8
_0-1_作画層１
  6
CONTINUOUS
 62
    7
 10
117.67092190775614
 20
262.21057920060696
 11
117.69898241803216
 21
262.19202025320999
  0
LINE
  8
_0-1_作画層１
  6
CONTINUOUS
 62
    7
 10
117.69898241803216
 20
262.19202025320999
 11
117.72568210314161
 21
262.17484659496068
  0
LINE
  8
_0-1_作画層１
  6
CONTINUOUS
 62
    7
 10
117.72568210314161
 20
262.17484659496068
 11
117.75084514115399
 21
262.15920809981662
  0
LINE
  8
_0-1_作画層１
  6
CONTINUOUS
 62
    7
 10
117.75084514115399
 20
262.15920809981662
 11
117.77429571013883
 21
262.14525464173533
  0
LINE
  8
_0-1_作画層１
  6
CONTINUOUS
 62
    7
 10
117.77429571013883
 20
262.14525464173533
 11
117.79585798816569
 21
262.13313609467457
  0
LINE
  8
_0-1_作画層１
  6
CONTINUOUS
 62
    7
 10
117.79585798816569
 20
262.13313609467457
 11
117.85293352665134
 21
262.10345124446451
  0
LINE
  8
_0-1_作画層１
  6
CONTINUOUS
 62
    7
 10
117.85293352665134
 20
262.10345124446451
 11
117.88420675801407
 21
262.08804342590656
  0
LINE
  8
_0-1_作画層１
  6
CONTINUOUS
 62
    7
 10
117.88420675801407
 20
262.08804342590656
 11
117.91713064819176
 21
262.07232078353951
  0
LINE
  8
_0-1_作画層１
  6
CONTINUOUS
 62
    7
 10
117.91713064819176
 20
262.07232078353951
 11
117.95157546023576
 21
262.05632989623291
  0
LINE
  8
_0-1_作画層１
  6
CONTINUOUS
 62
    7
 10
117.95157546023576
 20
262.05632989623291
 11
117.98741145719733
 21
262.04011734285649
  0
LINE
  8
_0-1_作画層１
  6
CONTINUOUS
 62
    7
 10
117.98741145719733
 20
262.04011734285649
 11
118.02450890212768
 21
262.02372970227952
  0
LINE
  8
_0-1_作画層１
  6
CONTINUOUS
 62
    7
 10
118.02450890212768
 20
262.02372970227952
 11
118.06273805807825
 21
262.00721355337197
  0
LINE
  8
_0-1_作画層１
  6
CONTINUOUS
 62
    7
 10
118.06273805807825
 20
262.00721355337197
 11
118.10196918810023
 21
261.9906154750031
  0
LINE
  8
_0-1_作画層１
  6
CONTINUOUS
 62
    7
 10
118.10196918810023
 20
261.9906154750031
 11
118.14207255524498
 21
261.97398204604286
  0
LINE
  8
_0-1_作画層１
  6
CONTINUOUS
 62
    7
 10
118.14207255524498
 20
261.97398204604286
 11
118.18291842256369
 21
261.95735984536043
  0
LINE
  8
_0-1_作画層１
  6
CONTINUOUS
 62
    7
 10
118.18291842256369
 20
261.95735984536043
 11
118.22437705310776
 21
261.94079545182575
  0
LINE
  8
_0-1_作画層１
  6
CONTINUOUS
 62
    7
 10
118.22437705310776
 20
261.94079545182575
 11
118.26631870992841
 21
261.92433544430821
  0
LINE
  8
_0-1_作画層１
  6
CONTINUOUS
 62
    7
 10
118.26631870992841
 20
261.92433544430821
 11
118.30861365607694
 21
261.90802640167749
  0
LINE
  8
_0-1_作画層１
  6
CONTINUOUS
 62
    7
 10
118.30861365607694
 20
261.90802640167749
 11
118.35113215460466
 21
261.89191490280308
  0
LINE
  8
_0-1_作画層１
  6
CONTINUOUS
 62
    7
 10
118.35113215460466
 20
261.89191490280308
 11
118.39374446856286
 21
261.87604752655471
  0
LINE
  8
_0-1_作画層１
  6
CONTINUOUS
 62
    7
 10
118.39374446856286
 20
261.87604752655471
 11
118.4363208610028
 21
261.86047085180189
  0
LINE
  8
_0-1_作画層１
  6
CONTINUOUS
 62
    7
 10
118.4363208610028
 20
261.86047085180189
 11
118.4787315949758
 21
261.84523145741423
  0
LINE
  8
_0-1_作画層１
  6
CONTINUOUS
 62
    7
 10
118.4787315949758
 20
261.84523145741423
 11
118.52084693353314
 21
261.83037592226128
  0
LINE
  8
_0-1_作画層１
  6
CONTINUOUS
 62
    7
 10
118.52084693353314
 20
261.83037592226128
 11
118.56253713972613
 21
261.81595082521272
  0
LINE
  8
_0-1_作画層１
  6
CONTINUOUS
 62
    7
 10
118.56253713972613
 20
261.81595082521272
 11
118.60367247660599
 21
261.802002745138
  0
LINE
  8
_0-1_作画層１
  6
CONTINUOUS
 62
    7
 10
118.60367247660599
 20
261.802002745138
 11
118.6441232072241
 21
261.78857826090683
  0
LINE
  8
_0-1_作画層１
  6
CONTINUOUS
 62
    7
 10
118.6441232072241
 20
261.78857826090683
 11
118.68375959463174
 21
261.77572395138884
  0
LINE
  8
_0-1_作画層１
  6
CONTINUOUS
 62
    7
 10
118.68375959463174
 20
261.77572395138884
 11
118.72245190188013
 21
261.76348639545347
  0
LINE
  8
_0-1_作画層１
  6
CONTINUOUS
 62
    7
 10
118.72245190188013
 20
261.76348639545347
 11
118.76007039202061
 21
261.75191217197039
  0
LINE
  8
_0-1_作画層１
  6
CONTINUOUS
 62
    7
 10
118.76007039202061
 20
261.75191217197039
 11
118.79648532810447
 21
261.74104785980921
  0
LINE
  8
_0-1_作画層１
  6
CONTINUOUS
 62
    7
 10
118.79648532810447
 20
261.74104785980921
 11
118.83156697318299
 21
261.7309400378395
  0
LINE
  8
_0-1_作画層１
  6
CONTINUOUS
 62
    7
 10
118.83156697318299
 20
261.7309400378395
 11
118.86518559030745
 21
261.72163528493093
  0
LINE
  8
_0-1_作画層１
  6
CONTINUOUS
 62
    7
 10
118.86518559030745
 20
261.72163528493093
 11
118.89721144252916
 21
261.71318017995287
  0
LINE
  8
_0-1_作画層１
  6
CONTINUOUS
 62
    7
 10
118.89721144252916
 20
261.71318017995287
 11
118.92751479289942
 21
261.70562130177512
  0
LINE
  8
_0-1_作画層１
  6
CONTINUOUS
 62
    7
 10
118.92751479289942
 20
261.70562130177512
 11
119.00898035572382
 21
261.68666544554242
  0
LINE
  8
_0-1_作画層１
  6
CONTINUOUS
 62
    7
 10
119.00898035572382
 20
261.68666544554242
 11
119.05334445771136
 21
261.67685498952892
  0
LINE
  8
_0-1_作画層１
  6
CONTINUOUS
 62
    7
 10
119.05334445771136
 20
261.67685498952892
 11
119.09988972875766
 21
261.66689389239582
  0
LINE
  8
_0-1_作画層１
  6
CONTINUOUS
 62
    7
 10
119.09988972875766
 20
261.66689389239582
 11
119.14843638536911
 21
261.65683543725208
  0
LINE
  8
_0-1_作画層１
  6
CONTINUOUS
 62
    7
 10
119.14843638536911
 20
261.65683543725208
 11
119.19880464405212
 21
261.64673290720663
  0
LINE
  8
_0-1_作画層１
  6
CONTINUOUS
 62
    7
 10
119.19880464405212
 20
261.64673290720663
 11
119.25081472131301
 21
261.63663958536836
  0
LINE
  8
_0-1_作画層１
  6
CONTINUOUS
 62
    7
 10
119.25081472131301
 20
261.63663958536836
 11
119.3042868336583
 21
261.62660875484636
  0
LINE
  8
_0-1_作画層１
  6
CONTINUOUS
 62
    7
 10
119.3042868336583
 20
261.62660875484636
 11
119.35904119759424
 21
261.61669369874932
  0
LINE
  8
_0-1_作画層１
  6
CONTINUOUS
 62
    7
 10
119.35904119759424
 20
261.61669369874932
 11
119.41489802962739
 21
261.60694770018642
  0
LINE
  8
_0-1_作画層１
  6
CONTINUOUS
 62
    7
 10
119.41489802962739
 20
261.60694770018642
 11
119.47167754626399
 21
261.59742404226631
  0
LINE
  8
_0-1_作画層１
  6
CONTINUOUS
 62
    7
 10
119.47167754626399
 20
261.59742404226631
 11
119.52919996401054
 21
261.58817600809817
  0
LINE
  8
_0-1_作画層１
  6
CONTINUOUS
 62
    7
 10
119.52919996401054
 20
261.58817600809817
 11
119.58728549937339
 21
261.57925688079075
  0
LINE
  8
_0-1_作画層１
  6
CONTINUOUS
 62
    7
 10
119.58728549937339
 20
261.57925688079075
 11
119.64575436885895
 21
261.57071994345313
  0
LINE
  8
_0-1_作画層１
  6
CONTINUOUS
 62
    7
 10
119.64575436885895
 20
261.57071994345313
 11
119.70442678897356
 21
261.5626184791941
  0
LINE
  8
_0-1_作画層１
  6
CONTINUOUS
 62
    7
 10
119.70442678897356
 20
261.5626184791941
 11
119.76312297622368
 21
261.55500577112264
  0
LINE
  8
_0-1_作画層１
  6
CONTINUOUS
 62
    7
 10
119.76312297622368
 20
261.55500577112264
 11
119.82166314711569
 21
261.54793510234765
  0
LINE
  8
_0-1_作画層１
  6
CONTINUOUS
 62
    7
 10
119.82166314711569
 20
261.54793510234765
 11
119.87986751815598
 21
261.54145975597811
  0
LINE
  8
_0-1_作画層１
  6
CONTINUOUS
 62
    7
 10
119.87986751815598
 20
261.54145975597811
 11
119.93755630585093
 21
261.53563301512298
  0
LINE
  8
_0-1_作画層１
  6
CONTINUOUS
 62
    7
 10
119.93755630585093
 20
261.53563301512298
 11
119.99454972670696
 21
261.53050816289112
  0
LINE
  8
_0-1_作画層１
  6
CONTINUOUS
 62
    7
 10
119.99454972670696
 20
261.53050816289112
 11
120.05066799723042
 21
261.52613848239139
  0
LINE
  8
_0-1_作画層１
  6
CONTINUOUS
 62
    7
 10
120.05066799723042
 20
261.52613848239139
 11
120.10573133392776
 21
261.5225772567328
  0
LINE
  8
_0-1_作画層１
  6
CONTINUOUS
 62
    7
 10
120.10573133392776
 20
261.5225772567328
 11
120.15955995330538
 21
261.51987776902439
  0
LINE
  8
_0-1_作画層１
  6
CONTINUOUS
 62
    7
 10
120.15955995330538
 20
261.51987776902439
 11
120.21197407186959
 21
261.51809330237484
  0
LINE
  8
_0-1_作画層１
  6
CONTINUOUS
 62
    7
 10
120.21197407186959
 20
261.51809330237484
 11
120.26279390612686
 21
261.51727713989328
  0
LINE
  8
_0-1_作画層１
  6
CONTINUOUS
 62
    7
 10
120.26279390612686
 20
261.51727713989328
 11
120.31183967258355
 21
261.51748256468852
  0
LINE
  8
_0-1_作画層１
  6
CONTINUOUS
 62
    7
 10
120.31183967258355
 20
261.51748256468852
 11
120.35893158774607
 21
261.51876285986958
  0
LINE
  8
_0-1_作画層１
  6
CONTINUOUS
 62
    7
 10
120.35893158774607
 20
261.51876285986958
 11
120.40388986812081
 21
261.52117130854532
  0
LINE
  8
_0-1_作画層１
  6
CONTINUOUS
 62
    7
 10
120.40388986812081
 20
261.52117130854532
 11
120.44653473021415
 21
261.52476119382465
  0
LINE
  8
_0-1_作画層１
  6
CONTINUOUS
 62
    7
 10
120.44653473021415
 20
261.52476119382465
 11
120.48668639053254
 21
261.52958579881658
  0
LINE
  8
_0-1_作画層１
  6
CONTINUOUS
 62
    7
 10
120.48668639053254
 20
261.52958579881658
 11
120.55219289479956
 21
261.54106487571352
  0
LINE
  8
_0-1_作画層１
  6
CONTINUOUS
 62
    7
 10
120.55219289479956
 20
261.54106487571352
 11
120.58739493607695
 21
261.54878264555231
  0
LINE
  8
_0-1_作画層１
  6
CONTINUOUS
 62
    7
 10
120.58739493607695
 20
261.54878264555231
 11
120.62404909646943
 21
261.55773165949529
  0
LINE
  8
_0-1_作画層１
  6
CONTINUOUS
 62
    7
 10
120.62404909646943
 20
261.55773165949529
 11
120.66202007074146
 21
261.56784623492587
  0
LINE
  8
_0-1_作画層１
  6
CONTINUOUS
 62
    7
 10
120.66202007074146
 20
261.56784623492587
 11
120.70117255365739
 21
261.57906068922694
  0
LINE
  8
_0-1_作画層１
  6
CONTINUOUS
 62
    7
 10
120.70117255365739
 20
261.57906068922694
 11
120.7413712399816
 21
261.59130933978162
  0
LINE
  8
_0-1_作画層１
  6
CONTINUOUS
 62
    7
 10
120.7413712399816
 20
261.59130933978162
 11
120.7824808244786
 21
261.60452650397309
  0
LINE
  8
_0-1_作画層１
  6
CONTINUOUS
 62
    7
 10
120.7824808244786
 20
261.60452650397309
 11
120.82436600191267
 21
261.61864649918442
  0
LINE
  8
_0-1_作画層１
  6
CONTINUOUS
 62
    7
 10
120.82436600191267
 20
261.61864649918442
 11
120.86689146704833
 21
261.6336036427989
  0
LINE
  8
_0-1_作画層１
  6
CONTINUOUS
 62
    7
 10
120.86689146704833
 20
261.6336036427989
 11
120.90992191464984
 21
261.64933225219926
  0
LINE
  8
_0-1_作画層１
  6
CONTINUOUS
 62
    7
 10
120.90992191464984
 20
261.64933225219926
 11
120.95332203948176
 21
261.66576664476895
  0
LINE
  8
_0-1_作画層１
  6
CONTINUOUS
 62
    7
 10
120.95332203948176
 20
261.66576664476895
 11
120.99695653630837
 21
261.68284113789099
  0
LINE
  8
_0-1_作画層１
  6
CONTINUOUS
 62
    7
 10
120.99695653630837
 20
261.68284113789099
 11
121.04069009989414
 21
261.70049004894844
  0
LINE
  8
_0-1_作画層１
  6
CONTINUOUS
 62
    7
 10
121.04069009989414
 20
261.70049004894844
 11
121.08438742500341
 21
261.71864769532442
  0
LINE
  8
_0-1_作画層１
  6
CONTINUOUS
 62
    7
 10
121.08438742500341
 20
261.71864769532442
 11
121.12791320640066
 21
261.73724839440206
  0
LINE
  8
_0-1_作画層１
  6
CONTINUOUS
 62
    7
 10
121.12791320640066
 20
261.73724839440206
 11
121.17113213885021
 21
261.75622646356442
  0
LINE
  8
_0-1_作画層１
  6
CONTINUOUS
 62
    7
 10
121.17113213885021
 20
261.75622646356442
 11
121.21390891711653
 21
261.77551622019473
  0
LINE
  8
_0-1_作画層１
  6
CONTINUOUS
 62
    7
 10
121.21390891711653
 20
261.77551622019473
 11
121.25610823596399
 21
261.79505198167595
  0
LINE
  8
_0-1_作画層１
  6
CONTINUOUS
 62
    7
 10
121.25610823596399
 20
261.79505198167595
 11
121.29759479015699
 21
261.81476806539138
  0
LINE
  8
_0-1_作画層１
  6
CONTINUOUS
 62
    7
 10
121.29759479015699
 20
261.81476806539138
 11
121.33823327445992
 21
261.83459878872389
  0
LINE
  8
_0-1_作画層１
  6
CONTINUOUS
 62
    7
 10
121.33823327445992
 20
261.83459878872389
 11
121.37788838363721
 21
261.85447846905674
  0
LINE
  8
_0-1_作画層１
  6
CONTINUOUS
 62
    7
 10
121.37788838363721
 20
261.85447846905674
 11
121.41642481245327
 21
261.87434142377305
  0
LINE
  8
_0-1_作画層１
  6
CONTINUOUS
 62
    7
 10
121.41642481245327
 20
261.87434142377305
 11
121.45370725567247
 21
261.89412197025592
  0
LINE
  8
_0-1_作画層１
  6
CONTINUOUS
 62
    7
 10
121.45370725567247
 20
261.89412197025592
 11
121.48960040805923
 21
261.91375442588833
  0
LINE
  8
_0-1_作画層１
  6
CONTINUOUS
 62
    7
 10
121.48960040805923
 20
261.91375442588833
 11
121.52396896437793
 21
261.93317310805355
  0
LINE
  8
_0-1_作画層１
  6
CONTINUOUS
 62
    7
 10
121.52396896437793
 20
261.93317310805355
 11
121.55667761939299
 21
261.95231233413466
  0
LINE
  8
_0-1_作画層１
  6
CONTINUOUS
 62
    7
 10
121.55667761939299
 20
261.95231233413466
 11
121.58759106786881
 21
261.97110642151472
  0
LINE
  8
_0-1_作画層１
  6
CONTINUOUS
 62
    7
 10
121.58759106786881
 20
261.97110642151472
 11
121.6165740045698
 21
261.98948968757679
  0
LINE
  8
_0-1_作画層１
  6
CONTINUOUS
 62
    7
 10
121.6165740045698
 20
261.98948968757679
 11
121.64349112426035
 21
262.00739644970417
  0
LINE
  8
_0-1_作画層１
  6
CONTINUOUS
 62
    7
 10
121.64349112426035
 20
262.00739644970417
 11
121.67840292678221
 21
262.03259852883991
  0
LINE
  8
_0-1_作画層１
  6
CONTINUOUS
 62
    7
 10
121.67840292678221
 20
262.03259852883991
 11
121.69614525987613
 21
262.04637993320154
  0
LINE
  8
_0-1_作画層１
  6
CONTINUOUS
 62
    7
 10
121.69614525987613
 20
262.04637993320154
 11
121.7140695614287
 21
262.0609112163732
  0
LINE
  8
_0-1_作画層１
  6
CONTINUOUS
 62
    7
 10
121.7140695614287
 20
262.0609112163732
 11
121.73216909186733
 21
262.0761646050658
  0
LINE
  8
_0-1_作画層１
  6
CONTINUOUS
 62
    7
 10
121.73216909186733
 20
262.0761646050658
 11
121.7504371116195
 21
262.09211232598994
  0
LINE
  8
_0-1_作画層１
  6
CONTINUOUS
 62
    7
 10
121.7504371116195
 20
262.09211232598994
 11
121.7688668811126
 21
262.1087266058563
  0
LINE
  8
_0-1_作画層１
  6
CONTINUOUS
 62
    7
 10
121.7688668811126
 20
262.1087266058563
 11
121.78745166077425
 21
262.12597967137594
  0
LINE
  8
_0-1_作画層１
  6
CONTINUOUS
 62
    7
 10
121.78745166077425
 20
262.12597967137594
 11
121.80618471103173
 21
262.14384374925925
  0
LINE
  8
_0-1_作画層１
  6
CONTINUOUS
 62
    7
 10
121.80618471103173
 20
262.14384374925925
 11
121.82505929231267
 21
262.16229106621722
  0
LINE
  8
_0-1_作画層１
  6
CONTINUOUS
 62
    7
 10
121.82505929231267
 20
262.16229106621722
 11
121.84406866504435
 21
262.18129384896025
  0
LINE
  8
_0-1_作画層１
  6
CONTINUOUS
 62
    7
 10
121.84406866504435
 20
262.18129384896025
 11
121.86320608965437
 21
262.20082432419952
  0
LINE
  8
_0-1_作画層１
  6
CONTINUOUS
 62
    7
 10
121.86320608965437
 20
262.20082432419952
 11
121.8824648265701
 21
262.22085471864546
  0
LINE
  8
_0-1_作画層１
  6
CONTINUOUS
 62
    7
 10
121.8824648265701
 20
262.22085471864546
 11
121.90183813621907
 21
262.24135725900885
  0
LINE
  8
_0-1_作画層１
  6
CONTINUOUS
 62
    7
 10
121.90183813621907
 20
262.24135725900885
 11
121.92131927902869
 21
262.26230417200048
  0
LINE
  8
_0-1_作画層１
  6
CONTINUOUS
 62
    7
 10
121.92131927902869
 20
262.26230417200048
 11
121.94090151542643
 21
262.28366768433108
  0
LINE
  8
_0-1_作画層１
  6
CONTINUOUS
 62
    7
 10
121.94090151542643
 20
262.28366768433108
 11
121.96057810583973
 21
262.30542002271136
  0
LINE
  8
_0-1_作画層１
  6
CONTINUOUS
 62
    7
 10
121.96057810583973
 20
262.30542002271136
 11
121.9803423106961
 21
262.32753341385211
  0
LINE
  8
_0-1_作画層１
  6
CONTINUOUS
 62
    7
 10
121.9803423106961
 20
262.32753341385211
 11
122.00018739042295
 21
262.34998008446394
  0
LINE
  8
_0-1_作画層１
  6
CONTINUOUS
 62
    7
 10
122.00018739042295
 20
262.34998008446394
 11
122.02010660544778
 21
262.3727322612578
  0
LINE
  8
_0-1_作画層１
  6
CONTINUOUS
 62
    7
 10
122.02010660544778
 20
262.3727322612578
 11
122.04009321619797
 21
262.39576217094418
  0
LINE
  8
_0-1_作画層１
  6
CONTINUOUS
 62
    7
 10
122.04009321619797
 20
262.39576217094418
 11
122.06014048310107
 21
262.41904204023393
  0
LINE
  8
_0-1_作画層１
  6
CONTINUOUS
 62
    7
 10
122.06014048310107
 20
262.41904204023393
 11
122.0802416665845
 21
262.44254409583789
  0
LINE
  8
_0-1_作画層１
  6
CONTINUOUS
 62
    7
 10
122.0802416665845
 20
262.44254409583789
 11
122.10039002707572
 21
262.4662405644666
  0
LINE
  8
_0-1_作画層１
  6
CONTINUOUS
 62
    7
 10
122.10039002707572
 20
262.4662405644666
 11
122.12057882500218
 21
262.49010367283097
  0
LINE
  8
_0-1_作画層１
  6
CONTINUOUS
 62
    7
 10
122.12057882500218
 20
262.49010367283097
 11
122.14080132079134
 21
262.5141056476416
  0
LINE
  8
_0-1_作画層１
  6
CONTINUOUS
 62
    7
 10
122.14080132079134
 20
262.5141056476416
 11
122.16105077487069
 21
262.53821871560933
  0
LINE
  8
_0-1_作画層１
  6
CONTINUOUS
 62
    7
 10
122.16105077487069
 20
262.53821871560933
 11
122.18132044766763
 21
262.56241510344478
  0
LINE
  8
_0-1_作画層１
  6
CONTINUOUS
 62
    7
 10
122.18132044766763
 20
262.56241510344478
 11
122.20160359960967
 21
262.58666703785883
  0
LINE
  8
_0-1_作画層１
  6
CONTINUOUS
 62
    7
 10
122.20160359960967
 20
262.58666703785883
 11
122.22189349112426
 21
262.6109467455621
  0
TEXT
  8
_0-7_注記層１
 62
    7
 10
112.63640065146581
 20
262.7565146579804
 40
2.7000000000000002
 41
1
 50
0
  1
SUNAO
  0
TEXT
  8
_0-7_注記層１
 62
    7
 10
71.75
 20
174.75
 40
3
 41
1
 50
0
  1
QUARTZ
  0
TEXT
  8
_0-7_注記層１
 62
    7
 10
160.25
 20
28
 40
3.5
 41
1
 50
0
  1
電源
  0
TEXT
  8
_0-7_注記層１
 62
    7
 10
158.5
 20
24.5
 40
3.5
 41
1
 50
0
  1
AC100V
  0
TEXT
  8
_0-7_注記層１
 62
    7
 10
346.25
 20
27.25
 40
4
 41
1
 50
0
  1
平野
  0
TEXT
  8
_0-7_注記層１
 62
    7
 10
363.75
 20
17.25
 40
5
 41
1
 50
0
  1
ET-100SC-001-02
  0
TEXT
  8
_0-7_注記層１
 62
    7
 10
306.25
 20
253
 40
3.5
 41
1
 50
0
  1
AC85V～AC115V
  0
TEXT
  8
_0-7_注記層１
 62
    7
 10
306.25
 20
248
 40
3.5
 41
1
 50
0
  1
50Hz/60Hz共用(切換)
  0
TEXT
  8
_0-7_注記層１
 62
    7
 10
306.25
 20
228
 40
3.5
 41
1
 50
0
  1
35%RH～85％RH
  0
TEXT
  8
_0-7_注記層１
 62
    7
 10
306.25
 20
213
 40
3.5
 41
1
 50
0
  1
1日48回　ON-OFF動作
  0
TEXT
  8
_0-7_注記層１
 62
    7
 10
306.25
 20
193
 40
3.5
 41
1
 50
0
  1
560g
  0
TEXT
  8
_0-7_注記層１
 62
    7
 10
306.25
 20
188
 40
3.5
 41
1
 50
0
  1
H155×W96×D70mm
  0
TEXT
  8
_0-7_注記層１
 62
    7
 10
272.5
 20
28
 40
3.5
 41
1
 50
0
  1
2017.10.24
  0
ENDSEC
  0
EOF
