  0
SECTION
  2
HEADER
  9
$ACADVER
  1
AC1009
  9
$INSBASE
 10
0
 20
0
 30
0
  9
$EXTMIN
 10
0
 20
0
  9
$EXTMAX
 10
420
 20
297
  9
$LIMMIN
 10
0
 20
0
  9
$LIMMAX
 10
420
 20
297
  9
$LTSCALE
 40
1
  0
ENDSEC
  0
SECTION
  2
TABLES
  0
TABLE
  2
LTYPE
 70
     9
  0
LTYPE
  2
CONTINUOUS
 70
    64
  3
実線
 72
    65
 73
     0
 40
0.0
  0
LTYPE
  2
DASHED1
 70
    64
  3
--  --  --  --  --  --  --  --  
 72
    65
 73
     2
 40
2.5
 49
1.25
 49
-1.25
  0
LTYPE
  2
DASHED2
 70
    64
  3
----    ----    ----    ----    
 72
    65
 73
     2
 40
5.0
 49
2.5
 49
-2.5
  0
LTYPE
  2
DASHED3
 70
    64
  3
------  ------  ------  ------  
 72
    65
 73
     2
 40
5.0
 49
3.75
 49
-1.25
  0
LTYPE
  2
CENTER1
 70
    64
  3
----- - ----- - ----- - ----- - 
 72
    65
 73
     4
 40
10.0
 49
6.25
 49
-1.25
 49
1.25
 49
-1.25
  0
LTYPE
  2
CENTER2
 70
    64
  3
----------  --  ----------  --  
 72
    65
 73
     4
 40
20.0
 49
12.5
 49
-2.5
 49
2.5
 49
-2.5
  0
LTYPE
  2
PHANTOM1
 70
    64
  3
--- - - --- - - --- - - --- - - 
 72
    65
 73
     6
 40
10.0
 49
3.25
 49
-1.25
 49
1.25
 49
-1.25
 49
1.25
 49
-1.25
  0
LTYPE
  2
PHANTOM2
 70
    64
  3
--------  -  -  --------  -  -  
 72
    65
 73
     6
 40
20.0
 49
10.0
 49
-2.5
 49
1.25
 49
-2.5
 49
1.25
 49
-2.5
  0
LTYPE
  2
DOT
 70
    64
  3
-   -   -   -   -   -   -   -   
 72
    65
 73
     2
 40
2.5
 49
0.625
 49
-1.875
  0
LTYPE
  2
DUMMY
 70
    64
  3
ダミー
 72
    65
 73
     0
 40
0.0
  0
LTYPE
  2
RAND1
 70
    64
  3
ランダム線1
 72
    65
 73
     4
 40
10.0
 49
1.0
 49
-2.0
 49
3.0
 49
-4.0
  0
LTYPE
  2
RAND2
 70
    64
  3
ランダム線2
 72
    65
 73
     4
 40
14.0
 49
2.0
 49
-3.0
 49
4.0
 49
-5.0
  0
LTYPE
  2
RAND3
 70
    64
  3
ランダム線3
 72
    65
 73
     4
 40
18.0
 49
3.0
 49
-4.0
 49
5.0
 49
-6.0
  0
LTYPE
  2
RAND4
 70
    64
  3
ランダム線4
 72
    65
 73
     4
 40
22.0
 49
4.0
 49
-5.0
 49
6.0
 49
-7.0
  0
LTYPE
  2
RAND5
 70
    64
  3
ランダム線5
 72
    65
 73
     4
 40
26.0
 49
5.0
 49
-6.0
 49
7.0
 49
-8.0
  0
LTYPE
  2
LONG1
 70
    64
  3
----------  --  ----------  --  
 72
    65
 73
     4
 40
40.0
 49
32.5
 49
-2.5
 49
2.5
 49
-2.5
  0
LTYPE
  2
LONG2
 70
    64
  3
--------  -  -  --------  -  -  
 72
    65
 73
     6
 40
40.0
 49
30.0
 49
-2.5
 49
1.25
 49
-2.5
 49
1.25
 49
-2.5
  0
LTYPE
  2
LONG3
 70
    64
  3
+++++++++++++++..+++++++++++++++
 72
    65
 73
     2
 40
40.0
 49
37.5
 49
-2.5
  0
LTYPE
  2
LONG4
 70
    64
  3
+++++++++++++++..+++++++++++++++
 72
    65
 73
     2
 40
80.0
 49
75.0
 49
-5.0
  0
LTYPE
  2
LONG5
 70
    64
  3
----------  --  ----------  --  
 72
    65
 73
     4
 40
60.0
 49
37.5
 49
-7.5
 49
7.5
 49
-7.5
  0
LTYPE
  2
dashed
 70
   64
  3
-------   -------------   ------
 72
   65
 73
    2
 40
7.5
 49
6
 49
-1.5
  0
LTYPE
  2
dashed_spaced
 70
   64
  3
----        --------        ----
 72
   65
 73
    2
 40
12
 49
6
 49
-6
  0
LTYPE
  2
long_dashed_dotted
 70
   64
  3
------------- --- --------------
 72
   65
 73
    4
 40
15.25
 49
12
 49
-1.5
 49
0.25
 49
-1.5
  0
LTYPE
  2
long_dashed_double-dotted
 70
   64
  3
----------- --- --- ------------
 72
   65
 73
    6
 40
17
 49
12
 49
-1.5
 49
0.25
 49
-1.5
 49
0.25
 49
-1.5
  0
LTYPE
  2
long_dashed_triplicate-dotted
 70
   64
  3
--------- --- --- --- ----------
 72
   65
 73
    8
 40
18.75
 49
12
 49
-1.5
 49
0.25
 49
-1.5
 49
0.25
 49
-1.5
 49
0.25
 49
-1.5
  0
LTYPE
  2
dotted
 70
   64
  3
   -       -       -       -    
 72
   65
 73
    2
 40
1.75
 49
0.25
 49
-1.5
  0
LTYPE
  2
chain
 70
   64
  3
-------------- -- --------------
 72
   65
 73
    4
 40
18.5
 49
12
 49
-1.5
 49
3.5
 49
-1.5
  0
LTYPE
  2
chain_double_dash
 70
   64
  3
------------ -- -- -------------
 72
   65
 73
    6
 40
23.5
 49
12
 49
-1.5
 49
3.5
 49
-1.5
 49
3.5
 49
-1.5
  0
LTYPE
  2
dashed_dotted
 70
   64
  3
-----------     -     ----------
 72
   65
 73
    4
 40
9.25
 49
6
 49
-1.5
 49
0.25
 49
-1.5
  0
LTYPE
  2
double-dashed_dotted
 70
   64
  3
------   -----------   -   -----
 72
   65
 73
    6
 40
16.75
 49
6
 49
-1.5
 49
6
 49
-1.5
 49
0.25
 49
-1.5
  0
LTYPE
  2
dashed_double-dotted
 70
   64
  3
---------    -    -    ---------
 72
   65
 73
    6
 40
11
 49
6
 49
-1.5
 49
0.25
 49
-1.5
 49
0.25
 49
-1.5
  0
LTYPE
  2
double-dashed_double-dotted
 70
   64
  3
-----   ---------   -   -   ----
 72
   65
 73
    8
 40
18.5
 49
6
 49
-1.5
 49
6
 49
-1.5
 49
0.25
 49
-1.5
 49
0.25
 49
-1.5
  0
LTYPE
  2
dashed_triplicate-dotted
 70
   64
  3
-------    -    -    -    ------
 72
   65
 73
    8
 40
12.75
 49
6
 49
-1.5
 49
0.25
 49
-1.5
 49
0.25
 49
-1.5
 49
0.25
 49
-1.5
  0
LTYPE
  2
double-dashed_triplicate-dotted
 70
   64
  3
-----  ---------  -  -  -  -----
 72
   65
 73
   10
 40
20.25
 49
6
 49
-1.5
 49
6
 49
-1.5
 49
0.25
 49
-1.5
 49
0.25
 49
-1.5
 49
0.25
 49
-1.5
  0
LTYPE
  2
undefined
 70
   64
  3
--------------------------------
 72
   65
 73
    0
 40
0
  0
LTYPE
  2
DASHED
 70
   64
  3
----        --------        ----
 72
   65
 73
    2
 40
4
 49
2
 49
-2
  0
LTYPE
  2
DOT_18
 70
   64
  3
---           -----           --
 72
   65
 73
    2
 40
3
 49
1
 49
-2
  0
LTYPE
  2
DASHDOT
 70
   64
  3
---------    ------    ---------
 72
   65
 73
    4
 40
17
 49
10
 49
-2
 49
3
 49
-2
  0
LTYPE
  2
DIVIDE
 70
   64
  3
-----------  --  --  -----------
 72
   65
 73
    6
 40
30
 49
20
 49
-2
 49
2
 49
-2
 49
2
 49
-2
  0
LTYPE
  2
CENTER
 70
   64
  3
-------------  --  -------------
 72
   65
 73
    4
 40
13
 49
10
 49
-1
 49
1
 49
-1
  0
LTYPE
  2
_
 70
   64
  3
                                
 72
   65
 73
    0
 40
0
  0
LTYPE
  2
__23
 70
   64
  3
                                
 72
   65
 73
    0
 40
0
  0
LTYPE
  2
__24
 70
   64
  3
                                
 72
   65
 73
    0
 40
0
  0
LTYPE
  2
__25
 70
   64
  3
                                
 72
   65
 73
    0
 40
0
  0
LTYPE
  2
__26
 70
   64
  3
                                
 72
   65
 73
    0
 40
0
  0
LTYPE
  2
__27
 70
   64
  3
                                
 72
   65
 73
    0
 40
0
  0
LTYPE
  2
__28
 70
   64
  3
                                
 72
   65
 73
    0
 40
0
  0
LTYPE
  2
__29
 70
   64
  3
                                
 72
   65
 73
    0
 40
0
  0
LTYPE
  2
__30
 70
   64
  3
                                
 72
   65
 73
    0
 40
0
  0
LTYPE
  2
__31
 70
   64
  3
                                
 72
   65
 73
    0
 40
0
  0
LTYPE
  2
__32
 70
   64
  3
                                
 72
   65
 73
    0
 40
0
  0
ENDTAB
  0
TABLE
  2
STYLE
  5
3
100
AcDbSymbolTable
 70
     1
  0
STYLE
  5
10
100
AcDbSymbolTableRecord
100
AcDbTextStyleTableRecord
  2
STANDARD
 70
     0
 40
0.0
 41
1.0
 50
0.0
 71
     0
 42
0.2
  3
txt
  4
bigfont.shx
  0
STYLE
  5
26
100
AcDbSymbolTableRecord
100
AcDbTextStyleTableRecord
  2
TATEGAKI
 70
    68
 40
0.0
 41
1.0
 50
0.0
 71
     0
 42
1.0
  3
txt
  4
bigfont.shx
  0
ENDTAB
  0
TABLE
  2
LAYER
 70
    5
  0
LAYER
  2
_0-1_作画層１
 70
   64
 62
    7
  6
CONTINUOUS
  0
LAYER
  2
_0-7_注記層１
 70
   64
 62
    7
  6
CONTINUOUS
  0
LAYER
  2
_0-9_寸法線層１
 70
   64
 62
    7
  6
CONTINUOUS
  0
LAYER
  2
_0-d_0_1
 70
   64
 62
    7
  6
CONTINUOUS
  0
LAYER
  2
ADD_LINE
 70
   64
 62
    7
  6
CONTINUOUS
  0
ENDTAB
  0
ENDSEC
  0
SECTION
  2
BLOCKS
  0
BLOCK
  2
-000-_D6
 70
   64
 10
0
 20
0
 30
0
  0
LINE
  8
_0-9_寸法線層１
  6
CONTINUOUS
 62
    7
 10
326.79112377850163
 20
54.617976384364852
 11
326.79112377850163
 21
117.11797638436485
  0
TEXT
  8
_0-9_寸法線層１
 62
    7
 10
325.79112377850163
 20
83.979747816711068
 40
3
 41
1
 50
90
  1
64
  0
LINE
  8
_0-9_寸法線層１
  6
CONTINUOUS
 62
    7
 10
277.29112377850163
 20
54.617976384364852
 11
328.79112377850163
 21
54.617976384364852
  0
LINE
  8
_0-9_寸法線層１
  6
CONTINUOUS
 62
    7
 10
277.29112377850163
 20
117.11797638436485
 11
328.79112377850163
 21
117.11797638436485
  0
ENDBLK
  0
ENDSEC
  0
SECTION
  2
ENTITIES
  0
LINE
  8
_0-1_作画層１
  6
CONTINUOUS
 62
    7
 10
85.841123778501611
 20
171.61676775072704
 11
85.841123778501611
 21
185.85568424112384
  0
LINE
  8
_0-9_寸法線層１
  6
CONTINUOUS
 62
    4
 10
231.4316309719934
 20
188.11798019906212
 11
217.28445908841294
 21
188.11798019906212
  0
LINE
  8
_0-1_作画層１
  6
CONTINUOUS
 62
    7
 10
216.54114416328451
 20
239.36797642707825
 11
216.54114803758679
 21
255.61798405647278
  0
LINE
  8
_0-1_作画層１
  6
CONTINUOUS
 62
    7
 10
42.041127593198894
 20
156.86797638436485
 11
114.16457421471006
 21
156.86795885684091
  0
TEXT
  8
_0-7_注記層１
 62
    7
 10
306.25
 20
193
 40
3.5
 41
1
 50
0
  1
H89×W72×D77mm
  0
TEXT
  8
_0-7_注記層１
 62
    7
 10
306.25
 20
218
 40
3.5
 41
1
 50
0
  1
1日24回ON-OFF動作
  0
TEXT
  8
_0-7_注記層１
 62
    7
 10
306.25
 20
233
 40
3.5
 41
1
 50
0
  1
35%RH～85％RH
  0
TEXT
  8
_0-7_注記層１
 62
    7
 10
306.25
 20
248
 40
3.5
 41
1
 50
0
  1
50Hz/60Hz共用
  0
TEXT
  8
_0-7_注記層１
 62
    7
 10
306.25
 20
258
 40
3.5
 41
1
 50
0
  1
AC100V 又は AC200V
  0
TEXT
  8
_0-7_注記層１
 62
    7
 10
271.25
 20
263
 40
3.5
 41
1
 50
0
  1
型　　 　番
  0
TEXT
  8
_0-7_注記層１
 62
    7
 10
271.25
 20
253
 40
3.5
 41
1
 50
0
  1
許容電圧変動範囲
  0
TEXT
  8
_0-7_注記層１
 62
    7
 10
271.25
 20
248
 40
3.5
 41
1
 50
0
  1
周　　波　　数
  0
TEXT
  8
_0-7_注記層１
 62
    7
 10
271.25
 20
243
 40
3.5
 41
1
 50
0
  1
停　電　補　償
  0
TEXT
  8
_0-7_注記層１
 62
    7
 10
271.25
 20
258
 40
3.5
 41
1
 50
0
  1
電  源  電  圧
  0
TEXT
  8
_0-7_注記層１
 62
    7
 10
268.75
 20
272.25
 40
5
 41
1
 50
0
  1
規　格
  0
LINE
  8
_0-1_作画層１
  6
CONTINUOUS
 62
    7
 10
266.25
 20
272.25
 11
286.25
 21
272.25
  0
TEXT
  8
_0-7_注記層１
 62
    7
 10
301.125
 20
28
 40
3.5
 41
1
 50
0
  1
1/1
  0
TEXT
  8
_0-7_注記層１
 62
    7
 10
335.25
 20
30.5
 40
3.5
 41
1
 50
0
  1
承認
  0
TEXT
  8
_0-7_注記層１
 62
    7
 10
273.75
 20
17.25
 40
5
 41
1
 50
0
  1
スナオ電気株式会社
  0
LINE
  8
_0-1_作画層１
  6
CONTINUOUS
 62
    7
 10
268.75
 20
34.75
 11
268.75
 21
14.75
  0
LINE
  8
_0-1_作画層１
  6
CONTINUOUS
 62
    7
 10
293.75
 20
34.75
 11
293.75
 21
24.75
  0
LINE
  8
_0-1_作画層１
  6
CONTINUOUS
 62
    7
 10
313.75
 20
34.75
 11
313.75
 21
24.75
  0
LINE
  8
_0-1_作画層１
  6
CONTINUOUS
 62
    7
 10
333.75
 20
34.75
 11
333.75
 21
24.75
  0
LINE
  8
_0-1_作画層１
  6
CONTINUOUS
 62
    7
 10
358.75
 20
14.75
 11
358.75
 21
34.75
  0
LINE
  8
_0-1_作画層１
  6
CONTINUOUS
 62
    7
 10
413.75
 20
292.25
 11
16.25
 21
292.25
  0
LINE
  8
_0-1_作画層１
  6
CONTINUOUS
 62
    7
 10
16.25
 20
14.75
 11
16.25
 21
292.25
  0
LINE
  8
_0-1_作画層１
  6
CONTINUOUS
 62
    7
 10
413.75
 20
14.75
 11
16.25
 21
14.75
  0
LINE
  8
_0-1_作画層１
  6
CONTINUOUS
 62
    7
 10
413.75
 20
34.75
 11
268.75
 21
34.75
  0
LINE
  8
_0-1_作画層１
  6
CONTINUOUS
 62
    7
 10
413.75
 20
24.75
 11
268.75
 21
24.75
  0
LINE
  8
_0-1_作画層１
  6
CONTINUOUS
 62
    7
 10
413.75
 20
14.75
 11
413.75
 21
292.25
  0
TEXT
  8
_0-7_注記層１
 62
    7
 10
363.75
 20
28
 40
3.5
 41
1
 50
0
  1
カレンダータイマー
  0
TEXT
  8
_0-7_注記層１
 62
    7
 10
318.5
 20
28
 40
3.5
 41
1
 50
0
  1
ゴトウ
  0
TEXT
  8
_0-7_注記層１
 62
    7
 10
271.25
 20
238
 40
3.5
 41
1
 50
0
  1
使 用 周 囲 温 度
  0
TEXT
  8
_0-7_注記層１
 62
    7
 10
271.25
 20
233
 40
3.5
 41
1
 50
0
  1
使 用 周 囲 湿 度
  0
TEXT
  8
_0-7_注記層１
 62
    7
 10
271.25
 20
228
 40
3.5
 41
1
 50
0
  1
接　点　定　格
  0
TEXT
  8
_0-7_注記層１
 62
    7
 10
271.25
 20
223
 40
3.5
 41
1
 50
0
  1
出　　　　　力
  0
TEXT
  8
_0-7_注記層１
 62
    7
 10
271.25
 20
218
 40
3.5
 41
1
 50
0
  1
設　定　回　数
  0
TEXT
  8
_0-7_注記層１
 62
    7
 10
271.25
 20
213
 40
3.5
 41
1
 50
0
  1
最 小 設 定 時 間
  0
TEXT
  8
_0-7_注記層１
 62
    7
 10
271.25
 20
208
 40
3.5
 41
1
 50
0
  1
時　間　精　度
  0
TEXT
  8
_0-7_注記層１
 62
    7
 10
271.25
 20
203
 40
3.5
 41
1
 50
0
  1
消　費　電　力　
  0
TEXT
  8
_0-7_注記層１
 62
    7
 10
271.25
 20
198
 40
3.5
 41
1
 50
0
  1
重　　　  　量
  0
TEXT
  8
_0-7_注記層１
 62
    7
 10
271.25
 20
193
 40
3.5
 41
1
 50
0
  1
外　形　寸　法
  0
TEXT
  8
_0-7_注記層１
 62
    7
 10
306.25
 20
238
 40
3.5
 41
1
 50
0
  1
-10℃～50℃
  0
TEXT
  8
_0-7_注記層１
 62
    7
 10
306.25
 20
223
 40
3.5
 41
1
 50
0
  1
接点出力（1a）
  0
TEXT
  8
_0-7_注記層１
 62
    7
 10
306.25
 20
228
 40
3.5
 41
1
 50
0
  1
抵抗負荷　AC250V  7A
  0
TEXT
  8
_0-7_注記層１
 62
    7
 10
271.25
 20
188
 40
3.5
 41
1
 50
0
  1
付　　属　　品
  0
LINE
  8
_0-1_作画層１
  6
CONTINUOUS
 62
    7
 10
268.75
 20
183.5
 11
268.75
 21
267.25
  0
LINE
  8
_0-1_作画層１
  6
CONTINUOUS
 62
    7
 10
303.75
 20
183.5
 11
303.75
 21
267.25
  0
LINE
  8
_0-1_作画層１
  6
CONTINUOUS
 62
    7
 10
381.25
 20
183.5
 11
381.25
 21
267.25
  0
LINE
  8
_0-1_作画層１
  6
CONTINUOUS
 62
    7
 10
381.25
 20
267.25
 11
268.75
 21
267.25
  0
LINE
  8
_0-1_作画層１
  6
CONTINUOUS
 62
    7
 10
381.25
 20
262.25
 11
268.75
 21
262.25
  0
LINE
  8
_0-1_作画層１
  6
CONTINUOUS
 62
    7
 10
381.25
 20
257.25
 11
268.75
 21
257.25
  0
LINE
  8
_0-1_作画層１
  6
CONTINUOUS
 62
    7
 10
381.25
 20
252.25
 11
268.75
 21
252.25
  0
LINE
  8
_0-1_作画層１
  6
CONTINUOUS
 62
    7
 10
381.25
 20
247.25
 11
268.75
 21
247.25
  0
LINE
  8
_0-1_作画層１
  6
CONTINUOUS
 62
    7
 10
381.25
 20
242.25
 11
268.75
 21
242.25
  0
LINE
  8
_0-1_作画層１
  6
CONTINUOUS
 62
    7
 10
381.25
 20
237.25
 11
268.75
 21
237.25
  0
LINE
  8
_0-1_作画層１
  6
CONTINUOUS
 62
    7
 10
381.25
 20
237.25
 11
268.75
 21
237.25
  0
LINE
  8
_0-1_作画層１
  6
CONTINUOUS
 62
    7
 10
381.25
 20
232.25
 11
268.75
 21
232.25
  0
LINE
  8
_0-1_作画層１
  6
CONTINUOUS
 62
    7
 10
381.25
 20
227.25
 11
268.75
 21
227.25
  0
LINE
  8
_0-1_作画層１
  6
CONTINUOUS
 62
    7
 10
381.25
 20
222.25
 11
268.75
 21
222.25
  0
LINE
  8
_0-1_作画層１
  6
CONTINUOUS
 62
    7
 10
381.25
 20
217.25
 11
268.75
 21
217.25
  0
LINE
  8
_0-1_作画層１
  6
CONTINUOUS
 62
    7
 10
381.25
 20
212.25
 11
268.75
 21
212.25
  0
LINE
  8
_0-1_作画層１
  6
CONTINUOUS
 62
    7
 10
381.25
 20
207.25
 11
268.75
 21
207.25
  0
LINE
  8
_0-1_作画層１
  6
CONTINUOUS
 62
    7
 10
381.25
 20
202.25
 11
268.75
 21
202.25
  0
LINE
  8
_0-1_作画層１
  6
CONTINUOUS
 62
    7
 10
381.25
 20
197.25
 11
268.75
 21
197.25
  0
LINE
  8
_0-1_作画層１
  6
CONTINUOUS
 62
    7
 10
381.25
 20
192.25
 11
268.75
 21
192.25
  0
LINE
  8
_0-1_作画層１
  6
CONTINUOUS
 62
    7
 10
381.25
 20
183.5
 11
268.75
 21
183.5
  0
CIRCLE
  8
_0-1_作画層１
  6
CONTINUOUS
 62
    7
 10
156.25
 20
77.25
 40
5
  0
LINE
  8
_0-1_作画層１
  6
CONTINUOUS
 62
    7
 10
155
 20
81.625
 11
157.5
 21
81.625
  0
LINE
  8
_0-1_作画層１
  6
CONTINUOUS
 62
    7
 10
157.5
 20
72.875
 11
155
 21
72.875
  0
LINE
  8
_0-1_作画層１
  6
CONTINUOUS
 62
    7
 10
160.625
 20
78.5
 11
160.625
 21
76
  0
LINE
  8
_0-1_作画層１
  6
CONTINUOUS
 62
    7
 10
151.875
 20
76
 11
151.875
 21
78.5
  0
ARC
  8
_0-1_作画層１
  6
CONTINUOUS
 62
    7
 10
154.00000000000003
 20
79.499999999999986
 40
0.9999999999999712
 50
269.99999999999835
 51
0.0000000000008142
  0
LINE
  8
_0-1_作画層１
  6
CONTINUOUS
 62
    7
 10
151.875
 20
76
 11
154
 21
76
  0
ARC
  8
_0-1_作画層１
  6
CONTINUOUS
 62
    7
 10
154.00000000000003
 20
75.000000000000014
 40
0.9999999999999853
 50
359.9999999999992
 51
90.000000000001634
  0
LINE
  8
_0-1_作画層１
  6
CONTINUOUS
 62
    7
 10
160.625
 20
78.5
 11
158.5
 21
78.5
  0
ARC
  8
_0-1_作画層１
  6
CONTINUOUS
 62
    7
 10
158.49999999999997
 20
79.499999999999986
 40
0.9999999999999853
 50
179.99999999999918
 51
270.00000000000171
  0
LINE
  8
_0-1_作画層１
  6
CONTINUOUS
 62
    7
 10
154.0000001271566
 20
78.5
 11
151.875
 21
78.5
  0
LINE
  8
_0-1_作画層１
  6
CONTINUOUS
 62
    7
 10
160.625
 20
76
 11
158.5
 21
76
  0
LINE
  8
_0-1_作画層１
  6
CONTINUOUS
 62
    7
 10
157.5
 20
72.875
 11
157.5
 21
75
  0
ARC
  8
_0-1_作画層１
  6
CONTINUOUS
 62
    7
 10
158.49999999999997
 20
75.000000000000014
 40
0.9999999999999853
 50
89.99999999999838
 51
180.00000000000082
  0
LINE
  8
_0-1_作画層１
  6
CONTINUOUS
 62
    7
 10
155
 20
79.499999999999986
 11
155
 21
81.625
  0
LINE
  8
_0-1_作画層１
  6
CONTINUOUS
 62
    7
 10
155
 20
75.000000000000014
 11
155
 21
72.875
  0
LINE
  8
_0-1_作画層１
  6
CONTINUOUS
 62
    7
 10
157.5
 20
79.499999999999986
 11
157.5
 21
81.625
  0
CIRCLE
  8
_0-1_作画層１
  6
CONTINUOUS
 62
    7
 10
173.75
 20
77.25
 40
5
  0
LINE
  8
_0-1_作画層１
  6
CONTINUOUS
 62
    7
 10
172.5
 20
81.625
 11
175
 21
81.625
  0
LINE
  8
_0-1_作画層１
  6
CONTINUOUS
 62
    7
 10
175
 20
72.875
 11
172.5
 21
72.875
  0
LINE
  8
_0-1_作画層１
  6
CONTINUOUS
 62
    7
 10
178.125
 20
78.5
 11
178.125
 21
76
  0
LINE
  8
_0-1_作画層１
  6
CONTINUOUS
 62
    7
 10
169.375
 20
76
 11
169.375
 21
78.5
  0
ARC
  8
_0-1_作画層１
  6
CONTINUOUS
 62
    7
 10
171.50000000000003
 20
79.499999999999986
 40
0.9999999999999712
 50
269.99999999999835
 51
0.0000000000008142
  0
LINE
  8
_0-1_作画層１
  6
CONTINUOUS
 62
    7
 10
169.375
 20
76
 11
171.5
 21
76
  0
ARC
  8
_0-1_作画層１
  6
CONTINUOUS
 62
    7
 10
171.50000000000003
 20
75.000000000000014
 40
0.9999999999999853
 50
359.9999999999992
 51
90.000000000001634
  0
LINE
  8
_0-1_作画層１
  6
CONTINUOUS
 62
    7
 10
178.125
 20
78.5
 11
176
 21
78.5
  0
ARC
  8
_0-1_作画層１
  6
CONTINUOUS
 62
    7
 10
175.99999999999997
 20
79.499999999999986
 40
0.9999999999999853
 50
179.99999999999918
 51
270.00000000000171
  0
LINE
  8
_0-1_作画層１
  6
CONTINUOUS
 62
    7
 10
171.5000001271566
 20
78.5
 11
169.375
 21
78.5
  0
LINE
  8
_0-1_作画層１
  6
CONTINUOUS
 62
    7
 10
178.125
 20
76
 11
176
 21
76
  0
LINE
  8
_0-1_作画層１
  6
CONTINUOUS
 62
    7
 10
175
 20
72.875
 11
175
 21
75
  0
ARC
  8
_0-1_作画層１
  6
CONTINUOUS
 62
    7
 10
175.99999999999997
 20
75.000000000000014
 40
0.9999999999999853
 50
89.99999999999838
 51
180.00000000000082
  0
LINE
  8
_0-1_作画層１
  6
CONTINUOUS
 62
    7
 10
172.5
 20
79.499999999999986
 11
172.5
 21
81.625
  0
LINE
  8
_0-1_作画層１
  6
CONTINUOUS
 62
    7
 10
172.5
 20
75.000000000000014
 11
172.5
 21
72.875
  0
LINE
  8
_0-1_作画層１
  6
CONTINUOUS
 62
    7
 10
175
 20
79.499999999999986
 11
175
 21
81.625
  0
CIRCLE
  8
_0-1_作画層１
  6
CONTINUOUS
 62
    7
 10
191.25
 20
77.25
 40
5
  0
LINE
  8
_0-1_作画層１
  6
CONTINUOUS
 62
    7
 10
190
 20
81.625
 11
192.5
 21
81.625
  0
LINE
  8
_0-1_作画層１
  6
CONTINUOUS
 62
    7
 10
192.5
 20
72.875
 11
190
 21
72.875
  0
LINE
  8
_0-1_作画層１
  6
CONTINUOUS
 62
    7
 10
195.625
 20
78.5
 11
195.625
 21
76
  0
LINE
  8
_0-1_作画層１
  6
CONTINUOUS
 62
    7
 10
186.875
 20
76
 11
186.875
 21
78.5
  0
ARC
  8
_0-1_作画層１
  6
CONTINUOUS
 62
    7
 10
189.00000000000003
 20
79.499999999999986
 40
0.9999999999999712
 50
269.99999999999835
 51
0.0000000000008142
  0
LINE
  8
_0-1_作画層１
  6
CONTINUOUS
 62
    7
 10
186.875
 20
76
 11
189
 21
76
  0
ARC
  8
_0-1_作画層１
  6
CONTINUOUS
 62
    7
 10
189.00000000000003
 20
75.000000000000014
 40
0.9999999999999853
 50
359.9999999999992
 51
90.000000000001634
  0
LINE
  8
_0-1_作画層１
  6
CONTINUOUS
 62
    7
 10
195.625
 20
78.5
 11
193.5
 21
78.5
  0
ARC
  8
_0-1_作画層１
  6
CONTINUOUS
 62
    7
 10
193.49999999999997
 20
79.499999999999986
 40
0.9999999999999853
 50
179.99999999999918
 51
270.00000000000171
  0
LINE
  8
_0-1_作画層１
  6
CONTINUOUS
 62
    7
 10
189.0000001271566
 20
78.5
 11
186.875
 21
78.5
  0
LINE
  8
_0-1_作画層１
  6
CONTINUOUS
 62
    7
 10
195.625
 20
76
 11
193.5
 21
76
  0
LINE
  8
_0-1_作画層１
  6
CONTINUOUS
 62
    7
 10
192.5
 20
72.875
 11
192.5
 21
75
  0
ARC
  8
_0-1_作画層１
  6
CONTINUOUS
 62
    7
 10
193.49999999999997
 20
75.000000000000014
 40
0.9999999999999853
 50
89.99999999999838
 51
180.00000000000082
  0
LINE
  8
_0-1_作画層１
  6
CONTINUOUS
 62
    7
 10
190
 20
79.499999999999986
 11
190
 21
81.625
  0
LINE
  8
_0-1_作画層１
  6
CONTINUOUS
 62
    7
 10
190
 20
75.000000000000014
 11
190
 21
72.875
  0
LINE
  8
_0-1_作画層１
  6
CONTINUOUS
 62
    7
 10
192.5
 20
79.499999999999986
 11
192.5
 21
81.625
  0
CIRCLE
  8
_0-1_作画層１
  6
CONTINUOUS
 62
    7
 10
208.75
 20
77.25
 40
5
  0
LINE
  8
_0-1_作画層１
  6
CONTINUOUS
 62
    7
 10
207.5
 20
81.625
 11
210
 21
81.625
  0
LINE
  8
_0-1_作画層１
  6
CONTINUOUS
 62
    7
 10
210
 20
72.875
 11
207.5
 21
72.875
  0
LINE
  8
_0-1_作画層１
  6
CONTINUOUS
 62
    7
 10
213.125
 20
78.5
 11
213.125
 21
76
  0
LINE
  8
_0-1_作画層１
  6
CONTINUOUS
 62
    7
 10
204.375
 20
76
 11
204.375
 21
78.5
  0
ARC
  8
_0-1_作画層１
  6
CONTINUOUS
 62
    7
 10
206.50000000000003
 20
79.499999999999986
 40
0.9999999999999712
 50
269.99999999999835
 51
0.0000000000008142
  0
LINE
  8
_0-1_作画層１
  6
CONTINUOUS
 62
    7
 10
204.375
 20
76
 11
206.5
 21
76
  0
ARC
  8
_0-1_作画層１
  6
CONTINUOUS
 62
    7
 10
206.50000000000003
 20
75.000000000000014
 40
0.9999999999999853
 50
359.9999999999992
 51
90.000000000001634
  0
LINE
  8
_0-1_作画層１
  6
CONTINUOUS
 62
    7
 10
213.125
 20
78.5
 11
211
 21
78.5
  0
ARC
  8
_0-1_作画層１
  6
CONTINUOUS
 62
    7
 10
210.99999999999997
 20
79.499999999999986
 40
0.9999999999999853
 50
179.99999999999918
 51
270.00000000000171
  0
LINE
  8
_0-1_作画層１
  6
CONTINUOUS
 62
    7
 10
206.5000001271566
 20
78.5
 11
204.375
 21
78.5
  0
LINE
  8
_0-1_作画層１
  6
CONTINUOUS
 62
    7
 10
213.125
 20
76
 11
211
 21
76
  0
LINE
  8
_0-1_作画層１
  6
CONTINUOUS
 62
    7
 10
210
 20
72.875
 11
210
 21
75
  0
ARC
  8
_0-1_作画層１
  6
CONTINUOUS
 62
    7
 10
210.99999999999997
 20
75.000000000000014
 40
0.9999999999999853
 50
89.99999999999838
 51
180.00000000000082
  0
LINE
  8
_0-1_作画層１
  6
CONTINUOUS
 62
    7
 10
207.5
 20
79.499999999999986
 11
207.5
 21
81.625
  0
LINE
  8
_0-1_作画層１
  6
CONTINUOUS
 62
    7
 10
207.5
 20
75.000000000000014
 11
207.5
 21
72.875
  0
LINE
  8
_0-1_作画層１
  6
CONTINUOUS
 62
    7
 10
210
 20
79.499999999999986
 11
210
 21
81.625
  0
LINE
  8
_0-1_作画層１
  6
CONTINUOUS
 62
    7
 10
148.75
 20
84.75
 11
216.25
 21
84.75
  0
LINE
  8
_0-1_作画層１
  6
CONTINUOUS
 62
    7
 10
216.25
 20
84.75
 11
216.25
 21
69.75
  0
LINE
  8
_0-1_作画層１
  6
CONTINUOUS
 62
    7
 10
216.25
 20
69.75
 11
148.75
 21
69.75
  0
LINE
  8
_0-1_作画層１
  6
CONTINUOUS
 62
    7
 10
148.75
 20
69.75
 11
148.75
 21
84.75
  0
LINE
  8
_0-1_作画層１
  6
CONTINUOUS
 62
    7
 10
208.75
 20
62.25
 11
221.25
 21
62.25
  0
CIRCLE
  8
_0-1_作画層１
  6
CONTINUOUS
 62
    7
 10
165
 20
54.75
 40
5
  0
ARC
  8
_0-1_作画層１
  6
CONTINUOUS
 62
    7
 10
163.4375
 20
54.909974466828913
 40
1.5706680362308238
 50
185.84578235473452
 51
354.15421764526542
  0
ARC
  8
_0-1_作画層１
  6
CONTINUOUS
 62
    7
 10
166.5625
 20
54.590025533171058
 40
1.5706680362308283
 50
5.8457823547360706
 51
174.15421764526394
  0
LINE
  8
_0-1_作画層１
  6
CONTINUOUS
 62
    7
 10
160
 20
54.75
 11
156.25
 21
54.75
  0
LINE
  8
_0-1_作画層１
  6
CONTINUOUS
 62
    7
 10
173.75
 20
54.75
 11
170
 21
54.75
  0
LINE
  8
_0-1_作画層１
  6
CONTINUOUS
 62
    7
 10
193.75
 20
54.75
 11
191.25
 21
54.75
  0
TEXT
  8
_0-7_注記層１
 62
    7
 10
160.25
 20
45.5
 40
3.5
 41
1
 50
0
  1
電源
  0
TEXT
  8
_0-7_注記層１
 62
    7
 10
154.125
 20
42
 40
3.5
 41
1
 50
0
  1
AC100V-200V
  0
TEXT
  8
_0-7_注記層１
 62
    7
 10
195.25
 20
53
 40
3.5
 41
1
 50
0
  1
負荷
  0
LINE
  8
_0-1_作画層１
  6
CONTINUOUS
 62
    7
 10
193.75
 20
52.25
 11
203.75
 21
52.25
  0
LINE
  8
_0-1_作画層１
  6
CONTINUOUS
 62
    7
 10
203.75
 20
52.25
 11
203.75
 21
57.25
  0
LINE
  8
_0-1_作画層１
  6
CONTINUOUS
 62
    7
 10
203.75
 20
57.25
 11
193.75
 21
57.25
  0
LINE
  8
_0-1_作画層１
  6
CONTINUOUS
 62
    7
 10
193.75
 20
57.25
 11
193.75
 21
52.25
  0
LINE
  8
_0-1_作画層１
  6
CONTINUOUS
 62
    7
 10
203.75
 20
54.75
 11
221.25
 21
54.75
  0
CIRCLE
  8
_0-1_作画層１
  6
CONTINUOUS
 62
    7
 10
195
 20
99.75
 40
1.25
  0
CIRCLE
  8
_0-1_作画層１
  6
CONTINUOUS
 62
    7
 10
205
 20
99.75
 40
1.25
  0
LINE
  8
_0-1_作画層１
  6
CONTINUOUS
 62
    7
 10
193.75
 20
99.75
 11
191.25
 21
99.75
  0
LINE
  8
_0-1_作画層１
  6
CONTINUOUS
 62
    7
 10
206.25
 20
99.75
 11
208.75
 21
99.75
  0
TEXT
  8
_0-7_注記層１
 62
    7
 10
158
 20
98
 40
3.5
 41
1
 50
0
  1
内部回路
  0
LINE
  8
_0-1_作画層１
  6
CONTINUOUS
 62
    7
 10
153.75
 20
97.25
 11
176.25
 21
97.25
  0
LINE
  8
_0-1_作画層１
  6
CONTINUOUS
 62
    7
 10
176.25
 20
97.25
 11
176.25
 21
102.25
  0
LINE
  8
_0-1_作画層１
  6
CONTINUOUS
 62
    7
 10
176.25
 20
102.25
 11
153.75
 21
102.25
  0
LINE
  8
_0-1_作画層１
  6
CONTINUOUS
 62
    7
 10
153.75
 20
102.25
 11
153.75
 21
97.25
  0
LINE
  8
_0-1_作画層１
  6
CONTINUOUS
 62
    7
 10
191.25
 20
84.75
 11
191.25
 21
99.75
  0
LINE
  8
_0-1_作画層１
  6
CONTINUOUS
 62
    7
 10
208.75
 20
84.75
 11
208.75
 21
99.75
  0
LINE
  8
_0-1_作画層１
  6
CONTINUOUS
 62
    7
 10
156.25
 20
84.75
 11
156.25
 21
97.25
  0
LINE
  8
_0-1_作画層１
  6
CONTINUOUS
 62
    7
 10
173.75
 20
84.75
 11
173.75
 21
97.25
  0
LINE
  8
_0-1_作画層１
  6
CONTINUOUS
 62
    7
 10
156.25
 20
69.75
 11
156.25
 21
54.75
  0
LINE
  8
_0-1_作画層１
  6
CONTINUOUS
 62
    7
 10
173.75
 20
69.75
 11
173.75
 21
54.75
  0
LINE
  8
_0-1_作画層１
  6
CONTINUOUS
 62
    7
 10
208.75
 20
69.75
 11
208.75
 21
62.25
  0
LINE
  8
_0-1_作画層１
  6
CONTINUOUS
 62
    7
 10
191.25
 20
69.75
 11
191.25
 21
54.75
  0
TEXT
  8
_0-7_注記層１
 62
    7
 10
222.5
 20
57.25
 40
3.5
 41
1
 50
0
  1
負荷用電源
  0
LINE
  8
_0-1_作画層１
  6
CONTINUOUS
 62
    7
 10
195.75
 20
100.75
 11
203.75
 21
104.75
  0
TEXT
  8
_0-7_注記層１
 62
    7
 10
194.25
 20
108
 40
3.5
 41
1
 50
0
  1
接点出力
  0
LINE
  8
_0-1_作画層１
  6
CONTINUOUS
 62
    7
 10
156.25
 20
117.25
 11
181.25
 21
117.25
  0
TEXT
  8
_0-7_注記層１
 62
    7
 10
158.75
 20
117.25
 40
5
 41
1
 50
0
  1
端子接続
  0
LINE
  8
_0-1_作画層１
  6
DASHED
 62
    7
 10
228.75
 20
109.75
 11
228.75
 21
77.25
  0
LINE
  8
_0-1_作画層１
  6
DASHED
 62
    7
 10
228.75
 20
77.25
 11
216.25
 21
77.25
  0
LINE
  8
_0-1_作画層１
  6
DASHED
 62
    7
 10
136.25
 20
109.75
 11
136.25
 21
77.25
  0
LINE
  8
_0-1_作画層１
  6
DASHED
 62
    7
 10
136.25
 20
77.25
 11
148.75
 21
77.25
  0
TEXT
  8
_0-7_注記層１
 62
    7
 10
43.75
 20
277.25
 40
5
 41
1
 50
0
  1
外形寸法
  0
LINE
  8
_0-1_作画層１
  6
CONTINUOUS
 62
    7
 10
41.25
 20
277.25
 11
66.25
 21
277.25
  0
TEXT
  8
_0-7_注記層１
 62
    7
 10
306.25
 20
253
 40
3.5
 41
1
 50
0
  1
AC85V～AC230V
  0
TEXT
  8
_0-7_注記層１
 62
    7
 10
306.25
 20
213
 40
3.5
 41
1
 50
0
  1
30分
  0
TEXT
  8
_0-7_注記層１
 62
    7
 10
306.25
 20
208
 40
3.5
 41
1
 50
0
  1
±15秒／月（25℃）
  0
TEXT
  8
_0-7_注記層１
 62
    7
 10
306.25
 20
203
 40
3.5
 41
1
 50
0
  1
約10VA
  0
TEXT
  8
_0-7_注記層１
 62
    7
 10
306.25
 20
198
 40
3.5
 41
1
 50
0
  1
200g
  0
LINE
  8
_0-1_作画層１
  6
CONTINUOUS
 62
    7
 10
76.144435197988628
 20
250.80591698189903
 11
76.504175693670391
 21
245.31765099068809
  0
LINE
  8
_0-1_作画層１
  6
CONTINUOUS
 62
    7
 10
74.255848080793498
 20
250.61986656685997
 11
74.973780543485759
 21
245.16691704293419
  0
LINE
  8
_0-1_作画層１
  6
CONTINUOUS
 62
    7
 10
72.383516223112224
 20
250.31073685189415
 11
73.456490904966472
 21
244.91645737191368
  0
LINE
  8
_0-1_作画層１
  6
CONTINUOUS
 62
    7
 10
70.535348326841472
 20
249.87984200020958
 11
71.958877474943279
 21
244.56724281808067
  0
LINE
  8
_0-1_作画層１
  6
CONTINUOUS
 62
    7
 10
68.719384581724285
 20
249.32893295785118
 11
70.487273604551433
 21
244.12082787057091
  0
LINE
  8
_0-1_作画層１
  6
CONTINUOUS
 62
    7
 10
66.943297774473308
 20
248.66047401925255
 11
69.04804936138737
 21
243.57914848824669
  0
LINE
  8
_0-1_作画層１
  6
CONTINUOUS
 62
    7
 10
65.214768798032878
 20
247.87728615304161
 11
67.647328765073894
 21
242.94451256295372
  0
LINE
  8
_0-1_作画層１
  6
CONTINUOUS
 62
    7
 10
63.541139037290691
 20
246.98274155160118
 11
66.291120917478679
 21
242.21958084603477
  0
LINE
  8
_0-1_作画層１
  6
CONTINUOUS
 62
    7
 10
61.929608733335613
 20
245.98060532113243
 11
64.985219390073894
 21
241.40749474068809
  0
LINE
  8
_0-1_作画層１
  6
CONTINUOUS
 62
    7
 10
63.735221297422527
 20
240.51177902718712
 11
60.387042433897136
 21
244.87521667977501
  0
LINE
  8
_0-1_作画層１
  6
CONTINUOUS
 62
    7
 10
58.920112044492839
 20
243.67133446236778
 11
62.546483428159831
 21
239.5362388660543
  0
LINE
  8
_0-1_作画層１
  6
CONTINUOUS
 62
    7
 10
57.535033614317058
 20
242.37410278817345
 11
61.42411366192448
 21
238.48499603768516
  0
LINE
  8
_0-1_作画層１
  6
CONTINUOUS
 62
    7
 10
56.237792403379558
 20
240.9890148212545
 11
60.372914702573894
 21
237.36259098550011
  0
LINE
  8
_0-1_作画層１
  6
CONTINUOUS
 62
    7
 10
55.033866316953777
 20
239.52203865548302
 11
59.397313506284831
 21
236.17386932870079
  0
LINE
  8
_0-1_作画層１
  6
CONTINUOUS
 62
    7
 10
53.92852154461491
 20
237.97953529854942
 11
58.501595885435222
 21
234.92388077279259
  0
LINE
  8
_0-1_作画層１
  6
CONTINUOUS
 62
    7
 10
52.92638531414616
 20
236.36800499459434
 11
57.689526946226238
 21
233.61798782845665
  0
LINE
  8
_0-1_作画層１
  6
CONTINUOUS
 62
    7
 10
52.031833083311199
 20
234.69436569710899
 11
56.964621932188152
 21
232.2617370655172
  0
LINE
  8
_0-1_作画層１
  6
CONTINUOUS
 62
    7
 10
50.5801672050153
 20
231.18973274727989
 11
55.788237960020183
 21
229.42180033227135
  0
LINE
  8
_0-1_作画層１
  6
CONTINUOUS
 62
    7
 10
51.248626143613933
 20
232.96578522225548
 11
56.329961211362956
 21
230.86104221841026
  0
LINE
  8
_0-1_作画層１
  6
CONTINUOUS
 62
    7
 10
50.029265792051433
 20
229.37375183602501
 11
55.341866881528972
 21
227.95023174782921
  0
LINE
  8
_0-1_作画層１
  6
CONTINUOUS
 62
    7
 10
49.598328978696941
 20
227.52561016579796
 11
54.992686659971355
 21
226.45257444878746
  0
LINE
  8
_0-1_作画層１
  6
CONTINUOUS
 62
    7
 10
49.289233596006511
 20
225.65321703454185
 11
54.742200286069988
 21
224.93536348839928
  0
LINE
  8
_0-1_作画層１
  6
CONTINUOUS
 62
    7
 10
49.103200347105144
 20
223.76464744111229
 11
54.591432006040691
 21
223.40495069523979
  0
LINE
  8
_0-1_作画層１
  6
CONTINUOUS
 62
    7
 10
106.97900334087954
 20
223.76466496487785
 11
101.49078884808169
 21
223.40498574277092
  0
LINE
  8
_0-1_作画層１
  6
CONTINUOUS
 62
    7
 10
106.7929948875104
 20
225.65327830811668
 11
101.34004727093325
 21
224.93532844086815
  0
LINE
  8
_0-1_作画層１
  6
CONTINUOUS
 62
    7
 10
106.48388424603091
 20
227.52558393975426
 11
101.08957043377505
 21
226.45260925790001
  0
LINE
  8
_0-1_作画層１
  6
CONTINUOUS
 62
    7
 10
106.05296459881411
 20
229.37371702691246
 11
100.74037304607974
 21
227.95023174782921
  0
LINE
  8
_0-1_作画層１
  6
CONTINUOUS
 62
    7
 10
105.50209751812564
 20
231.18973274727989
 11
100.29395809856997
 21
229.42183514138389
  0
LINE
  8
_0-1_作画層１
  6
CONTINUOUS
 62
    7
 10
104.83359661785708
 20
232.96581097146202
 11
99.752278716245755
 21
230.86105080147911
  0
LINE
  8
_0-1_作画層１
  6
CONTINUOUS
 62
    7
 10
104.05040684429751
 20
234.6943485309713
 11
99.117625624815091
 21
232.26177139779259
  0
LINE
  8
_0-1_作画層１
  6
CONTINUOUS
 62
    7
 10
103.15585461346255
 20
236.36798687478233
 11
98.392711074033841
 21
233.6179792453878
  0
LINE
  8
_0-1_作画層１
  6
CONTINUOUS
 62
    7
 10
102.1537355491315
 20
237.97950096627403
 11
97.580632598081692
 21
234.9238988926046
  0
LINE
  8
_0-1_作画層１
  6
CONTINUOUS
 62
    7
 10
96.684909255186184
 20
236.17387886544395
 11
101.04835453716861
 21
239.52206535836388
  0
LINE
  8
_0-1_作画層１
  6
CONTINUOUS
 62
    7
 10
99.844464690366848
 20
240.98898811837364
 11
95.709351927915677
 21
237.3626081516378
  0
LINE
  8
_0-1_作画層１
  6
CONTINUOUS
 62
    7
 10
98.547213942686184
 20
242.37408371468712
 11
94.658126265684231
 21
238.484986500942
  0
LINE
  8
_0-1_作画層１
  6
CONTINUOUS
 62
    7
 10
97.162145049253567
 20
243.67132492562462
 11
93.535720259824856
 21
239.53622932931114
  0
LINE
  8
_0-1_作画層１
  6
CONTINUOUS
 62
    7
 10
95.695168883482083
 20
244.87522430916954
 11
92.346999556699856
 21
240.51178665658165
  0
LINE
  8
_0-1_作画層１
  6
CONTINUOUS
 62
    7
 10
94.152648360410794
 20
245.98058815499473
 11
91.096984297910794
 21
241.40748520394493
  0
LINE
  8
_0-1_作画層１
  6
CONTINUOUS
 62
    7
 10
92.541099936643704
 20
246.98270721932579
 11
89.791118056455716
 21
242.21957321664024
  0
LINE
  8
_0-1_作画層１
  6
CONTINUOUS
 62
    7
 10
90.867487342039212
 20
247.87726707955528
 11
88.434893042722805
 21
242.94446869393516
  0
LINE
  8
_0-1_作画層１
  6
CONTINUOUS
 62
    7
 10
87.362871558347805
 20
249.32893295785118
 11
85.594938666502102
 21
244.1208622028463
  0
LINE
  8
_0-1_作画層１
  6
CONTINUOUS
 62
    7
 10
89.138924033323391
 20
248.66047401925255
 11
87.034171492735013
 21
243.57914848824669
  0
LINE
  8
_0-1_作画層１
  6
CONTINUOUS
 62
    7
 10
85.546820552030667
 20
249.8798782398336
 11
84.123370082059964
 21
244.56723328133751
  0
LINE
  8
_0-1_作画層１
  6
CONTINUOUS
 62
    7
 10
83.698748976865872
 20
250.31075401803184
 11
82.625739009061917
 21
244.91640587350059
  0
LINE
  8
_0-1_作画層１
  6
CONTINUOUS
 62
    7
 10
81.82636442867863
 20
250.61986656685997
 11
81.108502061048625
 21
245.16690941353966
  0
LINE
  8
_0-1_作画層１
  6
CONTINUOUS
 62
    7
 10
79.937829763570903
 20
250.80586357613731
 11
79.578080565611003
 21
245.31768532296348
  0
LINE
  8
_0-1_作画層１
  6
CONTINUOUS
 62
    7
 10
79.937812359014629
 20
192.93006248971153
 11
79.578071863332866
 21
198.41832085152794
  0
LINE
  8
_0-1_作画層１
  6
CONTINUOUS
 62
    7
 10
81.826373250166057
 20
193.11608620186973
 11
81.108467013517497
 21
198.56905289193321
  0
LINE
  8
_0-1_作画層１
  6
CONTINUOUS
 62
    7
 10
83.698731333891018
 20
193.42522545357872
 11
82.62575665203677
 21
198.81951256295372
  0
LINE
  8
_0-1_作画層１
  6
CONTINUOUS
 62
    7
 10
85.546882064024075
 20
193.85614510079552
 11
84.123370082059964
 21
199.16872711678673
  0
LINE
  8
_0-1_作画層１
  6
CONTINUOUS
 62
    7
 10
87.362845809141263
 20
194.40701981087852
 11
85.594973952451809
 21
199.61514206429649
  0
LINE
  8
_0-1_作画層１
  6
CONTINUOUS
 62
    7
 10
89.138932616392239
 20
195.07547874947716
 11
87.034198195615872
 21
200.15682144662071
  0
LINE
  8
_0-1_作画層１
  6
CONTINUOUS
 62
    7
 10
90.867478758970364
 20
195.85868568917442
 11
88.434918791929348
 21
200.79145737191368
  0
LINE
  8
_0-1_作画層１
  6
CONTINUOUS
 62
    7
 10
92.541125685850247
 20
196.75326462289024
 11
89.791126639524563
 21
201.51638908883263
  0
LINE
  8
_0-1_作画層１
  6
CONTINUOUS
 62
    7
 10
94.15263882366763
 20
197.75536461373497
 11
91.097028166929348
 21
202.3284751941793
  0
LINE
  8
_0-1_作画層１
  6
CONTINUOUS
 62
    7
 10
92.347026259580716
 20
203.22419090768028
 11
95.695195586362942
 21
198.8607360889547
  0
LINE
  8
_0-1_作画層１
  6
CONTINUOUS
 62
    7
 10
97.162135512510403
 20
200.06463547249962
 11
93.535764128843411
 21
204.19973106881309
  0
LINE
  8
_0-1_作画層１
  6
CONTINUOUS
 62
    7
 10
98.547213942686184
 20
201.36190338631798
 11
94.658133895078763
 21
205.25097389718223
  0
LINE
  8
_0-1_作画層１
  6
CONTINUOUS
 62
    7
 10
99.844455153623684
 20
202.7469551136129
 11
95.709332854429348
 21
206.37337990304161
  0
LINE
  8
_0-1_作画層１
  6
CONTINUOUS
 62
    7
 10
101.0483717033063
 20
204.21393890877891
 11
96.684934050718411
 21
207.56210060616661
  0
LINE
  8
_0-1_作画層１
  6
CONTINUOUS
 62
    7
 10
102.15376988140689
 20
205.75645180245567
 11
97.58065167156802
 21
208.81208916207481
  0
LINE
  8
_0-1_作画層１
  6
CONTINUOUS
 62
    7
 10
103.15581837383853
 20
207.36800022622276
 11
98.392720610777005
 21
210.11798210641075
  0
LINE
  8
_0-1_作画層１
  6
CONTINUOUS
 62
    7
 10
104.05040684429751
 20
209.04161282082725
 11
99.117625624815091
 21
211.47423382302452
  0
LINE
  8
_0-1_作画層１
  6
CONTINUOUS
 62
    7
 10
105.50208988873111
 20
212.54623718758751
 11
100.29400959698306
 21
214.31417007943321
  0
LINE
  8
_0-1_作画層１
  6
CONTINUOUS
 62
    7
 10
104.83362141338931
 20
210.77015896340538
 11
99.752286345640286
 21
212.87492867013145
  0
LINE
  8
_0-1_作画層１
  6
CONTINUOUS
 62
    7
 10
106.05292835919009
 20
214.36223574181724
 11
100.74038067547427
 21
215.78573866387535
  0
LINE
  8
_0-1_作画層１
  6
CONTINUOUS
 62
    7
 10
106.48390141216861
 20
216.21035976906944
 11
101.08956089703189
 21
217.2833959629171
  0
LINE
  8
_0-1_作画層１
  6
CONTINUOUS
 62
    7
 10
106.7929948875104
 20
218.082718091213
 11
101.34004727093325
 21
218.80060692330528
  0
LINE
  8
_0-1_作画層１
  6
CONTINUOUS
 62
    7
 10
106.9790472098981
 20
219.97132285138298
 11
101.49081555096255
 21
220.33101959725548
  0
LINE
  8
_0-1_作画層１
  6
CONTINUOUS
 62
    7
 10
49.103227049986003
 20
219.97131414910484
 11
54.59145870892155
 21
220.33098454972435
  0
LINE
  8
_0-1_作画層１
  6
CONTINUOUS
 62
    7
 10
49.289233596006511
 20
218.08270950814415
 11
54.742200286069988
 21
218.80064173241783
  0
LINE
  8
_0-1_作画層１
  6
CONTINUOUS
 62
    7
 10
49.598372847715495
 20
216.21037741204429
 11
54.992677123228191
 21
217.28336115380455
  0
LINE
  8
_0-1_作画層１
  6
CONTINUOUS
 62
    7
 10
50.029258162656902
 20
214.36223574181724
 11
55.341874510923503
 21
215.78573866387535
  0
LINE
  8
_0-1_作画層１
  6
CONTINUOUS
 62
    7
 10
50.5801672050153
 20
212.54624577065636
 11
55.788289458433269
 21
214.31413527032066
  0
LINE
  8
_0-1_作画層１
  6
CONTINUOUS
 62
    7
 10
51.248633773008464
 20
210.77015038033653
 11
56.329968840757488
 21
212.87491913338829
  0
LINE
  8
_0-1_作画層１
  6
CONTINUOUS
 62
    7
 10
52.03181400982487
 20
209.04158707162071
 11
56.964621932188152
 21
211.47419853707481
  0
LINE
  8
_0-1_作画層１
  6
CONTINUOUS
 62
    7
 10
52.926368148008464
 20
207.36798306008507
 11
57.689536482969402
 21
210.1179906894796
  0
LINE
  8
_0-1_作画層１
  6
CONTINUOUS
 62
    7
 10
53.928512007871745
 20
205.75646896859337
 11
58.50161495892155
 21
208.81207199593712
  0
LINE
  8
_0-1_作画層１
  6
CONTINUOUS
 62
    7
 10
59.397338301817058
 20
207.56209202309776
 11
55.033866316953777
 21
204.21390457650352
  0
LINE
  8
_0-1_作画層１
  6
CONTINUOUS
 62
    7
 10
56.237775237241863
 20
202.74697227975059
 11
60.372895629087566
 21
206.3733617832296
  0
LINE
  8
_0-1_作画層１
  6
CONTINUOUS
 62
    7
 10
57.535006911436199
 20
201.36188622018028
 11
61.424121291319011
 21
205.2509834339254
  0
LINE
  8
_0-1_作画層１
  6
CONTINUOUS
 62
    7
 10
58.920112044492839
 20
200.06461830636192
 11
62.546527297178386
 21
204.19974060555626
  0
LINE
  8
_0-1_作画層１
  6
CONTINUOUS
 62
    7
 10
60.387069136777995
 20
198.8607360889547
 11
63.735248000303386
 21
203.22418327828575
  0
LINE
  8
_0-1_作画層１
  6
CONTINUOUS
 62
    7
 10
61.929599196592449
 20
197.75533791085411
 11
64.985263259092449
 21
202.32848473092247
  0
LINE
  8
_0-1_作画層１
  6
CONTINUOUS
 62
    7
 10
63.541103751340984
 20
196.75324554940391
 11
66.291129500547527
 21
201.51639862557579
  0
LINE
  8
_0-1_作画層１
  6
CONTINUOUS
 62
    7
 10
65.214743048826335
 20
195.85870285531212
 11
67.647354514280437
 21
200.79150124093223
  0
LINE
  8
_0-1_作画層１
  6
CONTINUOUS
 62
    7
 10
68.719375998655437
 20
194.40702934762169
 11
70.48730889050114
 21
199.6151077320211
  0
LINE
  8
_0-1_作画層１
  6
CONTINUOUS
 62
    7
 10
66.943297774473308
 20
195.07547874947716
 11
69.04807606426823
 21
200.15682144662071
  0
LINE
  8
_0-1_作画層１
  6
CONTINUOUS
 62
    7
 10
70.535391719022869
 20
193.85617943307091
 11
71.958877474943279
 21
199.16873665352989
  0
LINE
  8
_0-1_作画層１
  6
CONTINUOUS
 62
    7
 10
72.383524806181072
 20
193.42520638009239
 11
73.456508547941326
 21
198.8195640613668
  0
LINE
  8
_0-1_作画層１
  6
CONTINUOUS
 62
    7
 10
74.255856902280925
 20
193.11608620186973
 11
74.973745495954631
 21
198.56906052132774
  0
LINE
  8
_0-1_作画層１
  6
CONTINUOUS
 62
    7
 10
76.144461543241619
 20
192.93005295296837
 11
76.504166991392253
 21
198.41828461190391
  0
LINE
  8
_0-1_作画層１
  6
CONTINUOUS
 62
    7
 10
93.639971167722805
 20
218.30764885445763
 11
90.227724463621243
 21
219.08647270699669
  0
LINE
  8
_0-1_作画層１
  6
CONTINUOUS
 62
    7
 10
84.983260066190823
 20
207.45248718758751
 11
83.464675814787014
 21
210.60586567422081
  0
LINE
  8
_0-1_作画層１
  6
CONTINUOUS
 62
    7
 10
71.098987490812419
 20
207.45247860451866
 11
72.617580325285076
 21
210.60586567422081
  0
LINE
  8
_0-1_作画層１
  6
CONTINUOUS
 62
    7
 10
62.442276389280437
 20
218.30764885445763
 11
65.854523093381999
 21
219.08647270699669
  0
LINE
  8
_0-1_作画層１
  6
CONTINUOUS
 62
    7
 10
54.541127593198894
 20
221.86797638436485
 11
49.041127593198894
 21
221.86797638436485
  0
LINE
  8
_0-1_作画層１
  6
CONTINUOUS
 62
    7
 10
78.041123778501628
 20
245.36798210641075
 11
78.041123778501628
 21
250.86798019906212
  0
LINE
  8
_0-1_作画層１
  6
CONTINUOUS
 62
    7
 10
101.54111996380435
 20
221.86797638436485
 11
107.04111996380435
 21
221.86797638436485
  0
LINE
  8
_0-1_作画層１
  6
CONTINUOUS
 62
    7
 10
78.041123778501628
 20
198.36798782845665
 11
78.041123778501628
 21
192.86798019906212
  0
LINE
  8
_0-1_作画層１
  6
CONTINUOUS
 62
    7
 10
78.041123778501628
 20
234.36797543069054
 11
78.041123778501628
 21
237.86798973580528
  0
LINE
  8
_0-1_作画層１
  6
CONTINUOUS
 62
    7
 10
68.268227965513347
 20
229.66159506341148
 11
72.568298728147624
 21
226.23240299721886
  0
LINE
  8
_0-1_作画層１
  6
CONTINUOUS
 62
    7
 10
78.041123778501628
 20
234.36797543069054
 11
78.041123778501628
 21
228.86797733803917
  0
LINE
  8
_0-1_作画層１
  6
CONTINUOUS
 62
    7
 10
90.227724463621243
 20
219.08647270699669
 11
84.865624339262112
 21
220.31033750077415
  0
LINE
  8
_0-1_作画層１
  6
CONTINUOUS
 62
    7
 10
83.464675814787014
 20
210.60586567422081
 11
81.078310162702678
 21
215.56119270821739
  0
LINE
  8
_0-1_作画層１
  6
CONTINUOUS
 62
    7
 10
72.617580325285076
 20
210.60586567422081
 11
75.003937394300578
 21
215.56119270821739
  0
LINE
  8
_0-1_作画層１
  6
CONTINUOUS
 62
    7
 10
65.854523093381999
 20
219.08647270699669
 11
71.21662321774113
 21
220.31033750077415
  0
LINE
  8
_0-1_作画層１
  6
CONTINUOUS
 62
    7
 10
43.541146666685222
 20
256.36798019906212
 11
112.54110089031802
 21
256.36801453133751
  0
LINE
  8
_0-1_作画層１
  6
CONTINUOUS
 62
    7
 10
43.541123778501628
 20
187.36801834603477
 11
112.54108181683169
 21
187.36798401375938
  0
LINE
  8
_0-1_作画層１
  6
CONTINUOUS
 62
    7
 10
112.54110089031802
 20
256.36801453133751
 11
112.54108181683169
 21
187.36798401375938
  0
LINE
  8
_0-1_作画層１
  6
CONTINUOUS
 62
    7
 10
73.114379317442058
 20
226.77788849373985
 11
73.131211669126628
 21
226.79472084542442
  0
LINE
  8
_0-1_作画層１
  6
CONTINUOUS
 62
    7
 10
90.550423056760891
 20
231.84382553597618
 11
90.508105666318997
 21
231.81007309456993
  0
LINE
  8
_0-1_作画層１
  6
CONTINUOUS
 62
    7
 10
78.041123778501628
 20
237.64437122842003
 11
78.263202429691432
 21
237.86644096871544
  0
LINE
  8
_0-1_作画層１
  6
CONTINUOUS
 62
    7
 10
93.351401717344388
 20
239.37822647591759
 11
93.723303229490384
 21
239.7501289417379
  0
LINE
  8
_0-1_作画層１
  6
CONTINUOUS
 62
    7
 10
78.041106280971348
 20
187.73919983407188
 11
78.041106280971348
 21
184.29572220345665
  0
LINE
  8
_0-1_作画層１
  6
CONTINUOUS
 62
    7
 10
112.04110089031802
 20
257.86800690194298
 11
44.041142851987956
 21
257.86797256966759
  0
LINE
  8
_0-1_作画層１
  6
CONTINUOUS
 62
    7
 10
114.04108563152896
 20
187.86798401375938
 11
114.04110089031802
 21
255.86800308724571
  0
LINE
  8
_0-1_作画層１
  6
CONTINUOUS
 62
    7
 10
44.041119963804363
 20
185.86801453133751
 11
112.04108181683169
 21
185.86798019906212
  0
CIRCLE
  8
_0-1_作画層１
  6
CONTINUOUS
 62
    7
 10
78.041123778501628
 20
221.86797638436485
 40
7
  0
CIRCLE
  8
_0-1_作画層１
  6
CONTINUOUS
 62
    7
 10
78.041123778501628
 20
221.86797638436485
 40
31.500001907348633
  0
ARC
  8
_0-1_作画層１
  6
CONTINUOUS
 62
    7
 10
78.041123776828158
 20
221.86798513312226
 40
15.999999999999998
 50
90.264892572132311
 51
90.264587396351089
  0
ARC
  8
_0-1_作画層１
  6
CONTINUOUS
 62
    7
 10
78.0411237785016
 20
221.86797638436482
 40
12.500000953674347
 50
38.264358520507848
 51
90.161148071288977
  0
ARC
  8
_0-1_作画層１
  6
CONTINUOUS
 62
    7
 10
78.041123778501628
 20
221.86797638436485
 40
12.500000953674308
 50
90.161453247070369
 51
38.264358520507813
  0
ARC
  8
_0-1_作画層１
  6
CONTINUOUS
 62
    7
 10
78.041123778501458
 20
221.86798513312979
 40
23.499998092651627
 50
37.50003051757826
 51
63.749999999999837
  0
ARC
  8
_0-1_作画層１
  6
CONTINUOUS
 62
    7
 10
44.041142851987928
 20
255.86796875497035
 40
1.9999999999999716
 50
89.999999999999588
 51
180.0000000000008
  0
ARC
  8
_0-1_作画層１
  6
CONTINUOUS
 62
    7
 10
112.04110089031803
 20
255.86800308724574
 40
1.9999999999999858
 50
359.9999999999992
 51
90.000000000000384
  0
ARC
  8
_0-1_作画層１
  6
CONTINUOUS
 62
    7
 10
112.04108181683171
 20
187.86798401375935
 40
1.9999999999999716
 50
269.9999999999996
 51
0.0000000000007887
  0
ARC
  8
_0-1_作画層１
  6
CONTINUOUS
 62
    7
 10
44.041119963804334
 20
187.86801834603475
 40
1.9999999999999858
 50
179.99999999999918
 51
270.0000000000004
  0
LINE
  8
_0-1_作画層１
  6
CONTINUOUS
 62
    7
 10
140.54112377850163
 20
185.86798019906212
 11
140.54114127603191
 21
257.86800690194298
  0
LINE
  8
_0-1_作画層１
  6
CONTINUOUS
 62
    7
 10
160.54114857403385
 20
257.86800690194298
 11
140.54114127603191
 21
257.86800690194298
  0
LINE
  8
_0-1_作画層１
  6
CENTER
 62
    7
 10
36.541093260919638
 20
221.86797638436485
 11
119.04109326091964
 21
221.86797638436485
  0
LINE
  8
_0-1_作画層１
  6
CONTINUOUS
 62
    7
 10
160.54113140789616
 20
185.86798019906212
 11
140.54112377850163
 21
185.86798019906212
  0
LINE
  8
_0-1_作画層１
  6
CONTINUOUS
 62
    7
 10
43.541123778501628
 20
187.36801834603477
 11
43.541146666685222
 21
256.36798019906212
  0
LINE
  8
_0-1_作画層１
  6
CONTINUOUS
 62
    7
 10
42.041123778501628
 20
187.86801834603477
 11
42.041146666685222
 21
255.86796875497032
  0
LINE
  8
_0-1_作画層１
  6
CONTINUOUS
 62
    7
 10
72.38349858013737
 20
250.31075401803184
 11
73.456508547941326
 21
244.91640587350059
  0
LINE
  8
_0-1_作画層１
  6
CONTINUOUS
 62
    7
 10
74.255883128324626
 20
250.61986656685997
 11
74.973745495954631
 21
245.16690941353966
  0
LINE
  8
_0-1_作画層１
  6
CONTINUOUS
 62
    7
 10
73.86022034374821
 20
244.37084122201134
 11
73.529814154783367
 21
244.70124741097618
  0
LINE
  8
_0-1_作画層１
  6
CONTINUOUS
 62
    7
 10
74.228630692640422
 20
244.28526039620567
 11
73.421504408994792
 21
245.09238739510704
  0
LINE
  8
_0-1_作画層１
  6
CONTINUOUS
 62
    7
 10
74.468110711256145
 20
244.32862778206993
 11
73.351269633451579
 21
245.44547005196739
  0
LINE
  8
_0-1_作画層１
  6
CONTINUOUS
 62
    7
 10
74.654888064542888
 20
244.42469902535606
 11
73.281042964140056
 21
245.79854317208458
  0
LINE
  8
_0-1_作画層１
  6
CONTINUOUS
 62
    7
 10
74.802365929762004
 20
244.56005020638634
 11
73.210808188596843
 21
246.15160866280723
  0
LINE
  8
_0-1_作画層１
  6
CONTINUOUS
 62
    7
 10
74.911961705366252
 20
244.73330231209923
 11
73.140572936216472
 21
246.50469131966759
  0
LINE
  8
_0-1_作画層１
  6
CONTINUOUS
 62
    7
 10
74.975364119688152
 20
244.9527484943502
 11
73.070346743742107
 21
246.85775681039024
  0
LINE
  8
_0-1_作画層１
  6
CONTINUOUS
 62
    7
 10
74.963089377561687
 20
245.24785347481895
 11
73.000120074430583
 21
247.2108223011129
  0
LINE
  8
_0-1_作画層１
  6
CONTINUOUS
 62
    7
 10
74.920203120390056
 20
245.57358665963341
 11
72.92988529888737
 21
247.56390495797325
  0
LINE
  8
_0-1_作画層１
  6
CONTINUOUS
 62
    7
 10
74.877325446287273
 20
245.89931221505333
 11
72.859650046506999
 21
247.9169876148336
  0
LINE
  8
_0-1_作画層１
  6
CONTINUOUS
 62
    7
 10
74.834447533765911
 20
246.22502060433555
 11
72.789423854032634
 21
248.27003403206993
  0
LINE
  8
_0-1_作画層１
  6
CONTINUOUS
 62
    7
 10
74.791569859663127
 20
246.55074425240684
 11
72.719188601652263
 21
248.62311668893028
  0
LINE
  8
_0-1_作画層１
  6
CONTINUOUS
 62
    7
 10
74.748683602491496
 20
246.87646217843223
 11
72.648962409177898
 21
248.97618217965294
  0
LINE
  8
_0-1_作画層１
  6
CONTINUOUS
 62
    7
 10
74.705805689970134
 20
247.20217819710899
 11
72.578736216703533
 21
249.32926483651329
  0
LINE
  8
_0-1_作画層１
  6
CONTINUOUS
 62
    7
 10
74.662928015867351
 20
247.52791138192345
 11
72.508500964323161
 21
249.68234749337364
  0
LINE
  8
_0-1_作画層１
  6
CONTINUOUS
 62
    7
 10
74.620050341764568
 20
247.85362930794884
 11
72.438274771848796
 21
250.0353958179586
  0
LINE
  8
_0-1_作画層１
  6
CONTINUOUS
 62
    7
 10
74.577163846174358
 20
248.17934532662559
 11
72.37318363873112
 21
250.38333435555626
  0
LINE
  8
_0-1_作画層１
  6
CONTINUOUS
 62
    7
 10
74.534286172071575
 20
248.50507851144005
 11
72.384338290372966
 21
250.6550190021627
  0
LINE
  8
_0-1_作画層１
  6
CONTINUOUS
 62
    7
 10
74.491408497968791
 20
248.83079643746544
 11
72.451878935972331
 21
250.87032623788048
  0
LINE
  8
_0-1_作画層１
  6
CONTINUOUS
 62
    7
 10
74.448530823866008
 20
249.1565124561422
 11
72.556706816831706
 21
251.04832764168907
  0
LINE
  8
_0-1_作画層１
  6
CONTINUOUS
 62
    7
 10
74.405644328275798
 20
249.48224564095665
 11
72.692688853422283
 21
251.19520111581016
  0
LINE
  8
_0-1_作画層１
  6
CONTINUOUS
 62
    7
 10
74.362766654173015
 20
249.80796356698204
 11
72.859020144621013
 21
251.31170006295372
  0
LINE
  8
_0-1_作画層１
  6
CONTINUOUS
 62
    7
 10
74.319888980070232
 20
250.1336795856588
 11
73.059568316618083
 21
251.39399071236778
  0
LINE
  8
_0-1_作画層１
  6
CONTINUOUS
 62
    7
 10
74.277011305967449
 20
250.45939560433555
 11
73.306834609190105
 21
251.42956467171837
  0
LINE
  8
_0-1_作画層１
  6
CONTINUOUS
 62
    7
 10
74.205927521864055
 20
250.81331749459434
 11
73.64985600201237
 21
251.36938972970177
  0
ARC
  8
_0-1_作画層１
  6
CONTINUOUS
 62
    7
 10
73.31716671673405
 20
250.48063774605922
 40
0.9489850401878342
 50
8.4374999999978932
 51
192.13920593261827
  0
ARC
  8
_0-1_作画層１
  6
CONTINUOUS
 62
    7
 10
74.21307531086552
 20
245.05410309334923
 40
0.7689954042434671
 50
190.31504821777369
 51
8.4637298583979135
  0
LINE
  8
_0-1_作画層１
  6
CONTINUOUS
 62
    7
 10
65.214760214964031
 20
247.87726707955528
 11
67.647354514280437
 21
242.94446869393516
  0
LINE
  8
_0-1_作画層１
  6
CONTINUOUS
 62
    7
 10
66.943323523679851
 20
248.66047401925255
 11
69.04807606426823
 21
243.57914848824669
  0
ARC
  8
_0-1_作画層１
  6
CONTINUOUS
 62
    7
 10
66.072620780149578
 20
248.28303642769981
 40
0.9489914178848332
 50
23.437316894531826
 51
207.21160888671875
  0
ARC
  8
_0-1_作画層１
  6
CONTINUOUS
 62
    7
 10
68.342514426389812
 20
243.2732917835348
 40
0.7690062522888108
 50
205.31291198730753
 51
23.451339721677265
  0
LINE
  8
_0-1_作画層１
  6
CONTINUOUS
 62
    7
 10
58.920102507749675
 20
243.67132492562462
 11
62.546527297178386
 21
239.53622932931114
  0
LINE
  8
_0-1_作画層１
  6
CONTINUOUS
 62
    7
 10
60.38707867352116
 20
244.87522430916954
 11
63.735248000303386
 21
240.51178665658165
  0
LINE
  8
_0-1_作画層１
  6
CONTINUOUS
 62
    7
 10
62.730845839658855
 20
239.37822647591759
 11
62.358944327512859
 21
239.7501289417379
  0
LINE
  8
_0-1_作画層１
  6
CONTINUOUS
 62
    7
 10
63.127138526121257
 20
239.26477356454063
 11
60.342467696348308
 21
242.04944344063927
  0
LINE
  8
_0-1_作画層１
  6
CONTINUOUS
 62
    7
 10
63.371920973936199
 20
239.30283852120567
 11
58.777829558530925
 21
243.89692993661095
  0
LINE
  8
_0-1_作画層１
  6
CONTINUOUS
 62
    7
 10
63.561995894590495
 20
239.39560242196251
 11
58.694997222105144
 21
244.26260109444786
  0
LINE
  8
_0-1_作画層１
  6
CONTINUOUS
 62
    7
 10
63.712299735227703
 20
239.52813835641075
 11
58.723447234312175
 21
244.51698990365196
  0
LINE
  8
_0-1_作画層１
  6
CONTINUOUS
 62
    7
 10
63.824905783811687
 20
239.69837875863243
 11
58.801215560117839
 21
244.72207756539513
  0
LINE
  8
_0-1_作画層１
  6
CONTINUOUS
 62
    7
 10
63.892454535642742
 20
239.91367836495567
 11
58.914058119932292
 21
244.89207573434044
  0
LINE
  8
_0-1_作画層１
  6
CONTINUOUS
 62
    7
 10
63.882157714048503
 20
240.2068054248922
 11
59.057431609312175
 21
245.03153152962852
  0
LINE
  8
_0-1_作画層１
  6
CONTINUOUS
 62
    7
 10
63.32375851360905
 20
241.04806061288048
 11
59.231654555479167
 21
245.14016457101036
  0
LINE
  8
_0-1_作画層１
  6
CONTINUOUS
 62
    7
 10
62.39100876537907
 20
242.26364822884727
 11
59.442037017027019
 21
245.21261330147911
  0
LINE
  8
_0-1_作画層１
  6
CONTINUOUS
 62
    7
 10
61.458207518736003
 20
243.47929878731895
 11
59.705207259336589
 21
245.23229713936973
  0
LINE
  8
_0-1_作画層１
  6
CONTINUOUS
 62
    7
 10
60.525456816831706
 20
244.69487877389122
 11
60.106574446836589
 21
245.11376114388634
  0
ARC
  8
_0-1_作画層１
  6
CONTINUOUS
 62
    7
 10
59.643721968809245
 20
244.28529663582967
 40
0.9489969611167724
 50
38.435592651368687
 51
220.29386901855273
  0
ARC
  8
_0-1_作画層１
  6
CONTINUOUS
 62
    7
 10
63.132895857969373
 20
240.03373642464805
 40
0.7689873576164184
 50
220.31311035156224
 51
38.436859130858323
  0
LINE
  8
_0-1_作画層１
  6
CONTINUOUS
 62
    7
 10
53.928512007871745
 20
237.97950096627403
 11
58.50161495892155
 21
234.9238988926046
  0
LINE
  8
_0-1_作画層１
  6
CONTINUOUS
 62
    7
 10
59.397338301817058
 20
236.17387886544395
 11
55.033893019834636
 21
239.52206535836388
  0
ARC
  8
_0-1_作画層１
  6
CONTINUOUS
 62
    7
 10
54.468573958555339
 20
238.75983925362752
 40
0.9489868879318093
 50
51.563339233399383
 51
237.15467834472528
  0
ARC
  8
_0-1_作画層１
  6
CONTINUOUS
 62
    7
 10
58.939244658628553
 20
235.55623264809773
 40
0.7690042853355596
 50
235.31338500976491
 51
53.5261688232425
  0
ARC
  8
_0-1_作画層１
  6
CONTINUOUS
 62
    7
 10
78.041123778501827
 20
221.86798513313113
 40
23.49999809265023
 50
63.75000481196053
 51
85.249588012695625
  0
ARC
  8
_0-1_作画層１
  6
CONTINUOUS
 62
    7
 10
78.041123778501799
 20
221.86798513312991
 40
28.999999999999993
 50
67.50001525878946
 51
63.74999061005559
  0
ARC
  8
_0-1_作画層１
  6
CONTINUOUS
 62
    7
 10
78.041123778501628
 20
221.86798513312999
 40
23.499998092651378
 50
85.249893188476591
 51
37.50002703741535
  0
LINE
  8
_0-1_作画層１
  6
CONTINUOUS
 62
    7
 10
90.86750005739998
 20
247.8772925355218
 11
89.138936181812767
 21
248.66049453148446
  0
LINE
  8
_0-1_作画層１
  6
CONTINUOUS
 62
    7
 10
56.32994748441314
 20
230.86103185565284
 11
51.248620705892108
 21
232.96579027886079
  0
LINE
  8
_0-1_作画層１
  6
CONTINUOUS
 62
    7
 10
50.580162831788186
 20
231.18973250071963
 11
55.788240371757468
 21
229.42182035906851
  0
LINE
  8
_0-1_作画層１
  6
CONTINUOUS
 62
    7
 10
50.580159341097925
 20
231.1897194732862
 11
55.788283131813557
 21
229.42183403451594
  0
LINE
  8
_0-1_作画層１
  6
CONTINUOUS
 62
    7
 10
51.248648275629876
 20
232.96581500592228
 11
56.329966795089064
 21
230.86105181434274
  0
LINE
  8
_0-1_作画層１
  6
CONTINUOUS
 62
    7
 10
56.026909098686957
 20
229.37715882084692
 11
55.518881708552527
 21
229.51328504790439
  0
LINE
  8
_0-1_作画層１
  6
CONTINUOUS
 62
    7
 10
56.42683508818584
 20
229.47705206069239
 11
52.622904470375659
 21
230.49631149966058
  0
LINE
  8
_0-1_作画層１
  6
CONTINUOUS
 62
    7
 10
56.619790428061606
 20
229.63240850406572
 11
50.344144847309991
 21
231.31396266941206
  0
LINE
  8
_0-1_作画層１
  6
CONTINUOUS
 62
    7
 10
56.738018187592132
 20
229.80778185900243
 11
50.089574360792
 21
231.58922701331721
  0
LINE
  8
_0-1_作画層１
  6
CONTINUOUS
 62
    7
 10
56.801917164646198
 20
229.99771326546752
 11
49.987018389499212
 21
231.82375919062994
  0
LINE
  8
_0-1_作画層１
  6
CONTINUOUS
 62
    7
 10
56.814316662228862
 20
230.20144880283397
 11
49.951823904385122
 21
232.04025447860511
  0
LINE
  8
_0-1_作画層１
  6
CONTINUOUS
 62
    7
 10
56.765165794146867
 20
230.42167810725022
 11
49.964549343339854
 21
232.24389849141582
  0
LINE
  8
_0-1_作画層１
  6
CONTINUOUS
 62
    7
 10
56.609684955099766
 20
230.67038517689477
 11
50.018986529728011
 21
232.4363574975302
  0
LINE
  8
_0-1_作画層１
  6
CONTINUOUS
 62
    7
 10
55.705469468072124
 20
231.11973394053834
 11
50.11555150633987
 21
232.61754794414074
  0
LINE
  8
_0-1_作画層１
  6
CONTINUOUS
 62
    7
 10
54.289890682748023
 20
231.70608882237636
 11
50.261523697316647
 21
232.78548161597254
  0
LINE
  8
_0-1_作画層１
  6
CONTINUOUS
 62
    7
 10
52.874235827237499
 20
232.29247246481606
 11
50.479593893731504
 21
232.93411344078459
  0
LINE
  8
_0-1_作画層１
  6
CONTINUOUS
 62
    7
 10
51.458660030704493
 20
232.87882026256742
 11
50.886456072093722
 21
233.03214185118307
  0
ARC
  8
_0-1_作画層１
  6
CONTINUOUS
 62
    7
 10
50.899846321945802
 20
232.08324430205857
 40
0.9489969611167863
 50
68.435592651367685
 51
250.29386901855375
  0
ARC
  8
_0-1_作画層１
  6
CONTINUOUS
 62
    7
 10
56.047339653770649
 20
230.14587209803622
 40
0.7689873576163952
 50
250.31311035156241
 51
68.436859130857627
  0
LINE
  8
_0-1_作画層１
  6
CONTINUOUS
 62
    7
 10
59.397311906559338
 20
236.17386683782061
 11
55.0338787046378
 21
239.52205150156732
  0
LINE
  8
_0-1_作画層１
  6
CONTINUOUS
 62
    7
 10
53.928520402069154
 20
237.97952105334605
 11
58.501567670914199
 21
234.92389940140043
  0
LINE
  8
_0-1_作画層１
  6
CONTINUOUS
 62
    7
 10
53.928513658573394
 20
237.97950937326874
 11
58.50161251342297
 21
234.92390154375141
  0
LINE
  8
_0-1_作画層１
  6
CONTINUOUS
 62
    7
 10
55.033911734793975
 20
239.52206825050141
 11
59.397335724928979
 21
236.17388111846392
  0
LINE
  8
_0-1_作画層１
  6
CONTINUOUS
 62
    7
 10
58.720544701507606
 20
234.8189876561907
 11
58.265059985014943
 21
235.08196265854133
  0
LINE
  8
_0-1_作画層１
  6
CONTINUOUS
 62
    7
 10
59.132697816317801
 20
234.81196865371533
 11
55.722186745868697
 21
236.78102735964148
  0
LINE
  8
_0-1_作画層１
  6
CONTINUOUS
 62
    7
 10
59.359287568748584
 20
234.91209093783598
 11
53.732697669026862
 21
238.16060413105996
  0
LINE
  8
_0-1_作画層１
  6
CONTINUOUS
 62
    7
 10
59.518876779324557
 20
235.05088899478602
 11
53.558045116128454
 21
238.49237676012632
  0
LINE
  8
_0-1_作画層１
  6
CONTINUOUS
 62
    7
 10
59.629756316790804
 20
235.21781037328986
 11
53.519685048994489
 21
238.74546088584808
  0
LINE
  8
_0-1_作画層１
  6
CONTINUOUS
 62
    7
 10
59.694463948973549
 20
235.41139456444091
 11
53.541722890582776
 21
238.96368827880326
  0
LINE
  8
_0-1_作画層１
  6
CONTINUOUS
 62
    7
 10
59.703987394381215
 20
235.63684091802517
 11
53.606721669656508
 21
239.15709970418749
  0
LINE
  8
_0-1_作画層１
  6
CONTINUOUS
 62
    7
 10
59.6181745627282
 20
235.91731490206945
 11
53.70911601008325
 21
239.32891144809628
  0
LINE
  8
_0-1_作画層１
  6
CONTINUOUS
 62
    7
 10
58.861069489201896
 20
236.58538066680325
 11
53.849286153281071
 21
239.4789351249172
  0
LINE
  8
_0-1_作画層１
  6
CONTINUOUS
 62
    7
 10
57.645485191918937
 20
237.51813474002623
 11
54.033748895049598
 21
239.60336621256295
  0
LINE
  8
_0-1_作画層１
  6
CONTINUOUS
 62
    7
 10
56.429834860269779
 20
238.45093628227016
 11
54.282857276680375
 21
239.69049281075596
  0
LINE
  8
_0-1_作画層１
  6
CONTINUOUS
 62
    7
 10
55.214251616440777
 20
239.38368273923484
 11
54.701227582072931
 21
239.67987730357788
  0
ARC
  8
_0-1_作画層１
  6
CONTINUOUS
 62
    7
 10
54.468568812660976
 20
238.75984700269572
 40
0.9489969611167955
 50
53.435592651369369
 51
235.29386901855298
  0
ARC
  8
_0-1_作画層１
  6
CONTINUOUS
 62
    7
 10
58.939236738668114
 20
235.55621984688148
 40
0.7689873576164079
 50
235.31311035156273
 51
53.436859130857414
  0
LINE
  8
_0-1_作画層１
  6
CONTINUOUS
 62
    7
 10
69.048054300749556
 20
243.57914687678593
 11
66.943302632042389
 21
248.66047645311278
  0
LINE
  8
_0-1_作画層１
  6
CONTINUOUS
 62
    7
 10
65.214769037623228
 20
247.87728505012649
 11
67.647333319177335
 21
242.94451544076531
  0
LINE
  8
_0-1_作画層１
  6
CONTINUOUS
 62
    7
 10
65.214757357545977
 20
247.87727830663073
 11
67.647373225104559
 21
242.94449487484133
  0
LINE
  8
_0-1_作画層１
  6
CONTINUOUS
 62
    7
 10
66.943339611463784
 20
248.66047444303715
 11
69.048082068384417
 21
243.57914733500101
  0
LINE
  8
_0-1_作画層１
  6
CONTINUOUS
 62
    7
 10
67.784517117911605
 20
242.74417068896162
 11
67.521543283568718
 21
243.19965607980384
  0
LINE
  8
_0-1_作画層１
  6
CONTINUOUS
 62
    7
 10
68.137942684348445
 20
242.5320154971036
 11
66.168882810414544
 21
245.94252589320314
  0
LINE
  8
_0-1_作画層１
  6
CONTINUOUS
 62
    7
 10
68.384236308251047
 20
242.50542906242165
 11
65.135723115027076
 21
248.13201896214335
  0
LINE
  8
_0-1_作画層１
  6
CONTINUOUS
 62
    7
 10
68.591843647254763
 20
242.5458371004483
 11
65.150355881914436
 21
248.50666876364443
  0
LINE
  8
_0-1_作画層１
  6
CONTINUOUS
 62
    7
 10
68.771328832712356
 20
242.63495548593426
 11
65.243677152146432
 21
248.74502607938101
  0
LINE
  8
_0-1_作画層１
  6
CONTINUOUS
 62
    7
 10
68.924159381576857
 20
242.77025049715076
 11
65.371876179284072
 21
248.9229976246877
  0
LINE
  8
_0-1_作画層１
  6
CONTINUOUS
 62
    7
 10
69.045130104023599
 20
242.96073104384143
 11
65.524872485869025
 21
249.05799744291573
  0
LINE
  8
_0-1_作画層１
  6
CONTINUOUS
 62
    7
 10
69.111051003863508
 20
243.24653505495093
 11
65.69945445783668
 21
249.15559360759585
  0
LINE
  8
_0-1_作画層１
  6
CONTINUOUS
 62
    7
 10
68.789411659222537
 20
244.20364951537221
 11
65.895857201108583
 21
249.21543285129303
  0
LINE
  8
_0-1_作画層１
  6
CONTINUOUS
 62
    7
 10
68.203061813945567
 20
245.61923038690819
 11
66.117822165354738
 21
249.23096196333051
  0
LINE
  8
_0-1_作画層１
  6
CONTINUOUS
 62
    7
 10
67.616678515740375
 20
247.03488538500534
 11
66.377119651239127
 21
249.18186161989561
  0
LINE
  8
_0-1_作画層１
  6
CONTINUOUS
 62
    7
 10
67.030325774652113
 20
248.45045913394117
 11
66.734131210309073
 21
248.96348316830904
  0
ARC
  8
_0-1_作画層１
  6
CONTINUOUS
 62
    7
 10
66.072627655144032
 20
248.28304294019964
 40
0.9489969611167882
 50
23.435592651368026
 51
205.29386901855381
  0
ARC
  8
_0-1_作画層１
  6
CONTINUOUS
 62
    7
 10
68.342526073043388
 20
243.2732864760072
 40
0.7689873576164254
 50
205.31311035156011
 51
23.436859130860707
  0
LINE
  8
_0-1_作画層１
  6
CONTINUOUS
 62
    7
 10
49.103228529040592
 20
223.76468304372742
 11
54.59141315589892
 21
223.40493936457381
  0
LINE
  8
_0-1_作画層１
  6
CONTINUOUS
 62
    7
 10
49.289234076021643
 20
225.65322790232929
 11
54.742174424430175
 21
224.93534856729477
  0
LINE
  8
_0-1_作画層１
  6
CONTINUOUS
 62
    7
 10
54.742163847293824
 20
224.93533500484369
 11
49.289227514839951
 21
225.65323137924901
  0
LINE
  8
_0-1_作画層１
  6
CONTINUOUS
 62
    7
 10
49.103224368642088
 20
223.76468167369404
 11
54.591410302141753
 21
223.40495933317797
  0
LINE
  8
_0-1_作画層１
  6
CONTINUOUS
 62
    7
 10
49.103224368642088
 20
223.76466818670255
 11
54.591448065718026
 21
223.4049836097627
  0
LINE
  8
_0-1_作画層１
  6
CONTINUOUS
 62
    7
 10
49.289247745327231
 20
225.65326239932952
 11
54.742177334285344
 21
224.93535928142842
  0
LINE
  8
_0-1_作画層１
  6
CONTINUOUS
 62
    7
 10
54.833505846085785
 20
223.42359161196765
 11
54.307557009392298
 21
223.42359228631722
  0
LINE
  8
_0-1_作画層１
  6
CONTINUOUS
 62
    7
 10
55.193950414997971
 20
223.62358953491983
 11
51.255831835137911
 21
223.62358886057027
  0
LINE
  8
_0-1_作画層１
  6
CONTINUOUS
 62
    7
 10
55.340121754779943
 20
223.82359285266864
 11
48.843095368332001
 21
223.82359285266864
  0
LINE
  8
_0-1_作画層１
  6
CONTINUOUS
 62
    7
 10
55.408931036833621
 20
224.02359010127128
 11
48.525955506152997
 21
224.02359010127125
  0
LINE
  8
_0-1_作画層１
  6
CONTINUOUS
 62
    7
 10
55.421494843787343
 20
224.22358802422349
 11
48.366192650663237
 21
224.2235873498739
  0
LINE
  8
_0-1_作画層１
  6
CONTINUOUS
 62
    7
 10
55.380741201500797
 20
224.4235906676227
 11
48.276164284845663
 21
224.42359673676887
  0
LINE
  8
_0-1_作画層１
  6
CONTINUOUS
 62
    7
 10
55.276265570363279
 20
224.62359465972111
 11
48.235749166046389
 21
224.62359533407067
  0
LINE
  8
_0-1_作画層１
  6
CONTINUOUS
 62
    7
 10
55.061712486158939
 20
224.82358583917753
 11
48.23851939410531
 21
224.8235858391775
  0
LINE
  8
_0-1_作画層１
  6
CONTINUOUS
 62
    7
 10
54.072007376784171
 20
225.02359522607253
 11
48.284898460556263
 21
225.02359522607253
  0
LINE
  8
_0-1_作画層１
  6
CONTINUOUS
 62
    7
 10
52.552903458284192
 20
225.22359180032555
 11
48.382432337156672
 21
225.22358707987854
  0
LINE
  8
_0-1_作画層１
  6
CONTINUOUS
 62
    7
 10
51.033718617835063
 20
225.42359646677355
 11
48.554603224848023
 21
225.42359511807439
  0
LINE
  8
_0-1_作画層１
  6
CONTINUOUS
 62
    7
 10
49.51461941978215
 20
225.62358697188037
 11
48.922230291096071
 21
225.62358697188037
  0
ARC
  8
_0-1_作画層１
  6
CONTINUOUS
 62
    7
 10
49.180757036813162
 20
224.71048797435904
 40
0.948996961116789
 50
83.435592651367557
 51
265.29386901855418
  0
ARC
  8
_0-1_作画層１
  6
CONTINUOUS
 62
    7
 10
54.654282610526792
 20
224.17139943617374
 40
0.7689873576164174
 50
265.31311035156148
 51
83.43685913085865
  0
LINE
  8
_0-1_作画層１
  6
CONTINUOUS
 62
    7
 10
63.66563565075586
 20
228.89261298048169
 11
66.810276077226916
 21
227.35596732793252
  0
LINE
  8
_0-1_作画層１
  6
CONTINUOUS
 62
    7
 10
65.838786457166748
 20
219.15634586851266
 11
62.422117782055011
 21
218.39708616293225
  0
LINE
  8
_0-1_作画層１
  6
CONTINUOUS
 62
    7
 10
65.589180902928206
 20
231.9153269481811
 11
65.631309530360852
 21
231.88133919177773
  0
LINE
  8
_0-1_作画層１
  6
CONTINUOUS
 62
    7
 10
65.631309530360852
 20
231.88133919177773
 11
68.313048792331102
 21
229.71746730881051
  0
LINE
  8
_0-1_作画層１
  6
CONTINUOUS
 62
    7
 10
66.611220862416047
 20
231.09065488201864
 11
65.49684815143155
 21
231.79980035333216
  0
LINE
  8
_0-1_作画層１
  6
CONTINUOUS
 62
    7
 10
68.001416743776048
 20
229.96891813818266
 11
65.373103932700104
 21
231.64148083614009
  0
LINE
  8
_0-1_作画層１
  6
CONTINUOUS
 62
    7
 10
68.215819684623341
 20
229.59542085905534
 11
65.251498139487865
 21
231.48180769652532
  0
LINE
  8
_0-1_作画層１
  6
CONTINUOUS
 62
    7
 10
68.092929729286169
 20
229.43656531317654
 11
65.132031495878351
 21
231.3207732798906
  0
LINE
  8
_0-1_作画層１
  6
CONTINUOUS
 62
    7
 10
67.97276537948369
 20
229.27596689826214
 11
65.014675141971225
 21
231.15838875781029
  0
LINE
  8
_0-1_作画層１
  6
CONTINUOUS
 62
    7
 10
67.855325962852646
 20
229.11363523427889
 11
64.899438594292803
 21
230.99465526812995
  0
LINE
  8
_0-1_作画層１
  6
CONTINUOUS
 62
    7
 10
67.740598445889646
 20
228.94958500977822
 11
64.786318853068451
 21
230.82958191361377
  0
LINE
  8
_0-1_作画層１
  6
CONTINUOUS
 62
    7
 10
67.628574449913941
 20
228.78381436283109
 11
64.67531778022726
 21
230.66316031558105
  0
LINE
  8
_0-1_作画層１
  6
CONTINUOUS
 62
    7
 10
67.519245596244787
 20
228.61632143150848
 11
64.566416756478645
 21
230.49539512885445
  0
LINE
  8
_0-1_作画層１
  6
CONTINUOUS
 62
    7
 10
67.412628642243646
 20
228.44710993966842
 11
64.459622298574317
 21
230.3262965940437
  0
LINE
  8
_0-1_作画層１
  6
CONTINUOUS
 62
    7
 10
67.308704968620049
 20
228.27618454213362
 11
64.354946715934148
 21
230.15584888475192
  0
LINE
  8
_0-1_作画層１
  6
CONTINUOUS
 62
    7
 10
67.207476437302972
 20
228.10353686022327
 11
64.252382147079885
 21
229.98405220786006
  0
LINE
  8
_0-1_作画層１
  6
CONTINUOUS
 62
    7
 10
67.108961667583003
 20
227.92916223911479
 11
64.151925281915453
 21
229.81091266635778
  0
LINE
  8
_0-1_作画層１
  6
CONTINUOUS
 62
    7
 10
67.013169038140859
 20
227.75306254073723
 11
64.053586154169636
 21
229.63643346690077
  0
LINE
  8
_0-1_作画層１
  6
CONTINUOUS
 62
    7
 10
66.920101548751148
 20
227.57522866232631
 11
63.957365694806924
 21
229.46060602392717
  0
LINE
  8
_0-1_作画層１
  6
CONTINUOUS
 62
    7
 10
66.829759923497392
 20
227.39565294928477
 11
63.863277144211793
 21
229.28341471792106
  0
LINE
  8
_0-1_作画層１
  6
CONTINUOUS
 62
    7
 10
66.742163919515662
 20
227.21433002270649
 11
63.771307261999766
 21
229.10487516839842
  0
LINE
  8
_0-1_作画層１
  6
CONTINUOUS
 62
    7
 10
66.657339500372245
 20
227.03125734829916
 11
63.681494424597531
 21
228.92497734163047
  0
LINE
  8
_0-1_作画層１
  6
CONTINUOUS
 62
    7
 10
66.575297216998422
 20
226.84640063553599
 11
63.593824460656123
 21
228.74370148048109
  0
LINE
  8
_0-1_作画層１
  6
CONTINUOUS
 62
    7
 10
66.496050826981076
 20
226.65976391859661
 11
63.508305231653821
 21
228.56105617051202
  0
LINE
  8
_0-1_作画層１
  6
CONTINUOUS
 62
    7
 10
66.419632293435683
 20
226.47133525010292
 11
63.424955874083651
 21
228.37703882571071
  0
LINE
  8
_0-1_作画層１
  6
CONTINUOUS
 62
    7
 10
66.346062925105855
 20
226.28109347647205
 11
63.343787042317445
 21
228.19163227495366
  0
LINE
  8
_0-1_作画層１
  6
CONTINUOUS
 62
    7
 10
66.275376547036103
 20
226.08900947920242
 11
63.264813424906606
 21
228.00482317441598
  0
LINE
  8
_0-1_作画層１
  6
CONTINUOUS
 62
    7
 10
66.207592606040976
 20
225.8950792758346
 11
63.188040814519326
 21
227.81661183441915
  0
LINE
  8
_0-1_作画層１
  6
CONTINUOUS
 62
    7
 10
66.142759719156913
 20
225.6992775234454
 11
63.113500863949525
 21
227.6269877040319
  0
LINE
  8
_0-1_作画層１
  6
CONTINUOUS
 62
    7
 10
66.08090219490208
 20
225.50158275813044
 11
63.041195435126298
 21
227.4359424045735
  0
LINE
  8
_0-1_作画層１
  6
CONTINUOUS
 62
    7
 10
66.022064098930855
 20
225.30195934463643
 11
62.971134975540394
 21
227.24345969588489
  0
LINE
  8
_0-1_作画層１
  6
CONTINUOUS
 62
    7
 10
65.966291772588534
 20
225.10039218064986
 11
62.903361378595577
 21
227.04952251028311
  0
LINE
  8
_0-1_作画層１
  6
CONTINUOUS
 62
    7
 10
65.913630419374954
 20
224.89684490683399
 11
62.837890470688791
 21
226.85413436474533
  0
LINE
  8
_0-1_作画層１
  6
CONTINUOUS
 62
    7
 10
65.864134035232695
 20
224.6912767676306
 11
62.774719458926455
 21
226.65726826130015
  0
LINE
  8
_0-1_作画層１
  6
CONTINUOUS
 62
    7
 10
65.817863339737073
 20
224.48365631712676
 11
62.713907407835819
 21
226.45890020175094
  0
LINE
  8
_0-1_作画層１
  6
CONTINUOUS
 62
    7
 10
65.774857640279208
 20
224.27396493603192
 11
62.655453076130811
 21
226.25904016810622
  0
LINE
  8
_0-1_作画層１
  6
CONTINUOUS
 62
    7
 10
65.735201861512081
 20
224.06214138756832
 11
62.599399701941763
 21
226.05765185274944
  0
LINE
  8
_0-1_作画層１
  6
CONTINUOUS
 62
    7
 10
65.69896251567917
 20
223.84813695125899
 11
62.545769524976777
 21
225.85471430897869
  0
LINE
  8
_0-1_作画層１
  6
CONTINUOUS
 62
    7
 10
65.666208494155455
 20
223.63191418164183
 11
62.494582302371924
 21
225.65022215788787
  0
LINE
  8
_0-1_作画層１
  6
CONTINUOUS
 62
    7
 10
65.637023066545964
 20
223.41342808209805
 11
62.445887375247167
 21
225.44415119439921
  0
LINE
  8
_0-1_作画層１
  6
CONTINUOUS
 62
    7
 10
65.611511742163685
 20
223.19260391686419
 11
62.399718568647017
 21
225.23647230001117
  0
LINE
  8
_0-1_作画層１
  6
CONTINUOUS
 62
    7
 10
65.58973906788259
 20
222.96939301718356
 11
62.35610939729446
 21
225.02715775266887
  0
LINE
  8
_0-1_作画層１
  6
CONTINUOUS
 62
    7
 10
65.571837602707291
 20
222.74372641410079
 11
62.315086962601242
 21
224.81620429399655
  0
LINE
  8
_0-1_作画層１
  6
CONTINUOUS
 62
    7
 10
65.557902667061313
 20
222.515535655863
 11
62.276705363950498
 21
224.60357070295365
  0
LINE
  8
_0-1_作画層１
  6
CONTINUOUS
 62
    7
 10
65.548071629932707
 20
222.28472573236814
 11
62.241007839472474
 21
224.38922067192368
  0
LINE
  8
_0-1_作画層１
  6
CONTINUOUS
 62
    7
 10
65.54246872336563
 20
222.05122557999061
 11
62.208045488775667
 21
224.17313087507318
  0
LINE
  8
_0-1_作画層１
  6
CONTINUOUS
 62
    7
 10
65.54123679869474
 20
221.81495068783946
 11
62.177847378641445
 21
223.95528920986331
  0
LINE
  8
_0-1_作画層１
  6
CONTINUOUS
 62
    7
 10
65.544534688812462
 20
221.5757929864491
 11
62.150489227518051
 21
223.73564069766667
  0
LINE
  8
_0-1_作画層１
  6
CONTINUOUS
 62
    7
 10
65.552553965530421
 20
221.33362457163759
 11
62.126023272859442
 21
223.51414370368084
  0
LINE
  8
_0-1_作画層１
  6
CONTINUOUS
 62
    7
 10
65.565453384160662
 20
221.08836410037932
 11
62.104498131702087
 21
223.29079046986803
  0
LINE
  8
_0-1_作画層１
  6
CONTINUOUS
 62
    7
 10
65.583482443196459
 20
220.83982522460806
 11
62.085992315387813
 21
223.06550026091568
  0
LINE
  8
_0-1_作画層１
  6
CONTINUOUS
 62
    7
 10
65.606842851618751
 20
220.5879003662007
 11
62.070564474681817
 21
222.83825973299889
  0
LINE
  8
_0-1_作画層１
  6
CONTINUOUS
 62
    7
 10
65.635798977493153
 20
220.33241539600041
 11
62.058289603948765
 21
222.60901276964472
  0
LINE
  8
_0-1_作画層１
  6
CONTINUOUS
 62
    7
 10
65.670644229806555
 20
220.07317540623936
 11
62.049241456267396
 21
222.37770444394613
  0
LINE
  8
_0-1_作画層１
  6
CONTINUOUS
 62
    7
 10
65.711698032832317
 20
219.80999151455902
 11
62.043500198027516
 21
222.14429932753075
  0
LINE
  8
_0-1_作画層１
  6
CONTINUOUS
 62
    7
 10
65.759317249840848
 20
219.54262945731264
 11
62.041162235777932
 21
221.90872847730336
  0
LINE
  8
_0-1_作画層１
  6
CONTINUOUS
 62
    7
 10
65.813912027275478
 20
219.27082181898041
 11
62.042333027111511
 21
221.67091739024164
  0
LINE
  8
_0-1_作画層１
  6
CONTINUOUS
 62
    7
 10
65.677576915760397
 20
219.12052152597792
 11
62.047091031649813
 21
221.43083831843066
  0
LINE
  8
_0-1_作画層１
  6
CONTINUOUS
 62
    7
 10
65.401473318181189
 20
219.05916517096031
 11
62.05555784370415
 21
221.18838370960736
  0
LINE
  8
_0-1_作画層１
  6
CONTINUOUS
 62
    7
 10
65.125361341921206
 20
218.99780695401364
 11
62.067846316863324
 21
220.94349853342416
  0
LINE
  8
_0-1_作画層１
  6
CONTINUOUS
 62
    7
 10
64.849266123022716
 20
218.9364524609251
 11
62.084086372399156
 21
220.69611250205924
  0
LINE
  8
_0-1_作画層１
  6
CONTINUOUS
 62
    7
 10
64.573154146762761
 20
218.87509424397842
 11
62.104421896051349
 21
220.44610567624929
  0
LINE
  8
_0-1_作画層１
  6
CONTINUOUS
 62
    7
 10
64.297050549183524
 20
218.81373788896082
 11
62.128982731511371
 21
220.19341690972703
  0
LINE
  8
_0-1_作画層１
  6
CONTINUOUS
 62
    7
 10
64.020946951604287
 20
218.75238153394321
 11
62.157949149715819
 21
219.93792519003389
  0
LINE
  8
_0-1_作画層１
  6
CONTINUOUS
 62
    7
 10
63.744834975344304
 20
218.69102331699656
 11
62.191489344922701
 21
219.67951549133059
  0
LINE
  8
_0-1_作画層１
  6
CONTINUOUS
 62
    7
 10
63.468731377765096
 20
218.62966696197896
 11
62.229787311926742
 21
219.41808521356811
  0
LINE
  8
_0-1_作画層１
  6
CONTINUOUS
 62
    7
 10
63.192627780185859
 20
218.56831060696135
 11
62.273054172794673
 21
219.15349321218011
  0
LINE
  8
_0-1_作画層１
  6
CONTINUOUS
 62
    7
 10
62.916514872961358
 20
218.50695218313368
 11
62.321531933048306
 21
218.88557806502902
  0
LINE
  8
_0-1_作画層１
  6
CONTINUOUS
 62
    7
 10
62.640411275382121
 20
218.44559582811607
 11
62.375454044972997
 21
218.6142124433207
  0
ARC
  8
_0-1_作画層１
  6
CONTINUOUS
 62
    7
 10
78.041123778501799
 20
221.86797638436479
 40
12.500000953674466
 50
140.79316622965962
 51
192.68995578044033
  0
LINE
  8
_0-1_作画層１
  6
CONTINUOUS
 62
    7
 10
90.550426982772436
 20
231.843822606826
 11
83.51394024578677
 21
226.2324115802877
  0
LINE
  8
_0-d_0_1
  6
CONTINUOUS
 62
    7
 10
89.268282274171384
 20
235.56167696848451
 11
89.34301410095361
 21
235.63639925852357
  0
TEXT
  8
_0-d_0_1
 62
    7
 10
66.550375060310955
 20
235.77212911781808
 40
5
 41
1
 50
29.999957756663811
  1
10
  0
TEXT
  8
_0-d_0_1
 62
    7
 10
71.514839765013221
 20
238.8708259589306
 40
5
 41
1
 50
14.999989403430712
  1
9
  0
TEXT
  8
_0-d_0_1
 62
    7
 10
75.134885648652585
 20
240.00327013865052
 40
5
 41
1
 50
0
  1
8
  0
TEXT
  8
_0-d_0_1
 62
    7
 10
80.028129085682281
 20
240.29218196941287
 40
5
 41
1
 50
-14.999979702261436
  1
7
  0
TEXT
  8
_0-d_0_1
 62
    7
 10
84.71876165011787
 20
239.27956802889909
 40
5
 41
1
 50
-29.999975896259983
  1
6
  0
TEXT
  8
_0-d_0_1
 62
    7
 10
88.957013326789962
 20
237.09388773903436
 40
5
 41
1
 50
-45.000009091158226
  1
5
  0
TEXT
  8
_0-d_0_1
 62
    7
 10
92.575057970814768
 20
233.94671187552308
 40
5
 41
1
 50
-59.999912760333956
  1
4
  0
TEXT
  8
_0-d_0_1
 62
    7
 10
95.234617184761632
 20
229.79823910555442
 40
5
 41
1
 50
-75.000243003075795
  1
3
  0
TEXT
  8
_0-d_0_1
 62
    7
 10
96.741332391664059
 20
225.23218726053773
 40
5
 41
1
 50
-90
  1
2
  0
TEXT
  8
_0-d_0_1
 62
    7
 10
96.927079943905625
 20
220.34250479053216
 40
5
 41
1
 50
-104.99975616503994
  1
1
  0
TEXT
  8
_0-d_0_1
 62
    7
 10
96.624251726439695
 20
216.83634624843006
 40
5
 41
1
 50
-120.00005854257884
  1
24
  0
TEXT
  8
_0-d_0_1
 62
    7
 10
94.684502939149425
 20
212.30971621499341
 40
5
 41
1
 50
-135.00000000000023
  1
23
  0
TEXT
  8
_0-d_0_1
 62
    7
 10
91.627401253376348
 20
208.35935031136492
 40
5
 41
1
 50
-150.00003053215451
  1
22
  0
TEXT
  8
_0-d_0_1
 62
    7
 10
87.752968192315905
 20
205.45977146839095
 40
5
 41
1
 50
-164.9999646800598
  1
21
  0
TEXT
  8
_0-d_0_1
 62
    7
 10
83.224990466996701
 20
203.52322291269837
 40
5
 41
1
 50
180
  1
20
  0
TEXT
  8
_0-d_0_1
 62
    7
 10
78.261290444098961
 20
203.01154556464209
 40
5
 41
1
 50
164.9999895175464
  1
19
  0
TEXT
  8
_0-d_0_1
 62
    7
 10
73.423244931321847
 20
203.78018239178127
 40
5
 41
1
 50
150.00003053215451
  1
18
  0
TEXT
  8
_0-d_0_1
 62
    7
 10
68.083567957752848
 20
206.42127345934605
 40
5
 41
1
 50
135.0000193187177
  1
17
  0
TEXT
  8
_0-d_0_1
 62
    7
 10
64.436688275036488
 20
209.73349744604886
 40
5
 41
1
 50
119.99999141718865
  1
16
  0
TEXT
  8
_0-d_0_1
 62
    7
 10
61.836500195194731
 20
213.73616080312792
 40
5
 41
1
 50
105.00004571869744
  1
15
  0
TEXT
  8
_0-d_0_1
 62
    7
 10
60.381596902772458
 20
218.42357515230714
 40
5
 41
1
 50
90
  1
14
  0
TEXT
  8
_0-d_0_1
 62
    7
 10
60.164059630054822
 20
223.24816887715704
 40
5
 41
1
 50
74.999957816881491
  1
13
  0
TEXT
  8
_0-d_0_1
 62
    7
 10
61.112138393976636
 20
227.88788133797189
 40
5
 41
1
 50
60.000042243336416
  1
12
  0
TEXT
  8
_0-d_0_1
 62
    7
 10
63.247045634419266
 20
232.06430188263664
 40
5
 41
1
 50
45.000042243336281
  1
11
  0
TEXT
  8
_0-d_0_1
 62
    7
 10
71.849896090918804
 20
226.53729056968905
 40
5
 41
1
 50
26.55953400139105
  1
SAT
  0
TEXT
  8
_0-d_0_1
 62
    7
 10
70.516119287175002
 20
219.99498341954205
 40
5
 41
1
 50
77.559534001391071
  1
SAT
  0
TEXT
  8
_0-d_0_1
 62
    7
 10
78.179565978158877
 20
229.62133881611769
 40
5
 41
1
 50
-27.440465998608989
  1
FRI
  0
TEXT
  8
_0-d_0_1
 62
    7
 10
84.153742579276638
 20
226.63973566550777
 40
5
 41
1
 50
-78.440465998608971
  1
THU
  0
TEXT
  8
_0-d_0_1
 62
    7
 10
85.596272886928972
 20
220.12054478622116
 40
5
 41
1
 50
-129.44046599860906
  1
TUE
  0
TEXT
  8
_0-d_0_1
 62
    7
 10
81.437723760437279
 20
214.89682842986872
 40
5
 41
1
 50
179.559534001391
  1
MON
  0
TEXT
  8
_0-d_0_1
 62
    7
 10
74.761073927817449
 20
214.84123686892892
 40
5
 41
1
 50
128.559534001391
  1
SUN
  0
LINE
  8
_0-1_作画層１
  6
CONTINUOUS
 62
    7
 10
188.54113194433779
 20
188.11798024177551
 11
188.54114803758679
 21
255.61798405647278
  0
LINE
  8
_0-1_作画層１
  6
CENTER
 62
    7
 10
78.041123778501628
 20
180.86799736518827
 11
78.041123778501628
 21
262.86798973580625
  0
LINE
  8
_0-1_作画層１
  6
CONTINUOUS
 62
    7
 10
149.54113990155116
 20
253.49297638436485
 11
147.91613954392344
 21
253.49297638436485
  0
ARC
  8
_0-1_作画層１
  6
CONTINUOUS
 62
    7
 10
147.91613954392349
 20
251.99297638436485
 40
1.5
 50
90.000000000002174
 51
179.9999863396271
  0
LINE
  8
_0-1_作画層１
  6
CONTINUOUS
 62
    7
 10
146.41613954392349
 20
251.99297674199258
 11
146.41613948431888
 21
251.74297678470597
  0
LINE
  8
_0-1_作画層１
  6
CONTINUOUS
 62
    7
 10
149.54113912669106
 20
250.24297638436485
 11
147.91613948431885
 21
250.24297638436485
  0
ARC
  8
_0-1_作画層１
  6
CONTINUOUS
 62
    7
 10
147.91613955723517
 20
251.7429764572812
 40
1.5000000729163292
 50
179.99998749329561
 51
269.99999721480179
  0
LINE
  8
_0-1_作画層１
  6
CONTINUOUS
 62
    7
 10
149.54113712994348
 20
241.86800694465637
 11
149.54114094463932
 21
257.86800690194298
  0
ARC
  8
_0-1_作画層１
  6
CONTINUOUS
 62
    7
 10
149.91613954392349
 20
191.74297638436485
 40
1.5
 50
180.00001366037287
 51
269.99999999999784
  0
LINE
  8
_0-1_作画層１
  6
CONTINUOUS
 62
    7
 10
148.41613954392349
 20
191.74297602673713
 11
148.41613948431888
 21
191.99297598402373
  0
ARC
  8
_0-1_作画層１
  6
CONTINUOUS
 62
    7
 10
149.91613955723517
 20
191.9929763114485
 40
1.5000000729163292
 50
90.000002785198191
 51
180.00001250670445
  0
LINE
  8
_0-1_作画層１
  6
CONTINUOUS
 62
    7
 10
150.91613608685532
 20
237.49297642707825
 11
150.91612848726592
 21
205.61797642707825
  0
LINE
  8
_0-1_作画層１
  6
CONTINUOUS
 62
    7
 10
152.04112848726589
 20
205.61797638436485
 11
150.91612848726592
 21
205.61797638436485
  0
LINE
  8
_0-1_作画層１
  6
CONTINUOUS
 62
    7
 10
152.04113608685529
 20
237.49297638436485
 11
150.91613608685532
 21
237.49297638436485
  0
LINE
  8
_0-1_作画層１
  6
CONTINUOUS
 62
    7
 10
149.54113712994348
 20
241.86800690194298
 11
150.04113665310646
 21
241.86800690194298
  0
LINE
  8
_0-1_作画層１
  6
CONTINUOUS
 62
    7
 10
152.04112377850163
 20
185.86798024177551
 11
152.04113665310638
 21
239.86800642510599
  0
ARC
  8
_0-1_作画層１
  6
CONTINUOUS
 62
    7
 10
150.04113665310649
 20
239.86800690194306
 40
1.9999999999999147
 50
359.99998633962417
 51
90.000000000000838
  0
LINE
  8
_0-1_作画層１
  6
CONTINUOUS
 62
    7
 10
149.54113325563571
 20
225.61797638436485
 11
154.54113325563571
 21
225.61797638436485
  0
LINE
  8
_0-1_作画層１
  6
CONTINUOUS
 62
    7
 10
149.54113146749705
 20
218.11797638436485
 11
154.54113325563571
 21
218.11797638436485
  0
LINE
  8
_0-1_作画層１
  6
CONTINUOUS
 62
    7
 10
149.54113325563571
 20
226.61797638436485
 11
154.54113325563571
 21
226.61797638436485
  0
LINE
  8
_0-1_作画層１
  6
CONTINUOUS
 62
    7
 10
149.54113146749705
 20
217.11797638436485
 11
154.54113325563571
 21
217.11797638436485
  0
LINE
  8
_0-1_作画層１
  6
CONTINUOUS
 62
    7
 10
149.54113146749705
 20
218.11797642707825
 11
149.54113122907856
 21
217.11797642707825
  0
LINE
  8
_0-1_作画層１
  6
CONTINUOUS
 62
    7
 10
149.54113325563574
 20
225.61797642707825
 11
149.54113349405424
 21
226.61797642707825
  0
LINE
  8
_0-1_作画層１
  6
CONTINUOUS
 62
    7
 10
154.54113122907856
 20
217.11797642707825
 11
154.54112377850163
 21
185.86798019906212
  0
LINE
  8
_0-1_作画層１
  6
CONTINUOUS
 62
    7
 10
154.54113325563571
 20
225.61797642707825
 11
154.54113146749705
 21
218.11797642707825
  0
LINE
  8
_0-1_作画層１
  6
CONTINUOUS
 62
    7
 10
154.54113349405421
 20
226.61797642707825
 11
154.54114094463932
 21
257.86800690194298
  0
LINE
  8
_0-1_作画層１
  6
CONTINUOUS
 62
    7
 10
146.91613608685532
 20
237.49297642707825
 11
146.91612848726592
 21
205.61797642707825
  0
LINE
  8
_0-1_作画層１
  6
CONTINUOUS
 62
    7
 10
146.91613608685532
 20
237.49297638436485
 11
146.29113608685529
 21
237.49297638436485
  0
LINE
  8
_0-1_作画層１
  6
CONTINUOUS
 62
    7
 10
146.29113608685532
 20
237.49297642707825
 11
146.29112848726592
 21
205.61797642707825
  0
LINE
  8
_0-1_作画層１
  6
CONTINUOUS
 62
    7
 10
146.91612848726592
 20
205.61797638436485
 11
146.29112848726589
 21
205.61797638436485
  0
LINE
  8
_0-1_作画層１
  6
CONTINUOUS
 62
    7
 10
146.91612878528903
 20
206.86797638436485
 11
150.91612878528903
 21
206.86797638436485
  0
LINE
  8
_0-1_作画層１
  6
CONTINUOUS
 62
    7
 10
146.91613087145083
 20
215.61797638436485
 11
150.91613578883221
 21
215.61797638436485
  0
LINE
  8
_0-1_作画層１
  6
CONTINUOUS
 62
    7
 10
146.9161292323237
 20
208.74297638436485
 11
150.91613578883221
 21
208.74297638436485
  0
LINE
  8
_0-1_作画層１
  6
CONTINUOUS
 62
    7
 10
146.91613578883221
 20
236.24297638436485
 11
150.91613578883221
 21
236.24297638436485
  0
LINE
  8
_0-1_作画層１
  6
CONTINUOUS
 62
    7
 10
146.91613414970507
 20
229.36797638436485
 11
150.91613578883221
 21
229.36797638436485
  0
LINE
  8
_0-1_作画層１
  6
CONTINUOUS
 62
    7
 10
146.91613251057797
 20
222.49297638436485
 11
150.91613578883221
 21
222.49297638436485
  0
LINE
  8
_0-1_作画層１
  6
CONTINUOUS
 62
    7
 10
152.0411248215816
 20
190.24297638436485
 11
149.91613954392344
 21
190.24297638436485
  0
LINE
  8
_0-1_作画層１
  6
CONTINUOUS
 62
    7
 10
152.0411255964417
 20
193.49297638436485
 11
149.91613948431885
 21
193.49297638436485
  0
LINE
  8
_0-1_作画層１
  6
CONTINUOUS
 62
    7
 10
149.54112640110412
 20
241.86797638436485
 11
144.04112377850163
 21
241.86797638436485
  0
ARC
  8
_0-1_作画層１
  6
CONTINUOUS
 62
    7
 10
144.04112377850166
 20
242.86797638436488
 40
1.0000000000000284
 50
180.00000000000162
 51
269.99999999999835
  0
LINE
  8
_0-1_作画層１
  6
CONTINUOUS
 62
    7
 10
149.54112520901165
 20
246.86797638436488
 11
146.54112377850163
 21
246.86797638436488
  0
ARC
  8
_0-1_作画層１
  6
CONTINUOUS
 62
    7
 10
146.54112377850166
 20
247.86797638436494
 40
1.0000000000000284
 50
180.0000000000033
 51
269.99999999999835
  0
LINE
  8
_0-1_作画層１
  6
CONTINUOUS
 62
    7
 10
143.04112377850163
 20
242.86797638436485
 11
143.04112377850163
 21
248.36797638436488
  0
ARC
  8
_0-1_作画層１
  6
CONTINUOUS
 62
    7
 10
144.04112377850166
 20
248.36797638436482
 40
1.0000000000000284
 50
90.000000000001634
 51
179.99999999999676
  0
LINE
  8
_0-1_作画層１
  6
CONTINUOUS
 62
    7
 10
145.54112377850163
 20
247.86797638436488
 11
145.54112377850163
 21
248.36797638436488
  0
LINE
  8
_0-1_作画層１
  6
CONTINUOUS
 62
    7
 10
144.04112377850163
 20
249.36797638436488
 11
144.54112377850163
 21
249.36797638436488
  0
ARC
  8
_0-1_作画層１
  6
CONTINUOUS
 62
    7
 10
144.5411237785016
 20
248.36797638436482
 40
1.0000000000000284
 50
0.0000000000032569
 51
89.99999999999838
  0
LINE
  8
_0-1_作画層１
  6
CONTINUOUS
 62
    7
 10
252.04112759319889
 20
64.617984013759383
 11
252.04112759319889
 21
136.61797638436485
  0
LINE
  8
_0-1_作画層１
  6
CONTINUOUS
 62
    7
 10
252.04112759319889
 20
136.61797638436485
 11
324.04111996380436
 21
136.61797638436485
  0
LINE
  8
_0-1_作画層１
  6
CONTINUOUS
 62
    7
 10
324.04111996380436
 20
136.61797638436485
 11
324.04111996380436
 21
64.617984013759383
  0
LINE
  8
_0-1_作画層１
  6
CONTINUOUS
 62
    7
 10
254.54113903729069
 20
51.117964940273055
 11
321.54110851971257
 21
51.117964940273055
  0
LINE
  8
_0-1_作画層１
  6
CONTINUOUS
 62
    7
 10
324.04111996380436
 20
64.617984013759383
 11
321.54110851971257
 21
64.617984013759383
  0
LINE
  8
_0-1_作画層１
  6
CONTINUOUS
 62
    7
 10
254.54113903729069
 20
64.617984013759383
 11
252.04112759319889
 21
64.617984013759383
  0
LINE
  8
_0-1_作画層１
  6
CONTINUOUS
 62
    7
 10
254.54113903729069
 20
67.617984013759383
 11
252.04112759319889
 21
67.617984013759383
  0
LINE
  8
_0-1_作画層１
  6
CONTINUOUS
 62
    7
 10
317.54109707562077
 20
131.11795731087852
 11
317.54109707562077
 21
131.36794586678673
  0
LINE
  8
_0-1_作画層１
  6
CONTINUOUS
 62
    7
 10
317.54109707562077
 20
131.11795731087852
 11
317.54109707562077
 21
130.86796875497032
  0
LINE
  8
_0-1_作画層１
  6
CONTINUOUS
 62
    7
 10
319.54110279766667
 20
131.11795731087852
 11
319.54110279766667
 21
130.86796875497032
  0
LINE
  8
_0-1_作画層１
  6
CONTINUOUS
 62
    7
 10
319.54110279766667
 20
131.11795731087852
 11
319.54110279766667
 21
131.36794586678673
  0
LINE
  8
_0-1_作画層１
  6
CONTINUOUS
 62
    7
 10
318.54110089031803
 20
132.11796112557579
 11
318.79108944622624
 21
132.11796112557579
  0
LINE
  8
_0-1_作画層１
  6
CONTINUOUS
 62
    7
 10
318.54110089031803
 20
132.11796112557579
 11
318.29111233440983
 21
132.11796112557579
  0
LINE
  8
_0-1_作画層１
  6
CONTINUOUS
 62
    7
 10
318.54110089031803
 20
130.11795349618126
 11
318.29111233440983
 21
130.11795349618126
  0
LINE
  8
_0-1_作画層１
  6
CONTINUOUS
 62
    7
 10
318.54110089031803
 20
130.11795349618126
 11
318.79108944622624
 21
130.11795349618126
  0
LINE
  8
_0-1_作画層１
  6
CONTINUOUS
 62
    7
 10
318.0410989829694
 20
131.36794586678673
 11
317.54109707562077
 21
131.36794586678673
  0
LINE
  8
_0-1_作画層１
  6
CONTINUOUS
 62
    7
 10
318.29111233440983
 20
131.61795731087852
 11
318.29111233440983
 21
132.11796112557579
  0
LINE
  8
_0-1_作画層１
  6
CONTINUOUS
 62
    7
 10
318.79108944622624
 20
131.61795731087852
 11
318.79108944622624
 21
132.11796112557579
  0
LINE
  8
_0-1_作画層１
  6
CONTINUOUS
 62
    7
 10
319.04110279766667
 20
131.36794586678673
 11
319.54110279766667
 21
131.36794586678673
  0
LINE
  8
_0-1_作画層１
  6
CONTINUOUS
 62
    7
 10
319.04110279766667
 20
130.86796875497032
 11
319.54110279766667
 21
130.86796875497032
  0
LINE
  8
_0-1_作画層１
  6
CONTINUOUS
 62
    7
 10
318.79108944622624
 20
130.61795540352989
 11
318.79108944622624
 21
130.11795349618126
  0
LINE
  8
_0-1_作画層１
  6
CONTINUOUS
 62
    7
 10
318.29111233440983
 20
130.61795540352989
 11
318.29111233440983
 21
130.11795349618126
  0
LINE
  8
_0-1_作画層１
  6
CONTINUOUS
 62
    7
 10
318.0410989829694
 20
130.86796875497032
 11
317.54109707562077
 21
130.86796875497032
  0
LINE
  8
_0-1_作画層１
  6
CONTINUOUS
 62
    7
 10
286.54111889092076
 20
126.11798973580528
 11
286.54111889092076
 21
125.28023262520958
  0
LINE
  8
_0-1_作画層１
  6
CONTINUOUS
 62
    7
 10
289.5411286660825
 20
126.11798973580528
 11
289.5411286660825
 21
125.28023262520958
  0
LINE
  8
_0-1_作画層１
  6
CONTINUOUS
 62
    7
 10
254.54113903729069
 20
84.117963032924422
 11
268.04113140789616
 21
84.117963032924422
  0
LINE
  8
_0-1_作画層１
  6
CONTINUOUS
 62
    7
 10
308.0411161491071
 20
84.117963032924422
 11
321.54110851971257
 21
84.117963032924422
  0
LINE
  8
_0-1_作画層１
  6
CONTINUOUS
 62
    7
 10
268.04113140789616
 20
84.117963032924422
 11
268.04113140789616
 21
65.617976384364852
  0
LINE
  8
_0-1_作画層１
  6
CONTINUOUS
 62
    7
 10
308.0411161491071
 20
84.117963032924422
 11
308.0411161491071
 21
65.617976384364852
  0
LINE
  8
_0-1_作画層１
  6
CONTINUOUS
 62
    7
 10
280.54112377850163
 20
134.11796875497032
 11
280.54112377850163
 21
115.61795540352989
  0
LINE
  8
_0-1_作画層１
  6
CONTINUOUS
 62
    7
 10
280.54112377850163
 20
115.61795540352989
 11
295.54112377850163
 21
115.61795540352989
  0
LINE
  8
_0-1_作画層１
  6
CONTINUOUS
 62
    7
 10
295.54112377850163
 20
134.11796875497032
 11
295.54112377850163
 21
115.61795540352989
  0
LINE
  8
_0-1_作画層１
  6
CONTINUOUS
 62
    7
 10
254.54113903729069
 20
117.11796112557579
 11
280.54112377850163
 21
117.11796112557579
  0
LINE
  8
_0-1_作画層１
  6
CONTINUOUS
 62
    7
 10
295.54112377850163
 20
117.11796112557579
 11
321.54110851971257
 21
117.11796112557579
  0
CIRCLE
  8
_0-1_作画層１
  6
CONTINUOUS
 62
    7
 10
318.54110089031803
 20
131.11795731087852
 40
1.5
  0
ARC
  8
_0-1_作画層１
  6
CONTINUOUS
 62
    7
 10
318.04109898296946
 20
131.61795731087847
 40
0.2499999999999432
 50
269.99999999998698
 51
0.0000000000130148
  0
ARC
  8
_0-1_作画層１
  6
CONTINUOUS
 62
    7
 10
319.04110279766661
 20
131.61795731087847
 40
0.2499999999999432
 50
179.99999999998701
 51
270.00000000001302
  0
ARC
  8
_0-1_作画層１
  6
CONTINUOUS
 62
    7
 10
319.04110279766661
 20
130.61795540352995
 40
0.2499999999999432
 50
89.999999999986969
 51
180.00000000001305
  0
ARC
  8
_0-1_作画層１
  6
CONTINUOUS
 62
    7
 10
318.04109898296946
 20
130.61795540352995
 40
0.2499999999999432
 50
359.99999999998698
 51
90.000000000013017
  0
ARC
  8
_0-1_作画層１
  6
CONTINUOUS
 62
    7
 10
288.04112377850163
 20
126.11794014474084
 40
1.4999999999999787
 50
0.0018920898430075
 51
179.99810791015699
  0
ARC
  8
_0-1_作画層１
  6
CONTINUOUS
 62
    7
 10
288.04112377850163
 20
122.11795158883263
 40
3.4999999999999911
 50
115.3769836425779
 51
64.623016357422159
  0
LINE
  8
_0-1_作画層１
  6
CONTINUOUS
 62
    7
 10
294.04112377850163
 20
117.11795540352989
 11
282.04112377850163
 21
117.11795540352989
  0
LINE
  8
_0-1_作画層１
  6
CONTINUOUS
 62
    7
 10
282.04112377850163
 20
132.11796875497032
 11
282.04112377850163
 21
117.11795540352989
  0
LINE
  8
_0-1_作画層１
  6
CONTINUOUS
 62
    7
 10
294.04112377850163
 20
132.11796875497032
 11
294.04112377850163
 21
117.11795540352989
  0
LINE
  8
_0-1_作画層１
  6
CONTINUOUS
 62
    7
 10
282.04112377850163
 20
132.11796875497032
 11
294.04112377850163
 21
132.11796875497032
  0
ARC
  8
_0-1_作画層１
  6
CONTINUOUS
 62
    7
 10
282.69397256471296
 20
136.11796875497032
 40
2
 50
270
 51
296.56505117707798
  0
LINE
  8
_0-1_作画層１
  6
CONTINUOUS
 62
    7
 10
283.58839975571289
 20
134.32911437297048
 11
284.49383254250125
 21
134.78183076636466
  0
ARC
  8
_0-1_作画層１
  6
CONTINUOUS
 62
    7
 10
285.38825973350123
 20
132.99297638436482
 40
2.0000000000000351
 50
90.000000000001634
 51
116.56505117707944
  0
LINE
  8
_0-1_作画層１
  6
CONTINUOUS
 62
    7
 10
285.38825973350117
 20
134.99297638436485
 11
290.69398782350203
 21
134.99297638436485
  0
ARC
  8
_0-1_作画層１
  6
CONTINUOUS
 62
    7
 10
290.69398782350203
 20
132.99297638436485
 40
2
 50
63.43494882292201
 51
90
  0
LINE
  8
_0-1_作画層１
  6
CONTINUOUS
 62
    7
 10
282.69397256471296
 20
134.11796875497032
 11
280.54112377850163
 21
134.11796875497032
  0
LINE
  8
_0-1_作画層１
  6
CONTINUOUS
 62
    7
 10
291.58841501450195
 20
134.78183076636469
 11
292.49384780129031
 21
134.32911437297051
  0
LINE
  8
_0-1_作画層１
  6
CONTINUOUS
 62
    7
 10
295.54112377850163
 20
134.11796875497032
 11
293.38827499229023
 21
134.11796875497032
  0
ARC
  8
_0-1_作画層１
  6
CONTINUOUS
 62
    7
 10
293.38827499229029
 20
136.11796875497035
 40
2.0000000000000351
 50
243.43494882292055
 51
269.99999999999835
  0
LINE
  8
_0-1_作画層１
  6
CONTINUOUS
 62
    7
 10
285.85362377850163
 20
134.36797638436485
 11
290.22862377850163
 21
134.36797638436485
  0
LINE
  8
_0-1_作画層１
  6
CONTINUOUS
 62
    7
 10
285.85362377850163
 20
133.11797638436485
 11
290.22862377850163
 21
133.11797638436485
  0
LINE
  8
_0-1_作画層１
  6
CONTINUOUS
 62
    7
 10
290.22862377850163
 20
133.11797638436485
 11
290.22862377850163
 21
134.36797638436485
  0
LINE
  8
_0-1_作画層１
  6
CONTINUOUS
 62
    7
 10
285.85362377850163
 20
133.11797638436485
 11
285.85362377850163
 21
134.36797638436485
  0
LINE
  8
_0-1_作画層１
  6
CONTINUOUS
 62
    7
 10
316.24110851971255
 20
134.11796875497032
 11
316.24110851971255
 21
130.81796875497031
  0
ARC
  8
_0-1_作画層１
  6
CONTINUOUS
 62
    7
 10
318.24110851971255
 20
130.81796875497031
 40
2
 50
180.0000000000004
 51
270
  0
LINE
  8
_0-1_作画層１
  6
CONTINUOUS
 62
    7
 10
321.54110851971257
 20
128.81796875497031
 11
318.24110851971255
 21
128.81796875497031
  0
LINE
  8
_0-1_作画層１
  6
CONTINUOUS
 62
    7
 10
295.54112377850163
 20
134.11796875497032
 11
321.54110851971257
 21
134.11796875497032
  0
LINE
  8
_0-1_作画層１
  6
CONTINUOUS
 62
    7
 10
254.54113903729069
 20
134.11796875497032
 11
280.54112377850163
 21
134.11796875497032
  0
LINE
  8
_0-1_作画層１
  6
CONTINUOUS
 62
    7
 10
254.54113903729069
 20
134.11796875497032
 11
254.54113903729069
 21
51.117964940273055
  0
LINE
  8
_0-1_作画層１
  6
CONTINUOUS
 62
    7
 10
321.54110851971257
 20
134.11796875497032
 11
321.54110851971257
 21
51.117964940273055
  0
ARC
  8
_0-1_作画層１
  6
CONTINUOUS
 62
    7
 10
257.8411390372907
 20
68.542984013759394
 40
2
 50
0.0000000000002036
 51
90
  0
LINE
  8
_0-1_作画層１
  6
CONTINUOUS
 62
    7
 10
254.54113903729069
 20
70.542984013759394
 11
257.8411390372907
 21
70.542984013759394
  0
LINE
  8
_0-1_作画層１
  6
CONTINUOUS
 62
    7
 10
259.8411390372907
 20
68.542984013759394
 11
259.8411390372907
 21
67.617976384364852
  0
ARC
  8
_0-1_作画層１
  6
CONTINUOUS
 62
    7
 10
257.84113903729076
 20
67.617976384364837
 40
1.9999999999999716
 50
269.9999999999992
 51
0.0000000000003816
  0
LINE
  8
_0-1_作画層１
  6
CONTINUOUS
 62
    7
 10
256.54111996380436
 20
68.242984013759383
 11
256.54111996380436
 21
68.492984013759383
  0
LINE
  8
_0-1_作画層１
  6
CONTINUOUS
 62
    7
 10
256.54111996380436
 20
68.242984013759383
 11
256.54111996380436
 21
67.99298210641075
  0
LINE
  8
_0-1_作画層１
  6
CONTINUOUS
 62
    7
 10
258.54112568585026
 20
68.242984013759383
 11
258.54112568585026
 21
67.99298210641075
  0
LINE
  8
_0-1_作画層１
  6
CONTINUOUS
 62
    7
 10
258.54112568585026
 20
68.242984013759383
 11
258.54112568585026
 21
68.492984013759383
  0
LINE
  8
_0-1_作画層１
  6
CONTINUOUS
 62
    7
 10
257.541121871153
 20
69.242985921108016
 11
257.7911104270612
 21
69.242985921108016
  0
LINE
  8
_0-1_作画層１
  6
CONTINUOUS
 62
    7
 10
257.541121871153
 20
69.242985921108016
 11
257.29113331524479
 21
69.242985921108016
  0
LINE
  8
_0-1_作画層１
  6
CONTINUOUS
 62
    7
 10
257.541121871153
 20
67.242980199062117
 11
257.29113331524479
 21
67.242980199062117
  0
LINE
  8
_0-1_作画層１
  6
CONTINUOUS
 62
    7
 10
257.541121871153
 20
67.242980199062117
 11
257.7911104270612
 21
67.242980199062117
  0
LINE
  8
_0-1_作画層１
  6
CONTINUOUS
 62
    7
 10
257.04111996380436
 20
68.492984013759383
 11
256.54111996380436
 21
68.492984013759383
  0
LINE
  8
_0-1_作画層１
  6
CONTINUOUS
 62
    7
 10
257.29113331524479
 20
68.742984013759383
 11
257.29113331524479
 21
69.242985921108016
  0
LINE
  8
_0-1_作画層１
  6
CONTINUOUS
 62
    7
 10
257.7911104270612
 20
68.742984013759383
 11
257.7911104270612
 21
69.242985921108016
  0
LINE
  8
_0-1_作画層１
  6
CONTINUOUS
 62
    7
 10
258.04112377850163
 20
68.492984013759383
 11
258.54112568585026
 21
68.492984013759383
  0
LINE
  8
_0-1_作画層１
  6
CONTINUOUS
 62
    7
 10
258.04112377850163
 20
67.99298210641075
 11
258.54112568585026
 21
67.99298210641075
  0
LINE
  8
_0-1_作画層１
  6
CONTINUOUS
 62
    7
 10
257.7911104270612
 20
67.742980199062117
 11
257.7911104270612
 21
67.242980199062117
  0
LINE
  8
_0-1_作画層１
  6
CONTINUOUS
 62
    7
 10
257.29113331524479
 20
67.742980199062117
 11
257.29113331524479
 21
67.242980199062117
  0
LINE
  8
_0-1_作画層１
  6
CONTINUOUS
 62
    7
 10
257.04111996380436
 20
67.99298210641075
 11
256.54111996380436
 21
67.99298210641075
  0
CIRCLE
  8
_0-1_作画層１
  6
CONTINUOUS
 62
    7
 10
257.541121871153
 20
68.242984013759383
 40
1.5
  0
ARC
  8
_0-1_作画層１
  6
CONTINUOUS
 62
    7
 10
257.04111996380436
 20
68.742984013759383
 40
0.2499999999999928
 50
269.99999999999341
 51
0.0000000000015775
  0
ARC
  8
_0-1_作画層１
  6
CONTINUOUS
 62
    7
 10
258.04112377850163
 20
68.742984013759383
 40
0.2499999999999716
 50
179.99999999999838
 51
270.00000000000648
  0
ARC
  8
_0-1_作画層１
  6
CONTINUOUS
 62
    7
 10
258.04112377850163
 20
67.742980199062117
 40
0.2499999999999928
 50
89.999999999993506
 51
180.00000000000162
  0
ARC
  8
_0-1_作画層１
  6
CONTINUOUS
 62
    7
 10
257.04111996380436
 20
67.742980199062117
 40
0.2499999999999716
 50
359.99999999999835
 51
90.000000000006565
  0
LINE
  8
_0-1_作画層１
  6
CONTINUOUS
 62
    7
 10
319.54110279766667
 20
65.617976384364852
 11
256.54114475933659
 21
65.617976384364852
  0
LINE
  8
_0-1_作画層１
  6
CONTINUOUS
 62
    7
 10
256.54114475933659
 20
65.617976384364852
 11
256.54114475933659
 21
54.117961125575789
  0
ARC
  8
_0-1_作画層１
  6
CONTINUOUS
 62
    7
 10
257.54114475933659
 20
54.117961125575775
 40
1
 50
179.99999999999918
 51
270
  0
LINE
  8
_0-1_作画層１
  6
CONTINUOUS
 62
    7
 10
257.54114475933659
 20
53.117961125575789
 11
318.54110279766667
 21
53.117961125575789
  0
ARC
  8
_0-1_作画層１
  6
CONTINUOUS
 62
    7
 10
318.54110279766667
 20
54.117961125575775
 40
1
 50
270
 51
0.0000000000008014
  0
LINE
  8
_0-1_作画層１
  6
CONTINUOUS
 62
    7
 10
308.0411161491071
 20
82.867963032924422
 11
321.54110851971257
 21
82.867963032924422
  0
LINE
  8
_0-1_作画層１
  6
CONTINUOUS
 62
    7
 10
309.5411161491071
 20
67.117976384364852
 11
319.54110279766667
 21
67.117976384364852
  0
LINE
  8
_0-1_作画層１
  6
CONTINUOUS
 62
    7
 10
309.5411161491071
 20
69.617976384364852
 11
319.54110279766667
 21
69.617976384364852
  0
LINE
  8
_0-1_作画層１
  6
CONTINUOUS
 62
    7
 10
309.5411161491071
 20
69.617976384364852
 11
309.5411161491071
 21
67.117976384364852
  0
LINE
  8
_0-1_作画層１
  6
CONTINUOUS
 62
    7
 10
319.54110279766667
 20
65.617976384364852
 11
319.54110279766667
 21
54.117961125575789
  0
LINE
  8
_0-1_作画層１
  6
CONTINUOUS
 62
    7
 10
319.54110279766667
 20
67.117976384364852
 11
319.54110279766667
 21
69.617976384364852
  0
LINE
  8
_0-1_作画層１
  6
CONTINUOUS
 62
    7
 10
268.04113140789616
 20
69.617976384364852
 11
308.0411161491071
 21
69.617976384364852
  0
LINE
  8
_0-1_作画層１
  6
CONTINUOUS
 62
    7
 10
266.41610279766667
 20
67.117976384364852
 11
266.41610279766667
 21
69.617976384364852
  0
LINE
  8
_0-1_作画層１
  6
CONTINUOUS
 62
    7
 10
268.04113140789616
 20
67.117976384364852
 11
308.04112377850163
 21
67.117976384364852
  0
LINE
  8
_0-1_作画層１
  6
CONTINUOUS
 62
    7
 10
261.41610279766667
 20
67.117976384364852
 11
261.41610279766667
 21
69.617976384364852
  0
LINE
  8
_0-1_作画層１
  6
CONTINUOUS
 62
    7
 10
261.41610279766667
 20
67.117976384364852
 11
266.41610279766667
 21
67.117976384364852
  0
LINE
  8
_0-1_作画層１
  6
CONTINUOUS
 62
    7
 10
261.41610279766667
 20
69.617976384364852
 11
266.41610279766667
 21
69.617976384364852
  0
CIRCLE
  8
_0-1_作画層１
  6
CONTINUOUS
 62
    7
 10
288.04112377850163
 20
59.492972569667586
 40
2
  0
CIRCLE
  8
_0-1_作画層１
  6
CONTINUOUS
 62
    7
 10
288.04112377850163
 20
59.492972569667586
 40
4.6703817475383271
  0
LINE
  8
_0-1_作画層１
  6
CONTINUOUS
 62
    7
 10
321.54110851971257
 20
76.242976384364852
 11
308.04112377850163
 21
76.242976384364852
  0
LINE
  8
_0-1_作画層１
  6
CONTINUOUS
 62
    7
 10
254.54113903729069
 20
82.867963032924422
 11
268.04113140789616
 21
82.867963032924422
  0
LINE
  8
_0-1_作画層１
  6
CONTINUOUS
 62
    7
 10
254.54113903729069
 20
76.242976384364852
 11
268.04113140789616
 21
76.242976384364852
  0
LINE
  8
_0-1_作画層１
  6
CONTINUOUS
 62
    7
 10
256.54114475933659
 20
54.367976384364852
 11
281.79112377850163
 21
54.367976384364852
  0
LINE
  8
_0-1_作画層１
  6
CONTINUOUS
 62
    7
 10
281.79112377850163
 20
65.617976384364852
 11
281.79112377850163
 21
54.367976384364852
  0
CIRCLE
  8
_0-1_作画層１
  6
CONTINUOUS
 62
    7
 10
265.83693257061589
 20
59.367984013759383
 40
1.5
  0
CIRCLE
  8
_0-1_作画層１
  6
CONTINUOUS
 62
    7
 10
276.83694306103337
 20
59.367984013759383
 40
1.5
  0
CIRCLE
  8
_0-1_作画層１
  6
CONTINUOUS
 62
    7
 10
300.33694592205632
 20
59.367984013759383
 40
1.5
  0
CIRCLE
  8
_0-1_作画層１
  6
CONTINUOUS
 62
    7
 10
311.33695736614811
 20
59.367984013759383
 40
1.5
  0
LINE
  8
_0-1_作画層１
  6
CONTINUOUS
 62
    7
 10
319.54110279766667
 20
54.367976384364852
 11
294.29112377850163
 21
54.367976384364852
  0
LINE
  8
_0-1_作画層１
  6
CONTINUOUS
 62
    7
 10
294.29112377850163
 20
65.617976384364852
 11
294.29112377850163
 21
54.367976384364852
  0
LINE
  8
_0-1_作画層１
  6
CONTINUOUS
 62
    7
 10
160.54114857403385
 20
257.86800694465637
 11
160.54113140789619
 21
185.86798024177551
  0
LINE
  8
_0-1_作画層１
  6
CONTINUOUS
 62
    7
 10
178.54113194433776
 20
188.11798024177551
 11
178.54114803758679
 21
255.61798405647278
  0
LINE
  8
_0-1_作画層１
  6
CONTINUOUS
 62
    7
 10
180.5411378451945
 20
212.86797642707825
 11
180.54114213672733
 21
230.86797642707825
  0
LINE
  8
_0-1_作画層１
  6
CONTINUOUS
 62
    7
 10
194.54112377850163
 20
211.86797638436485
 11
194.54112377850163
 21
231.86797638436485
  0
LINE
  8
_0-1_作画層１
  6
CONTINUOUS
 62
    7
 10
194.04112377850163
 20
211.8363308147446
 11
194.04112377850163
 21
231.86797638436485
  0
LINE
  8
_0-1_作画層１
  6
CONTINUOUS
 62
    7
 10
193.54112377850163
 20
211.80468524512432
 11
193.54112377850163
 21
231.93126752360538
  0
LINE
  8
_0-1_作画層１
  6
CONTINUOUS
 62
    7
 10
193.04112377850163
 20
211.77303967550407
 11
193.04112377850163
 21
231.96291309322564
  0
LINE
  8
_0-1_作画層１
  6
CONTINUOUS
 62
    7
 10
192.54112377850163
 20
211.74139410588381
 11
192.54112377850163
 21
231.99455866284589
  0
LINE
  8
_0-1_作画層１
  6
CONTINUOUS
 62
    7
 10
192.04112377850163
 20
211.70974853626356
 11
192.04112377850163
 21
232.02620423246614
  0
LINE
  8
_0-1_作画層１
  6
CONTINUOUS
 62
    7
 10
191.54112377850163
 20
211.67810296664331
 11
191.54112377850163
 21
232.05784980208639
  0
LINE
  8
_0-1_作画層１
  6
CONTINUOUS
 62
    7
 10
191.04112377850163
 20
211.64645739702306
 11
191.04112377850163
 21
232.08949537170665
  0
LINE
  8
_0-1_作画層１
  6
CONTINUOUS
 62
    7
 10
190.54112377850163
 20
211.6148118274028
 11
190.54112377850163
 21
232.1211409413269
  0
LINE
  8
_0-1_作画層１
  6
CONTINUOUS
 62
    7
 10
190.04112377850163
 20
211.58316625778255
 11
190.04112377850163
 21
232.15278651094715
  0
LINE
  8
_0-1_作画層１
  6
CONTINUOUS
 62
    7
 10
189.54112377850163
 20
211.5515206881623
 11
189.54112377850163
 21
232.1844320805674
  0
LINE
  8
_0-1_作画層１
  6
CONTINUOUS
 62
    7
 10
189.04112377850163
 20
211.51987511854205
 11
189.04112377850163
 21
232.21607765018766
  0
LINE
  8
_0-1_作画層１
  6
CONTINUOUS
 62
    7
 10
188.54112377850163
 20
211.48822954892179
 11
188.54112377850163
 21
232.24772321980791
  0
LINE
  8
_0-1_作画層１
  6
CONTINUOUS
 62
    7
 10
188.04112377850163
 20
211.45658397930154
 11
188.04112377850163
 21
232.27936878942816
  0
LINE
  8
_0-1_作画層１
  6
CONTINUOUS
 62
    7
 10
187.54112377850163
 20
211.42493840968129
 11
187.54112377850163
 21
232.31101435904841
  0
LINE
  8
_0-1_作画層１
  6
CONTINUOUS
 62
    7
 10
187.04112377850163
 20
211.39329284006104
 11
187.04112377850163
 21
232.34265992866867
  0
LINE
  8
_0-1_作画層１
  6
CONTINUOUS
 62
    7
 10
186.54112377850163
 20
211.36164727044078
 11
186.54112377850163
 21
232.37430549828892
  0
LINE
  8
_0-1_作画層１
  6
CONTINUOUS
 62
    7
 10
186.04112377850163
 20
211.33000170082053
 11
186.04112377850163
 21
232.40595106790917
  0
LINE
  8
_0-1_作画層１
  6
CONTINUOUS
 62
    7
 10
185.54112377850163
 20
211.29835613120028
 11
185.54112377850163
 21
232.43759663752942
  0
LINE
  8
_0-1_作画層１
  6
CONTINUOUS
 62
    7
 10
185.04112377850163
 20
211.26671056158003
 11
185.04112377850163
 21
232.46924220714968
  0
LINE
  8
_0-1_作画層１
  6
CONTINUOUS
 62
    7
 10
184.54112377850163
 20
211.23506499195977
 11
184.54112377850163
 21
232.50088777676993
  0
LINE
  8
_0-1_作画層１
  6
CONTINUOUS
 62
    7
 10
184.04112377850163
 20
211.20341942233952
 11
184.04112377850163
 21
232.53253334639018
  0
LINE
  8
_0-1_作画層１
  6
CONTINUOUS
 62
    7
 10
183.54112377850163
 20
211.17177385271927
 11
183.54112377850163
 21
232.56417891601043
  0
LINE
  8
_0-1_作画層１
  6
CONTINUOUS
 62
    7
 10
183.04112377850163
 20
211.14012828309902
 11
183.04112377850163
 21
232.59582448563069
  0
LINE
  8
_0-1_作画層１
  6
CONTINUOUS
 62
    7
 10
182.54112377850163
 20
211.10848271347876
 11
182.54112377850163
 21
232.62747005525094
  0
LINE
  8
_0-1_作画層１
  6
CONTINUOUS
 62
    7
 10
182.04112377850163
 20
211.07683714385851
 11
182.04112377850163
 21
232.65911562487119
  0
LINE
  8
_0-1_作画層１
  6
CONTINUOUS
 62
    7
 10
181.54112377850163
 20
211.04519157423826
 11
181.54112377850163
 21
232.69076119449144
  0
LINE
  8
_0-1_作画層１
  6
CONTINUOUS
 62
    7
 10
181.04112377850163
 20
211.01354600461801
 11
181.04112377850163
 21
232.7224067641117
  0
LINE
  8
_0-1_作画層１
  6
CONTINUOUS
 62
    7
 10
180.54112377850163
 20
210.98190043499775
 11
180.54112377850163
 21
232.75405233373195
  0
LINE
  8
_0-1_作画層１
  6
CONTINUOUS
 62
    7
 10
179.04112377850163
 20
221.86797638436485
 11
179.04112377850163
 21
210.886963726137
  0
LINE
  8
_0-1_作画層１
  6
CONTINUOUS
 62
    7
 10
179.54112377850163
 20
221.86797638436485
 11
179.54112377850163
 21
210.91860929575725
  0
LINE
  8
_0-1_作画層１
  6
CONTINUOUS
 62
    7
 10
180.04112377850163
 20
221.86797638436485
 11
180.04112377850163
 21
210.9502548653775
  0
LINE
  8
_0-1_作画層１
  6
CONTINUOUS
 62
    7
 10
179.04112377850163
 20
221.86797638436485
 11
179.04112377850163
 21
232.84898904259271
  0
LINE
  8
_0-1_作画層１
  6
CONTINUOUS
 62
    7
 10
179.54112377850163
 20
221.86797638436485
 11
179.54112377850163
 21
232.81734347297245
  0
LINE
  8
_0-1_作画層１
  6
CONTINUOUS
 62
    7
 10
180.04112377850163
 20
221.86797638436485
 11
180.04112377850163
 21
232.7856979033522
  0
LINE
  8
_0-1_作画層１
  6
CONTINUOUS
 62
    7
 10
175.54113820282225
 20
214.36797642707825
 11
175.5411417790996
 21
229.36797642707825
  0
LINE
  8
_0-1_作画層１
  6
CONTINUOUS
 62
    7
 10
173.04113820282225
 20
214.36797642707825
 11
173.0411417790996
 21
229.36797642707825
  0
LINE
  8
_0-1_作画層１
  6
CONTINUOUS
 62
    7
 10
175.5411417790996
 20
229.36797638436485
 11
173.0411417790996
 21
229.36797638436485
  0
LINE
  8
_0-1_作画層１
  6
CONTINUOUS
 62
    7
 10
175.54113820282225
 20
214.36797638436485
 11
173.04113820282225
 21
214.36797638436485
  0
LINE
  8
_0-1_作画層１
  6
CONTINUOUS
 62
    7
 10
173.54114118305336
 20
226.86797638436485
 11
175.5411417790996
 21
226.86797638436485
  0
LINE
  8
_0-1_作画層１
  6
CONTINUOUS
 62
    7
 10
173.54113879886847
 20
216.86797642707825
 11
173.54114118305338
 21
226.86797642707825
  0
LINE
  8
_0-1_作画層１
  6
CONTINUOUS
 62
    7
 10
173.54113879886847
 20
216.86797638436485
 11
175.5411417790996
 21
216.86797638436485
  0
LINE
  8
_0-1_作画層１
  6
CENTER
 62
    7
 10
136.54109326091964
 20
221.86797638436485
 11
215.54112377850163
 21
221.86797638436485
  0
TEXT
  8
_0-7_注記層１
 62
    7
 10
306.25
 20
188
 40
3.5
 41
1
 50
0
  1
前面カバー、取付けビス２本
  0
TEXT
  8
_0-7_注記層１
 62
    7
 10
306.25
 20
184.5
 40
3.5
 41
1
 50
0
  1
端子台カバー、（赤）（白）色設定子各３個
  0
TEXT
  8
_0-7_注記層１
 62
    7
 10
306.25
 20
263
 40
3.5
 41
1
 50
0
  1
ETS-703S
  0
LINE
  8
_0-1_作画層１
  6
CONTINUOUS
 62
    7
 10
73.091378600278972
 20
226.81772156258751
 11
76.876190693060039
 21
224.63255997201134
  0
LINE
  8
_0-1_作画層１
  6
CONTINUOUS
 62
    7
 10
73.091378600278972
 20
226.81772156258751
 11
75.276540190855144
 21
223.03291817208458
  0
LINE
  8
_0-1_作画層１
  6
CONTINUOUS
 62
    7
 10
75.276540190855144
 20
223.03291817208458
 11
76.876190693060039
 21
224.63255997201134
  0
LINE
  8
_0-1_作画層１
  6
CONTINUOUS
 62
    7
 10
76.841123778501668
 20
224.59749324822096
 11
76.841123778501668
 21
224.65280585817808
  0
LINE
  8
_0-1_作画層１
  6
CONTINUOUS
 62
    7
 10
76.741123778501674
 20
224.49749379223215
 11
76.741123778501674
 21
224.71054086686567
  0
LINE
  8
_0-1_作画層１
  6
CONTINUOUS
 62
    7
 10
76.641123778501679
 20
224.39749433624337
 11
76.641123778501679
 21
224.76827587555326
  0
LINE
  8
_0-1_作画層１
  6
CONTINUOUS
 62
    7
 10
76.541123778501685
 20
224.29749488025459
 11
76.541123778501685
 21
224.82601088424084
  0
LINE
  8
_0-1_作画層１
  6
CONTINUOUS
 62
    7
 10
76.441123778501691
 20
224.19749542426581
 11
76.441123778501691
 21
224.88374589292843
  0
LINE
  8
_0-1_作画層１
  6
CONTINUOUS
 62
    7
 10
76.341123778501697
 20
224.09749596827703
 11
76.341123778501697
 21
224.94148090161602
  0
LINE
  8
_0-1_作画層１
  6
CONTINUOUS
 62
    7
 10
76.241123778501702
 20
223.99749651228825
 11
76.241123778501702
 21
224.9992159103036
  0
LINE
  8
_0-1_作画層１
  6
CONTINUOUS
 62
    7
 10
76.141123778501708
 20
223.89749705629947
 11
76.141123778501708
 21
225.05695091899119
  0
LINE
  8
_0-1_作画層１
  6
CONTINUOUS
 62
    7
 10
76.041123778501714
 20
223.79749760031069
 11
76.041123778501714
 21
225.11468592767878
  0
LINE
  8
_0-1_作画層１
  6
CONTINUOUS
 62
    7
 10
75.941123778501719
 20
223.69749814432191
 11
75.941123778501719
 21
225.17242093636636
  0
LINE
  8
_0-1_作画層１
  6
CONTINUOUS
 62
    7
 10
75.841123778501725
 20
223.59749868833313
 11
75.841123778501725
 21
225.23015594505395
  0
LINE
  8
_0-1_作画層１
  6
CONTINUOUS
 62
    7
 10
75.741123778501731
 20
223.49749923234435
 11
75.741123778501731
 21
225.28789095374154
  0
LINE
  8
_0-1_作画層１
  6
CONTINUOUS
 62
    7
 10
75.641123778501736
 20
223.39749977635557
 11
75.641123778501736
 21
225.34562596242912
  0
LINE
  8
_0-1_作画層１
  6
CONTINUOUS
 62
    7
 10
75.541123778501742
 20
223.29750032036679
 11
75.541123778501742
 21
225.40336097111674
  0
LINE
  8
_0-1_作画層１
  6
CONTINUOUS
 62
    7
 10
75.441123778501748
 20
223.19750086437801
 11
75.441123778501748
 21
225.46109597980433
  0
LINE
  8
_0-1_作画層１
  6
CONTINUOUS
 62
    7
 10
75.341123778501753
 20
223.09750140838923
 11
75.341123778501753
 21
225.51883098849191
  0
LINE
  8
_0-1_作画層１
  6
CONTINUOUS
 62
    7
 10
75.241123778501759
 20
223.09426107602931
 11
75.241123778501759
 21
225.5765659971795
  0
LINE
  8
_0-1_作画層１
  6
CONTINUOUS
 62
    7
 10
75.141123778501765
 20
223.26746581323619
 11
75.141123778501765
 21
225.63430100586709
  0
LINE
  8
_0-1_作画層１
  6
CONTINUOUS
 62
    7
 10
75.04112377850177
 20
223.44067055044303
 11
75.04112377850177
 21
225.69203601455467
  0
LINE
  8
_0-1_作画層１
  6
CONTINUOUS
 62
    7
 10
74.941123778501776
 20
223.6138752876499
 11
74.941123778501776
 21
225.74977102324226
  0
LINE
  8
_0-1_作画層１
  6
CONTINUOUS
 62
    7
 10
74.841123778501782
 20
223.78708002485678
 11
74.841123778501782
 21
225.80750603192985
  0
LINE
  8
_0-1_作画層１
  6
CONTINUOUS
 62
    7
 10
74.741123778501787
 20
223.96028476206362
 11
74.741123778501787
 21
225.86524104061743
  0
LINE
  8
_0-1_作画層１
  6
CONTINUOUS
 62
    7
 10
74.641123778501793
 20
224.13348949927047
 11
74.641123778501793
 21
225.92297604930502
  0
LINE
  8
_0-1_作画層１
  6
CONTINUOUS
 62
    7
 10
74.541123778501799
 20
224.30669423647734
 11
74.541123778501799
 21
225.98071105799261
  0
LINE
  8
_0-1_作画層１
  6
CONTINUOUS
 62
    7
 10
74.441123778501805
 20
224.47989897368421
 11
74.441123778501805
 21
226.03844606668019
  0
LINE
  8
_0-1_作画層１
  6
CONTINUOUS
 62
    7
 10
74.34112377850181
 20
224.65310371089106
 11
74.34112377850181
 21
226.09618107536778
  0
LINE
  8
_0-1_作画層１
  6
CONTINUOUS
 62
    7
 10
74.241123778501816
 20
224.82630844809793
 11
74.241123778501816
 21
226.15391608405537
  0
LINE
  8
_0-1_作画層１
  6
CONTINUOUS
 62
    7
 10
74.141123778501822
 20
224.99951318530481
 11
74.141123778501822
 21
226.21165109274295
  0
LINE
  8
_0-1_作画層１
  6
CONTINUOUS
 62
    7
 10
74.041123778501827
 20
225.17271792251165
 11
74.041123778501827
 21
226.26938610143054
  0
LINE
  8
_0-1_作画層１
  6
CONTINUOUS
 62
    7
 10
73.941123778501833
 20
225.3459226597185
 11
73.941123778501833
 21
226.32712111011813
  0
LINE
  8
_0-1_作画層１
  6
CONTINUOUS
 62
    7
 10
73.841123778501839
 20
225.51912739692537
 11
73.841123778501839
 21
226.38485611880571
  0
LINE
  8
_0-1_作画層１
  6
CONTINUOUS
 62
    7
 10
73.741123778501844
 20
225.69233213413224
 11
73.741123778501844
 21
226.4425911274933
  0
LINE
  8
_0-1_作画層１
  6
CONTINUOUS
 62
    7
 10
73.64112377850185
 20
225.86553687133909
 11
73.64112377850185
 21
226.50032613618089
  0
LINE
  8
_0-1_作画層１
  6
CONTINUOUS
 62
    7
 10
73.541123778501856
 20
226.03874160854593
 11
73.541123778501856
 21
226.55806114486847
  0
LINE
  8
_0-1_作画層１
  6
CONTINUOUS
 62
    7
 10
73.441123778501861
 20
226.21194634575281
 11
73.441123778501861
 21
226.61579615355606
  0
LINE
  8
_0-1_作画層１
  6
CONTINUOUS
 62
    7
 10
73.341123778501867
 20
226.38515108295968
 11
73.341123778501867
 21
226.67353116224368
  0
LINE
  8
_0-1_作画層１
  6
CONTINUOUS
 62
    7
 10
73.241123778501873
 20
226.55835582016653
 11
73.241123778501873
 21
226.73126617093126
  0
LINE
  8
_0-1_作画層１
  6
CONTINUOUS
 62
    7
 10
73.141123778501878
 20
226.73156055737337
 11
73.141123778501878
 21
226.78900117961885
  0
LINE
  8
_0-1_作画層１
  6
CONTINUOUS
 62
    7
 10
55.541146666685222
 20
254.86796875497032
 11
58.541140944639324
 21
254.86796875497032
  0
LINE
  8
_0-1_作画層１
  6
CONTINUOUS
 62
    7
 10
58.541140944639324
 20
253.86796684762169
 11
58.541140944639324
 21
254.86796875497032
  0
LINE
  8
_0-1_作画層１
  6
CONTINUOUS
 62
    7
 10
55.541146666685222
 20
253.86796684762169
 11
55.541146666685222
 21
254.86796875497032
  0
LINE
  8
_0-1_作画層１
  6
CONTINUOUS
 62
    7
 10
60.541144759336589
 20
253.86796684762169
 11
60.541144759336589
 21
254.86796875497032
  0
LINE
  8
_0-1_作画層１
  6
CONTINUOUS
 62
    7
 10
60.541144759336589
 20
253.86796684762169
 11
65.54114189831364
 21
253.86796684762169
  0
LINE
  8
_0-1_作画層１
  6
CONTINUOUS
 62
    7
 10
65.54114189831364
 20
253.86796684762169
 11
65.54114189831364
 21
254.86796875497032
  0
LINE
  8
_0-1_作画層１
  6
CONTINUOUS
 62
    7
 10
60.541144759336589
 20
254.86796875497032
 11
65.54114189831364
 21
254.86796875497032
  0
LINE
  8
_0-1_作画層１
  6
CONTINUOUS
 62
    7
 10
65.414879233518718
 20
253.86796684762169
 11
65.54114189831364
 21
253.99422760506798
  0
LINE
  8
_0-1_作画層１
  6
CONTINUOUS
 62
    7
 10
65.132031829038738
 20
253.86796684762169
 11
65.54114189831364
 21
254.27707596322227
  0
LINE
  8
_0-1_作画層１
  6
CONTINUOUS
 62
    7
 10
64.849193007627605
 20
253.86796684762169
 11
65.54114189831364
 21
254.55990524789024
  0
LINE
  8
_0-1_作画層１
  6
CONTINUOUS
 62
    7
 10
64.566354186216472
 20
253.86796684762169
 11
65.54114189831364
 21
254.84275360604454
  0
LINE
  8
_0-1_作画層１
  6
CONTINUOUS
 62
    7
 10
64.283506781736492
 20
253.86796684762169
 11
65.283508689085124
 21
254.86796875497032
  0
LINE
  8
_0-1_作画層１
  6
CONTINUOUS
 62
    7
 10
64.000659377256511
 20
253.86796684762169
 11
65.000660330930828
 21
254.86796875497032
  0
LINE
  8
_0-1_作画層１
  6
CONTINUOUS
 62
    7
 10
63.717811972776531
 20
253.86796684762169
 11
64.717812926450847
 21
254.86796875497032
  0
LINE
  8
_0-1_作画層１
  6
CONTINUOUS
 62
    7
 10
63.434973151365398
 20
253.86796684762169
 11
64.434974105039714
 21
254.86796875497032
  0
LINE
  8
_0-1_作画層１
  6
CONTINUOUS
 62
    7
 10
63.152125746885417
 20
253.86796684762169
 11
64.152126700559734
 21
254.86796875497032
  0
LINE
  8
_0-1_作画層１
  6
CONTINUOUS
 62
    7
 10
62.869286925474285
 20
253.86796684762169
 11
63.869287879148601
 21
254.86796875497032
  0
LINE
  8
_0-1_作画層１
  6
CONTINUOUS
 62
    7
 10
62.586438567319988
 20
253.86796684762169
 11
63.58644047466862
 21
254.86796875497032
  0
LINE
  8
_0-1_作画層１
  6
CONTINUOUS
 62
    7
 10
62.303591162840007
 20
253.86796684762169
 11
63.30359307018864
 21
254.86796875497032
  0
LINE
  8
_0-1_作画層１
  6
CONTINUOUS
 62
    7
 10
62.020743758360027
 20
253.86796684762169
 11
63.020744712034343
 21
254.86796875497032
  0
LINE
  8
_0-1_作画層１
  6
CONTINUOUS
 62
    7
 10
61.737904936948894
 20
253.86796684762169
 11
62.73790589062321
 21
254.86796875497032
  0
LINE
  8
_0-1_作画層１
  6
CONTINUOUS
 62
    7
 10
61.455066115537761
 20
253.86796684762169
 11
62.455067069212078
 21
254.86796875497032
  0
LINE
  8
_0-1_作画層１
  6
CONTINUOUS
 62
    7
 10
61.172217757383464
 20
253.86796684762169
 11
62.172219664732097
 21
254.86796875497032
  0
LINE
  8
_0-1_作画層１
  6
CONTINUOUS
 62
    7
 10
60.8893713065778
 20
253.86796684762169
 11
61.889373213926433
 21
254.86796875497032
  0
LINE
  8
_0-1_作画層１
  6
CONTINUOUS
 62
    7
 10
60.606522948423503
 20
253.86796684762169
 11
61.606524855772136
 21
254.86796875497032
  0
LINE
  8
_0-1_作画層１
  6
CONTINUOUS
 62
    7
 10
60.541144759336589
 20
254.08542557259727
 11
61.323686034361003
 21
254.86796875497032
  0
LINE
  8
_0-1_作画層１
  6
CONTINUOUS
 62
    7
 10
60.541144759336589
 20
254.36827393075157
 11
61.040837676206706
 21
254.86796875497032
  0
LINE
  8
_0-1_作画層１
  6
CONTINUOUS
 62
    7
 10
60.541144759336589
 20
254.65112228890587
 11
60.757998854795574
 21
254.86796875497032
  0
LINE
  8
_0-1_作画層１
  6
CONTINUOUS
 62
    7
 10
58.34377804485905
 20
253.86796684762169
 11
58.541140944639324
 21
254.06532211800743
  0
LINE
  8
_0-1_作画層１
  6
CONTINUOUS
 62
    7
 10
58.060929686704753
 20
253.86796684762169
 11
58.541140944639324
 21
254.34818573495079
  0
LINE
  8
_0-1_作画層１
  6
CONTINUOUS
 62
    7
 10
57.778083235899089
 20
253.86796684762169
 11
58.541140944639324
 21
254.63101883431602
  0
LINE
  8
_0-1_作画層１
  6
CONTINUOUS
 62
    7
 10
57.495234877744792
 20
253.86796684762169
 11
58.495236785093425
 21
254.86796875497032
  0
LINE
  8
_0-1_作画層１
  6
CONTINUOUS
 62
    7
 10
57.21239605633366
 20
253.86796684762169
 11
58.212397963682292
 21
254.86796875497032
  0
LINE
  8
_0-1_作画層１
  6
CONTINUOUS
 62
    7
 10
56.929557234922527
 20
253.86796684762169
 11
57.92955914227116
 21
254.86796875497032
  0
LINE
  8
_0-1_作画層１
  6
CONTINUOUS
 62
    7
 10
56.64670887676823
 20
253.86796684762169
 11
57.646710784116863
 21
254.86796875497032
  0
LINE
  8
_0-1_作画層１
  6
CONTINUOUS
 62
    7
 10
56.363862425962566
 20
253.86796684762169
 11
57.363864333311199
 21
254.86796875497032
  0
LINE
  8
_0-1_作画層１
  6
CONTINUOUS
 62
    7
 10
56.081014067808269
 20
253.86796684762169
 11
57.081015975156902
 21
254.86796875497032
  0
LINE
  8
_0-1_作画層１
  6
CONTINUOUS
 62
    7
 10
55.798175246397136
 20
253.86796684762169
 11
56.798177153745769
 21
254.86796875497032
  0
LINE
  8
_0-1_作画層１
  6
CONTINUOUS
 62
    7
 10
55.541146666685222
 20
253.89377518197227
 11
56.515338332334636
 21
254.86796875497032
  0
LINE
  8
_0-1_作画層１
  6
CONTINUOUS
 62
    7
 10
55.541146666685222
 20
254.17662354012657
 11
56.232482344785808
 21
254.86796875497032
  0
LINE
  8
_0-1_作画層１
  6
CONTINUOUS
 62
    7
 10
55.541146666685222
 20
254.45947189828087
 11
55.949643523374675
 21
254.86796875497032
  0
LINE
  8
_0-1_作画層１
  6
CONTINUOUS
 62
    7
 10
55.541146666685222
 20
254.74232025643516
 11
55.666795165220378
 21
254.86796875497032
  0
LINE
  8
_0-1_作画層１
  6
CONTINUOUS
 62
    7
 10
55.541146666685222
 20
253.86796684762169
 11
58.541140944639324
 21
253.86796684762169
  0
LINE
  8
_0-1_作画層１
  6
CONTINUOUS
 62
    7
 10
55.017585189024089
 20
244.88505859872032
 11
55.02407589642155
 21
244.89155121346641
  0
LINE
  8
_0-1_作画層１
  6
CONTINUOUS
 62
    7
 10
51.939235121885417
 20
247.96986504098106
 11
51.232125670591472
 21
247.26275368233848
  0
LINE
  8
_0-1_作画層１
  6
CONTINUOUS
 62
    7
 10
54.843860060850261
 20
244.99418182870079
 11
54.914952666441081
 21
245.06527443429161
  0
LINE
  8
_0-1_作画層１
  6
CONTINUOUS
 62
    7
 10
54.670136840025066
 20
245.10330505868126
 11
54.805829436460613
 21
245.23899956246544
  0
LINE
  8
_0-1_作画層１
  6
CONTINUOUS
 62
    7
 10
54.496411711851238
 20
245.2124206592672
 11
54.696715743223308
 21
245.41272278329063
  0
LINE
  8
_0-1_作画層１
  6
CONTINUOUS
 62
    7
 10
54.322688491026042
 20
245.3215343525045
 11
54.587592513242839
 21
245.5864383747213
  0
LINE
  8
_0-1_作画層１
  6
CONTINUOUS
 62
    7
 10
54.148963362852214
 20
245.43065758248497
 11
54.478467375913738
 21
245.76017113228966
  0
LINE
  8
_0-1_作画層１
  6
CONTINUOUS
 62
    7
 10
53.975240142027019
 20
245.53977318307091
 11
54.369353682676433
 21
245.93388672372032
  0
LINE
  8
_0-1_作画層１
  6
CONTINUOUS
 62
    7
 10
53.801505477110027
 20
245.64889641305138
 11
54.260230452695964
 21
246.10761948128868
  0
LINE
  8
_0-1_作画層１
  6
CONTINUOUS
 62
    7
 10
53.627782256284831
 20
245.75801010628868
 11
54.151107222715495
 21
246.28133507271934
  0
LINE
  8
_0-1_作画層１
  6
CONTINUOUS
 62
    7
 10
53.454066664854167
 20
245.86713333626915
 11
54.041991622129558
 21
246.45505066415001
  0
LINE
  8
_0-1_作画層１
  6
CONTINUOUS
 62
    7
 10
53.280333907285808
 20
245.97624893685509
 11
53.932868392149089
 21
246.62878342171837
  0
LINE
  8
_0-1_作画層１
  6
CONTINUOUS
 62
    7
 10
55.035029799619792
 20
244.87410469552208
 11
51.232125670591472
 21
247.26275368233848
  0
LINE
  8
_0-1_作画層１
  6
CONTINUOUS
 62
    7
 10
52.759152800718425
 20
246.30360909005333
 11
53.605508238950847
 21
247.14996452828575
  0
LINE
  8
_0-1_作画層１
  6
CONTINUOUS
 62
    7
 10
52.585437209287761
 20
246.41272469063927
 11
53.496385008970378
 21
247.32368011971641
  0
LINE
  8
_0-1_作画層１
  6
CONTINUOUS
 62
    7
 10
52.411704451719402
 20
246.52183838387657
 11
53.387269408384441
 21
247.49739571114708
  0
LINE
  8
_0-1_作画層１
  6
CONTINUOUS
 62
    7
 10
52.237979323545574
 20
246.6309711506002
 11
53.278146178403972
 21
247.67112846871544
  0
LINE
  8
_0-1_作画層１
  6
CONTINUOUS
 62
    7
 10
52.064256102720378
 20
246.74008484383751
 11
53.169022948423503
 21
247.84486313363243
  0
LINE
  8
_0-1_作画層１
  6
CONTINUOUS
 62
    7
 10
51.89053097454655
 20
246.84920044442345
 11
53.059899718443035
 21
248.01857872506309
  0
LINE
  8
_0-1_作画層１
  6
CONTINUOUS
 62
    7
 10
51.716807753721355
 20
246.95831413766075
 11
52.95078602520573
 21
248.19229240914513
  0
LINE
  8
_0-1_作画層１
  6
CONTINUOUS
 62
    7
 10
51.543082625547527
 20
247.06744690438438
 11
52.841662795225261
 21
248.36602707406212
  0
LINE
  8
_0-1_作画層１
  6
CONTINUOUS
 62
    7
 10
51.369357497373699
 20
247.17656250497032
 11
52.73253765789616
 21
248.53974266549278
  0
LINE
  8
_0-1_作画層１
  6
CONTINUOUS
 62
    7
 10
51.92959347454655
 20
247.9602233936422
 11
52.646346480527995
 21
248.67697449227501
  0
LINE
  8
_0-1_作画層１
  6
CONTINUOUS
 62
    7
 10
53.10660877911198
 20
246.08537216683555
 11
53.82374516216862
 21
246.80251617928673
  0
LINE
  8
_0-1_作画層１
  6
CONTINUOUS
 62
    7
 10
52.93287602154362
 20
246.19448586007286
 11
53.714621932188152
 21
246.97623177071739
  0
LINE
  8
_0-1_作画層１
  6
CONTINUOUS
 62
    7
 10
52.646346480527995
 20
248.67697449227501
 11
55.035029799619792
 21
244.87410469552208
  0
LINE
  8
_0-1_作画層１
  6
CONTINUOUS
 62
    7
 10
59.755767256895183
 20
249.9163944294088
 11
61.254781157652019
 21
250.62882347603966
  0
LINE
  8
_0-1_作画層１
  6
CONTINUOUS
 62
    7
 10
61.254781157652019
 20
250.62882347603966
 11
61.270450026670574
 21
250.63627739449669
  0
LINE
  8
_0-1_作画層１
  6
CONTINUOUS
 62
    7
 10
59.32651844708073
 20
250.81958313485313
 11
60.83665028301823
 21
251.53729553719688
  0
LINE
  8
_0-1_作画層１
  6
CONTINUOUS
 62
    7
 10
60.83665028301823
 20
251.53729553719688
 11
60.841199309507488
 21
251.53946609994102
  0
LINE
  8
_0-1_作画層１
  6
CONTINUOUS
 62
    7
 10
59.32651844708073
 20
250.81958313485313
 11
57.81711903301823
 21
250.10221786996055
  0
LINE
  8
_0-1_作画層１
  6
CONTINUOUS
 62
    7
 10
59.755767256895183
 20
249.9163944294088
 11
58.254479796568035
 21
249.20288010140587
  0
LINE
  8
_0-1_作画層１
  6
CONTINUOUS
 62
    7
 10
60.853780181089519
 20
250.43824120064903
 11
61.232549101987956
 21
250.81701012154747
  0
LINE
  8
_0-1_作画層１
  6
CONTINUOUS
 62
    7
 10
60.31475201336491
 20
250.18205948373009
 11
61.16155377117741
 21
251.02887077828575
  0
LINE
  8
_0-1_作画層１
  6
CONTINUOUS
 62
    7
 10
59.7757238456403
 20
249.92587776681114
 11
61.069770247617839
 21
251.21992607613731
  0
LINE
  8
_0-1_作画層１
  6
CONTINUOUS
 62
    7
 10
59.236703307310222
 20
249.66969795724083
 11
60.959737212339519
 21
251.39273186227013
  0
LINE
  8
_0-1_作画層１
  6
CONTINUOUS
 62
    7
 10
58.69767323223698
 20
249.41351624032188
 11
60.807710082212566
 21
251.5235435535543
  0
LINE
  8
_0-1_作画層１
  6
CONTINUOUS
 62
    7
 10
58.220769316831706
 20
249.21945114632774
 11
60.268681914487956
 21
251.26736183663536
  0
LINE
  8
_0-1_作画層１
  6
CONTINUOUS
 62
    7
 10
58.097430617490886
 20
249.37895889779259
 11
59.729651839414714
 21
251.01118011971641
  0
LINE
  8
_0-1_作画層１
  6
CONTINUOUS
 62
    7
 10
57.991168410459636
 20
249.555543141567
 11
59.190614134946941
 21
250.75499840279747
  0
ARC
  8
_0-1_作画層１
  6
CONTINUOUS
 62
    7
 10
59.541142851987956
 20
250.36798782845662
 40
1.7500000000000056
 50
43.385589599609901
 51
187.66662597656128
  0
ARC
  8
_0-1_作画層１
  6
CONTINUOUS
 62
    7
 10
59.541142851987786
 20
250.36798782845659
 40
1.750000000000157
 50
8.0641479492204127
 51
43.385284423826633
  0
ARC
  8
_0-1_作画層１
  6
CONTINUOUS
 62
    7
 10
59.541142851987956
 20
250.36798782845665
 40
1.7500000000000002
 50
222.75694274902352
 51
8.0641479492192616
  0
LINE
  8
_0-1_作画層１
  6
CONTINUOUS
 62
    7
 10
58.254479796568035
 20
249.20288010140587
 11
58.241094023862956
 21
249.19651146432091
  0
LINE
  8
_0-1_作画層１
  6
CONTINUOUS
 62
    7
 10
57.81711903301823
 20
250.10221786996055
 11
57.811826140562175
 21
250.09969826241661
  0
LINE
  8
_0-1_作画層１
  6
CONTINUOUS
 62
    7
 10
57.903582961240886
 20
249.75081558724571
 11
58.651585967222331
 21
250.49881859322716
  0
LINE
  8
_0-1_作画層１
  6
CONTINUOUS
 62
    7
 10
57.837556273618816
 20
249.96761055489708
 11
58.112574965635417
 21
250.24263687630821
  0
ARC
  8
_0-1_作画層１
  6
CONTINUOUS
 62
    7
 10
59.541142851987786
 20
250.36798782845656
 40
1.7499999999998153
 50
187.6666259765602
 51
222.75694274902523
  0
LINE
  8
_0-1_作画層１
  6
CONTINUOUS
 62
    7
 10
57.442820937315105
 20
247.56672211190391
 11
57.143062026182292
 21
247.16655273934532
  0
LINE
  8
_0-1_作画層１
  6
CONTINUOUS
 62
    7
 10
57.071278960386394
 20
247.22160072823692
 11
57.427756697813152
 21
247.57807655831505
  0
LINE
  8
_0-1_作画層１
  6
CONTINUOUS
 62
    7
 10
55.604871184507488
 20
248.09773750802208
 11
55.990254790464519
 21
248.52646179696251
  0
LINE
  8
_0-1_作画層１
  6
CONTINUOUS
 62
    7
 10
56.916407973447917
 20
247.34957809945274
 11
57.270951659361003
 21
247.70411224862266
  0
LINE
  8
_0-1_作画層１
  6
CONTINUOUS
 62
    7
 10
56.768676192442058
 20
247.48469276925255
 11
57.122310073057292
 21
247.83831902047325
  0
LINE
  8
_0-1_作画層１
  6
CONTINUOUS
 62
    7
 10
56.628022582212566
 20
247.62687798043419
 11
56.981761367002605
 21
247.98060722848106
  0
LINE
  8
_0-1_作画層１
  6
CONTINUOUS
 62
    7
 10
56.494447142759441
 20
247.77614899178673
 11
56.849313170591472
 21
248.13101692696739
  0
LINE
  8
_0-1_作画層１
  6
CONTINUOUS
 62
    7
 10
56.368026168027995
 20
247.93255920907188
 11
56.7250646659528
 21
248.28959770699669
  0
LINE
  8
_0-1_作画層１
  6
CONTINUOUS
 62
    7
 10
56.248851210752605
 20
248.09624977608848
 11
56.609168440977214
 21
248.45655937691856
  0
ARC
  8
_0-1_作画層１
  6
CONTINUOUS
 62
    7
 10
59.541142851987843
 20
250.36798782845656
 40
3.9999999999998592
 50
207.41172790527315
 51
233.16444396972707
  0
LINE
  8
_0-1_作画層１
  6
CONTINUOUS
 62
    7
 10
56.06749859539616
 20
250.81842728158165
 11
55.604871184507488
 21
248.09773750802208
  0
LINE
  8
_0-1_作画層１
  6
CONTINUOUS
 62
    7
 10
56.137128264585613
 20
248.26735802193809
 11
56.501918227354167
 21
248.63214607735802
  0
LINE
  8
_0-1_作画層１
  6
CONTINUOUS
 62
    7
 10
56.033080489317058
 20
248.44614716073204
 11
56.403678328672527
 21
248.81674500008751
  0
LINE
  8
_0-1_作画層１
  6
CONTINUOUS
 62
    7
 10
55.646472365537761
 20
248.34238739510704
 11
56.31495609966862
 21
249.01088066598106
  0
LINE
  8
_0-1_作画層１
  6
CONTINUOUS
 62
    7
 10
55.704423339048503
 20
248.68318672677208
 11
56.236436278501628
 21
249.2151996662252
  0
LINE
  8
_0-1_作画層１
  6
CONTINUOUS
 62
    7
 10
55.762376219907878
 20
249.02398605843712
 11
56.16900006023991
 21
249.43061180611778
  0
LINE
  8
_0-1_作画層１
  6
CONTINUOUS
 62
    7
 10
55.820319564024089
 20
249.36476822396446
 11
56.113849074522136
 21
249.65830727120567
  0
LINE
  8
_0-1_作画層１
  6
CONTINUOUS
 62
    7
 10
55.878270537534831
 20
249.7055503894918
 11
56.072589308897136
 21
249.89987679024864
  0
LINE
  8
_0-1_作画層１
  6
CONTINUOUS
 62
    7
 10
55.936213881651042
 20
250.04634972115684
 11
56.047471434751628
 21
250.15761681100059
  0
LINE
  8
_0-1_作画層１
  6
CONTINUOUS
 62
    7
 10
55.994164855161785
 20
250.38714905282188
 11
56.04177609173405
 21
250.43475838204552
  0
LINE
  8
_0-1_作画層１
  6
CONTINUOUS
 62
    7
 10
56.05211773602116
 20
250.72794838448692
 11
56.060586363950847
 21
250.73641701241661
  0
ARC
  8
_0-1_作画層１
  6
CONTINUOUS
 62
    7
 10
59.541142851987956
 20
250.36798782845665
 40
3.50000000000002
 50
172.61149597167963
 51
233.1645355224608
  0
LINE
  8
_0-1_作画層１
  6
CONTINUOUS
 62
    7
 10
108.77654209820376
 20
250.56067200204063
 11
109.34843960491763
 21
251.13255997201134
  0
LINE
  8
_0-1_作画層１
  6
CONTINUOUS
 62
    7
 10
108.3289121696149
 20
250.39586182137657
 11
109.51323071209536
 21
251.58019943734337
  0
LINE
  8
_0-1_作画層１
  6
CONTINUOUS
 62
    7
 10
108.0183652946149
 20
250.36816330453087
 11
109.54092922894107
 21
251.89074631234337
  0
LINE
  8
_0-1_作画層１
  6
CONTINUOUS
 62
    7
 10
107.76162472454654
 20
250.39426918526817
 11
109.51483288494693
 21
252.14748688241173
  0
LINE
  8
_0-1_作画層１
  6
CONTINUOUS
 62
    7
 10
107.53903713909732
 20
250.45451469918419
 11
109.45457974163638
 21
252.37007446786095
  0
LINE
  8
_0-1_作画層１
  6
CONTINUOUS
 62
    7
 10
107.34234753338443
 20
250.54068871041466
 11
109.36841335980044
 21
252.56674500008751
  0
LINE
  8
_0-1_作画層１
  6
CONTINUOUS
 62
    7
 10
107.16748562542544
 20
250.64866753121544
 11
109.26044407574283
 21
252.74161644478966
  0
LINE
  8
_0-1_作画層１
  6
CONTINUOUS
 62
    7
 10
107.01235333172427
 20
250.7763626148336
 11
109.1327394553815
 21
252.89674873849083
  0
LINE
  8
_0-1_作画層１
  6
CONTINUOUS
 62
    7
 10
106.87617817608462
 20
250.92304535409141
 11
108.98605671612368
 21
253.03293343087364
  0
LINE
  8
_0-1_作画層１
  6
CONTINUOUS
 62
    7
 10
106.75926914898501
 20
251.08895607491661
 11
108.82013645855533
 21
253.14983292123009
  0
LINE
  8
_0-1_作画層１
  6
CONTINUOUS
 62
    7
 10
106.66305103985415
 20
251.27558632394005
 11
108.63351765362368
 21
253.24605293770958
  0
LINE
  8
_0-1_作画層１
  6
CONTINUOUS
 62
    7
 10
106.59056606976138
 20
251.48595924874473
 11
108.423144728819
 21
253.31852646371055
  0
LINE
  8
_0-1_作画層１
  6
CONTINUOUS
 62
    7
 10
106.54783764568911
 20
251.72606010934044
 11
108.18303433148013
 21
253.36127396126915
  0
LINE
  8
_0-1_作画層１
  6
CONTINUOUS
 62
    7
 10
106.54772320477115
 20
252.0088016559713
 11
107.9003004142438
 21
253.36137886544395
  0
LINE
  8
_0-1_作画層１
  6
CONTINUOUS
 62
    7
 10
106.62844029156314
 20
252.37234802743126
 11
107.53674641338931
 21
253.28066177865196
  0
CIRCLE
  8
_0-1_作画層１
  6
CONTINUOUS
 62
    7
 10
108.04110279766665
 20
251.86799927254845
 40
1.5
  0
LINE
  8
_0-1_作画層１
  6
CONTINUOUS
 62
    7
 10
105.83260861126529
 20
193.59383125802208
 11
106.31524220196353
 21
194.07646484872032
  0
LINE
  8
_0-1_作画層１
  6
CONTINUOUS
 62
    7
 10
105.35773411480533
 20
193.40179558297325
 11
106.50727787701236
 21
194.55133934518028
  0
LINE
  8
_0-1_作画層１
  6
CONTINUOUS
 62
    7
 10
105.04108944622622
 20
193.36798973580528
 11
106.54108372418033
 21
194.86798401375938
  0
LINE
  8
_0-1_作画層１
  6
CONTINUOUS
 62
    7
 10
104.78097286907779
 20
193.39071960946251
 11
106.5183538505231
 21
195.12810249825645
  0
LINE
  8
_0-1_作画層１
  6
CONTINUOUS
 62
    7
 10
104.55600681988345
 20
193.4485923816793
 11
106.4604810783063
 21
195.35306854745079
  0
LINE
  8
_0-1_作画層１
  6
CONTINUOUS
 62
    7
 10
104.35742703167544
 20
193.53285141488243
 11
106.37622967449771
 21
195.55164642831016
  0
LINE
  8
_0-1_作画層１
  6
CONTINUOUS
 62
    7
 10
104.18087712017642
 20
193.6391498615377
 11
106.2699235984479
 21
195.72819633980919
  0
LINE
  8
_0-1_作画層１
  6
CONTINUOUS
 62
    7
 10
104.02419415203677
 20
193.76529808541466
 11
106.14377537457095
 21
195.88487930794884
  0
LINE
  8
_0-1_作画層１
  6
CONTINUOUS
 62
    7
 10
103.88648930279361
 20
193.91043968697716
 11
105.99863377300845
 21
196.022584157192
  0
LINE
  8
_0-1_作画層１
  6
CONTINUOUS
 62
    7
 10
103.76797810284243
 20
194.07476730843712
 11
105.83430615154849
 21
196.14109535714317
  0
LINE
  8
_0-1_作画層１
  6
CONTINUOUS
 62
    7
 10
103.66999188152896
 20
194.25961990853477
 11
105.64945355145083
 21
196.23908157845665
  0
LINE
  8
_0-1_作画層１
  6
CONTINUOUS
 62
    7
 10
103.59542599407779
 20
194.4679023792379
 11
105.44117108074771
 21
196.31364746590782
  0
LINE
  8
_0-1_作画層１
  6
CONTINUOUS
 62
    7
 10
103.54993382183658
 20
194.70524712105919
 11
105.20382633892642
 21
196.35914154549766
  0
LINE
  8
_0-1_作画層１
  6
CONTINUOUS
 62
    7
 10
103.54555073467837
 20
194.98370285531212
 11
104.92537060467349
 21
196.36352463265587
  0
LINE
  8
_0-1_作画層１
  6
CONTINUOUS
 62
    7
 10
103.61643353191958
 20
195.33743401070763
 11
104.57163944927798
 21
196.29264183541466
  0
CIRCLE
  8
_0-1_作画層１
  6
CONTINUOUS
 62
    7
 10
105.04108181683169
 20
194.86799164315391
 40
1.5
  0
LINE
  8
_0-1_作画層１
  6
CONTINUOUS
 62
    7
 10
45.541127593198894
 20
196.36802025338341
 11
46.541125685850261
 21
196.36802025338341
  0
LINE
  8
_0-1_作画層１
  6
CONTINUOUS
 62
    7
 10
46.541125685850261
 20
189.36801834603477
 11
46.541125685850261
 21
196.36802025338341
  0
LINE
  8
_0-1_作画層１
  6
CONTINUOUS
 62
    7
 10
45.541123778501628
 20
189.36801834603477
 11
46.541125685850261
 21
189.36801834603477
  0
LINE
  8
_0-1_作画層１
  6
CONTINUOUS
 62
    7
 10
45.541123778501628
 20
189.36801834603477
 11
45.541127593198894
 21
196.36802025338341
  0
LINE
  8
_0-1_作画層１
  6
CONTINUOUS
 62
    7
 10
48.541127593198894
 20
196.36802025338341
 11
49.541129500547527
 21
196.36802025338341
  0
LINE
  8
_0-1_作画層１
  6
CONTINUOUS
 62
    7
 10
49.541129500547527
 20
189.36801834603477
 11
49.541129500547527
 21
196.36802025338341
  0
LINE
  8
_0-1_作画層１
  6
CONTINUOUS
 62
    7
 10
48.541127593198894
 20
189.36801834603477
 11
49.541129500547527
 21
189.36801834603477
  0
LINE
  8
_0-1_作画層１
  6
CONTINUOUS
 62
    7
 10
48.541127593198894
 20
189.36801834603477
 11
48.541127593198894
 21
196.36802025338341
  0
LINE
  8
_0-1_作画層１
  6
CONTINUOUS
 62
    7
 10
51.54113140789616
 20
196.36802025338341
 11
52.541133315244792
 21
196.36802025338341
  0
LINE
  8
_0-1_作画層１
  6
CONTINUOUS
 62
    7
 10
52.541133315244792
 20
189.36801834603477
 11
52.541133315244792
 21
196.36802025338341
  0
LINE
  8
_0-1_作画層１
  6
CONTINUOUS
 62
    7
 10
51.54113140789616
 20
189.36801834603477
 11
52.541133315244792
 21
189.36801834603477
  0
LINE
  8
_0-1_作画層１
  6
CONTINUOUS
 62
    7
 10
51.54113140789616
 20
189.36801834603477
 11
51.54113140789616
 21
196.36802025338341
  0
INSERT
  2
-000-_D6
  8
_0-9_寸法線層１
 10
6.25
 20
4.75
 41
1
 42
1
 50
0
  0
LINE
  8
_0-1_作画層１
  6
CONTINUOUS
 62
    7
 10
213.54114416328451
 20
239.36797642707825
 11
213.54113581863734
 21
204.36797642707825
  0
LINE
  8
_0-1_作画層１
  6
CONTINUOUS
 62
    7
 10
217.54113581863734
 20
204.36797638436485
 11
213.54113581863734
 21
204.36797638436485
  0
LINE
  8
_0-1_作画層１
  6
CONTINUOUS
 62
    7
 10
215.54113581863734
 20
204.36797642707825
 11
215.54113629547433
 21
206.36797642707825
  0
LINE
  8
_0-1_作画層１
  6
CONTINUOUS
 62
    7
 10
216.84113629547434
 20
206.36797638436485
 11
217.5411361285814
 21
205.66797638436486
  0
LINE
  8
_0-1_作画層１
  6
CONTINUOUS
 62
    7
 10
215.54113629547433
 20
206.36797638436485
 11
216.84113629547434
 21
206.36797638436485
  0
LINE
  8
_0-1_作画層１
  6
CONTINUOUS
 62
    7
 10
213.54114237514585
 20
231.86797638436485
 11
194.54112377850163
 21
231.86797638436485
  0
LINE
  8
_0-1_作画層１
  6
CONTINUOUS
 62
    7
 10
213.54113760677603
 20
211.86797638436485
 11
194.54112377850163
 21
211.86797638436485
  0
TEXT
  8
_0-d_0_1
 62
    7
 10
45.134885648652585
 20
251.00327013865052
 40
5
 41
1
 50
0
  1
OFF
  0
TEXT
  8
_0-d_0_1
 62
    7
 10
66.384885648652585
 20
251.00327013865052
 40
5
 41
1
 50
0
  1
ON
  0
TEXT
  8
_0-d_0_1
 62
    7
 10
103.88488564865258
 20
243.50327013865052
 40
5
 41
1
 50
0
  1
PL
  0
TEXT
  8
_0-d_0_1
 62
    7
 10
102.63488564865258
 20
188.50327013865052
 40
5
 41
1
 50
0
  1
OUT
  0
TEXT
  8
_0-d_0_1
 62
    7
 10
52.634885648652585
 20
188.50327013865052
 40
5
 41
1
 50
0
  1
SPARE
  0
TEXT
  8
_0-7_注記層１
 62
    7
 10
343.04112377850163
 20
26.867976384364852
 40
4
 41
1
 50
0
  1
平野
  0
TEXT
  8
_0-7_注記層１
 62
    7
 10
306.25
 20
243
 40
3.5
 41
1
 50
0
  1
200時間（リチウム電池使用）
  0
TEXT
  8
_0-7_注記層１
 62
    7
 10
363.75
 20
17.25
 40
5
 41
1
 50
0
  1
ETS-703S-001-02
  0
LINE
  8
_0-1_作画層１
  6
CONTINUOUS
 62
    7
 10
42.041127635912289
 20
119.36796875497032
 11
114.04115433879313
 21
119.36795158883265
  0
LINE
  8
_0-1_作画層１
  6
CONTINUOUS
 62
    7
 10
73.041123778501628
 20
142.86796899339257
 11
73.041123778501628
 21
156.8679688507097
  0
LINE
  8
_0-1_作画層１
  6
CONTINUOUS
 62
    7
 10
83.041123778501614
 20
142.86796660920766
 11
83.041123778501614
 21
156.86796642049805
  0
LINE
  8
_0-1_作画層１
  6
CONTINUOUS
 62
    7
 10
93.66612382121501
 20
143.99296407601116
 11
61.791123821214967
 21
143.99297167560059
  0
LINE
  8
_0-1_作画層１
  6
CONTINUOUS
 62
    7
 10
61.791123778501571
 20
142.86797167560061
 11
61.791123778501571
 21
143.99297167560059
  0
LINE
  8
_0-1_作画層１
  6
CONTINUOUS
 62
    7
 10
93.666123778501614
 20
142.86796407601119
 11
93.666123778501614
 21
143.99296407601116
  0
LINE
  8
_0-1_作画層１
  6
CONTINUOUS
 62
    7
 10
93.66612382121501
 20
147.99296407601116
 11
61.791123821214967
 21
147.99297167560059
  0
LINE
  8
_0-1_作画層１
  6
CONTINUOUS
 62
    7
 10
93.666123778501614
 20
147.99296407601116
 11
93.666123778501614
 21
148.61796407601119
  0
LINE
  8
_0-1_作画層１
  6
CONTINUOUS
 62
    7
 10
93.66612382121501
 20
148.61796407601116
 11
61.791123821214967
 21
148.61797167560059
  0
LINE
  8
_0-1_作画層１
  6
CONTINUOUS
 62
    7
 10
61.791123778501571
 20
147.99297167560059
 11
61.791123778501571
 21
148.61797167560059
  0
LINE
  8
_0-1_作画層１
  6
CONTINUOUS
 62
    7
 10
63.041123778501571
 20
147.99297137757745
 11
63.041123778501571
 21
143.99297137757748
  0
LINE
  8
_0-1_作画層１
  6
CONTINUOUS
 62
    7
 10
71.791123778501571
 20
147.99296929141568
 11
71.791123778501571
 21
143.9929643740343
  0
LINE
  8
_0-1_作画層１
  6
CONTINUOUS
 62
    7
 10
64.916123778501571
 20
147.99297093054278
 11
64.916123778501571
 21
143.9929643740343
  0
LINE
  8
_0-1_作画層１
  6
CONTINUOUS
 62
    7
 10
92.416123778501614
 20
147.99296437403427
 11
92.416123778501614
 21
143.99296437403427
  0
LINE
  8
_0-1_作画層１
  6
CONTINUOUS
 62
    7
 10
85.541123778501614
 20
147.99296601316141
 11
85.541123778501614
 21
143.9929643740343
  0
LINE
  8
_0-1_作画層１
  6
CONTINUOUS
 62
    7
 10
78.666123778501571
 20
147.99296765228851
 11
78.666123778501571
 21
143.9929643740343
  0
ARC
  8
_0-1_作画層１
  6
CONTINUOUS
 62
    7
 10
105.4161237785016
 20
144.99296061894304
 40
1.5000000000000142
 50
90.000013660373455
 51
179.99999999999892
  0
LINE
  8
_0-1_作画層１
  6
CONTINUOUS
 62
    7
 10
105.41612342087386
 20
146.49296061894302
 11
105.66612337816046
 21
146.49296067854763
  0
ARC
  8
_0-1_作画層１
  6
CONTINUOUS
 62
    7
 10
105.66612370558525
 20
144.99296060563134
 40
1.5000000729163292
 50
0.0000027851981984
 51
90.00001250670492
  0
LINE
  8
_0-1_作画層１
  6
CONTINUOUS
 62
    7
 10
103.91612377850159
 20
142.8679753412849
 11
103.91612377850159
 21
144.99296061894307
  0
LINE
  8
_0-1_作画層１
  6
CONTINUOUS
 62
    7
 10
107.16612377850159
 20
142.86797456642481
 11
107.16612377850159
 21
144.99296067854766
  0
LINE
  8
_0-1_作画層１
  6
CONTINUOUS
 62
    7
 10
53.041123778501628
 20
142.86797376176236
 11
53.041123778501628
 21
148.36797638436485
  0
ARC
  8
_0-1_作画層１
  6
CONTINUOUS
 62
    7
 10
52.041123778501628
 20
148.36797638436485
 40
1
 50
0
 51
90.00000000000081
  0
LINE
  8
_0-1_作画層１
  6
CONTINUOUS
 62
    7
 10
48.041123778501628
 20
142.86797495385483
 11
48.041123778501628
 21
145.86797638436485
  0
ARC
  8
_0-1_作画層１
  6
CONTINUOUS
 62
    7
 10
47.041123778501628
 20
145.86797638436485
 40
1
 50
0
 51
90.00000000000081
  0
LINE
  8
_0-1_作画層１
  6
CONTINUOUS
 62
    7
 10
52.041123778501628
 20
149.36797638436485
 11
46.541123778501628
 21
149.36797638436485
  0
ARC
  8
_0-1_作画層１
  6
CONTINUOUS
 62
    7
 10
46.5411237785016
 20
148.36797638436485
 40
1
 50
89.99999999999919
 51
180
  0
LINE
  8
_0-1_作画層１
  6
CONTINUOUS
 62
    7
 10
47.041123778501628
 20
146.86797638436485
 11
46.541123778501628
 21
146.86797638436485
  0
LINE
  8
_0-1_作画層１
  6
CONTINUOUS
 62
    7
 10
45.541123778501628
 20
148.36797638436485
 11
45.541123778501628
 21
147.86797638436485
  0
ARC
  8
_0-1_作画層１
  6
CONTINUOUS
 62
    7
 10
46.5411237785016
 20
147.86797638436485
 40
1
 50
180
 51
270.0000000000008
  0
LINE
  8
_0-1_作画層１
  6
CONTINUOUS
 62
    7
 10
55.541123778501628
 20
142.86797376176236
 11
55.541123778501628
 21
148.36797638436485
  0
ARC
  8
_0-1_作画層１
  6
CONTINUOUS
 62
    7
 10
54.541123778501628
 20
148.36797638436485
 40
1
 50
0
 51
90.00000000000081
  0
LINE
  8
_0-1_作画層１
  6
CONTINUOUS
 62
    7
 10
54.541123778501628
 20
149.36797638436485
 11
49.041123778501628
 21
149.36797638436485
  0
LINE
  8
_0-1_作画層１
  6
CONTINUOUS
 62
    7
 10
42.041127593198894
 20
140.36797638436485
 11
114.04115429607974
 21
140.36795921822716
  0
LINE
  8
_0-1_作画層１
  6
CONTINUOUS
 62
    7
 10
73.291123821215024
 20
140.36796893378792
 11
42.041127593198894
 21
140.36797638436485
  0
LINE
  8
_0-1_作画層１
  6
CONTINUOUS
 62
    7
 10
42.041127593198894
 20
134.36796875497029
 11
42.041127593198894
 21
156.86797638436485
  0
LINE
  8
_0-1_作画層１
  6
CONTINUOUS
 62
    7
 10
42.041127593198894
 20
134.36796875497029
 11
114.04115433879312
 21
134.36795158883263
  0
LINE
  8
_0-1_作画層１
  6
CONTINUOUS
 62
    7
 10
114.04115429607972
 20
142.86795921822716
 11
42.041127635912289
 21
142.86797638436485
  0
LINE
  8
_0-1_作画層１
  6
CONTINUOUS
 62
    7
 10
42.041127593198894
 20
108.86796875497032
 11
42.041127593198894
 21
119.36797638436485
  0
LINE
  8
_0-1_作画層１
  6
CONTINUOUS
 62
    7
 10
114.04115429607974
 20
108.86795158883263
 11
114.04115429607974
 21
119.36795888683457
  0
LINE
  8
_0-1_作画層１
  6
CONTINUOUS
 62
    7
 10
111.79113140789615
 20
134.36795212527969
 11
111.79113140789615
 21
119.36797638436485
  0
LINE
  8
_0-1_作画層１
  6
CONTINUOUS
 62
    7
 10
44.291127593198894
 20
134.36796821852872
 11
44.291127593198894
 21
119.36797638436485
  0
LINE
  8
_0-1_作画層１
  6
CONTINUOUS
 62
    7
 10
64.041046531009783
 20
120.3679635097829
 11
58.041123778501628
 21
119.36797638436485
  0
LINE
  8
_0-1_作画層１
  6
CONTINUOUS
 62
    7
 10
92.041201025993445
 20
120.36796350978287
 11
98.0411237785016
 21
119.36797638436485
  0
LINE
  8
_0-1_作画層１
  6
CONTINUOUS
 62
    7
 10
92.041241080578104
 20
120.36795683401877
 11
64.041046531009783
 21
120.3679635097829
  0
LINE
  8
_0-1_作画層１
  6
CONTINUOUS
 62
    7
 10
94.341123778501611
 20
105.36800103578493
 11
94.341123778501611
 21
117.36800103578493
  0
LINE
  8
_0-1_作画層１
  6
CONTINUOUS
 62
    7
 10
94.341123778501611
 20
117.36800103578493
 11
94.341123778501611
 21
109.36800103578493
  0
LINE
  8
_0-1_作画層１
  6
CONTINUOUS
 62
    7
 10
96.991123778501617
 20
105.36800103578493
 11
96.991123778501617
 21
117.36800103578493
  0
LINE
  8
_0-1_作画層１
  6
CONTINUOUS
 62
    7
 10
96.991123778501617
 20
117.36800103578493
 11
96.991123778501617
 21
109.36800103578493
  0
ARC
  8
_0-1_作画層１
  6
CONTINUOUS
 62
    7
 10
99.716123778501625
 20
111.34600355631066
 40
1.5000000000000142
 50
90.00000000000054
 51
179.99999999999892
  0
LINE
  8
_0-1_作画層１
  6
CONTINUOUS
 62
    7
 10
99.716123778501611
 20
112.84600355631069
 11
102.96612377850161
 21
112.84600355631069
  0
ARC
  8
_0-1_作画層１
  6
CONTINUOUS
 62
    7
 10
102.9661237785016
 20
111.34600355631066
 40
1.5000000000000284
 50
0.0000000000010856
 51
89.99999999999946
  0
LINE
  8
_0-1_作画層１
  6
CONTINUOUS
 62
    7
 10
98.216123778501611
 20
111.34600355631069
 11
98.216123778501611
 21
110.84600355631069
  0
ARC
  8
_0-1_作画層１
  6
CONTINUOUS
 62
    7
 10
98.716123778501597
 20
110.84600355631068
 40
0.4999999999999856
 50
179.99999999999838
 51
270.00000000000159
  0
LINE
  8
_0-1_作画層１
  6
CONTINUOUS
 62
    7
 10
98.716123778501611
 20
110.34600355631069
 11
103.96612377850161
 21
110.34600355631069
  0
LINE
  8
_0-1_作画層１
  6
CONTINUOUS
 62
    7
 10
104.46612377850161
 20
111.34600355631069
 11
104.46612377850161
 21
110.84600355631069
  0
ARC
  8
_0-1_作画層１
  6
CONTINUOUS
 62
    7
 10
103.96612377850163
 20
110.84600355631068
 40
0.4999999999999856
 50
269.99999999999835
 51
0.0000000000016666
  0
ARC
  8
_0-1_作画層１
  6
CONTINUOUS
 62
    7
 10
98.410488454722085
 20
110.49360355631082
 40
0.5000000000001421
 50
270.00000000000489
 51
296.58704853183519
  0
ARC
  8
_0-1_作画層１
  6
CONTINUOUS
 62
    7
 10
98.759911057735152
 20
109.86800355630947
 40
0.499999999998792
 50
269.99999999998209
 51
288.45144842303034
  0
LINE
  8
_0-1_作画層１
  6
CONTINUOUS
 62
    7
 10
98.918161531463284
 20
109.39370745937886
 11
99.701586025539967
 21
109.65509965324252
  0
ARC
  8
_0-1_作画層１
  6
CONTINUOUS
 62
    7
 10
99.859836499268312
 20
109.18080355631029
 40
0.5000000000003842
 50
90.000000000004903
 51
108.45144842299523
  0
LINE
  8
_0-1_作画層１
  6
CONTINUOUS
 62
    7
 10
98.634266933034539
 20
110.04647584229131
 11
99.047980623968684
 21
110.25353127033004
  0
ARC
  8
_0-1_作画層１
  6
CONTINUOUS
 62
    7
 10
99.271759102281138
 20
109.80640355631054
 40
0.5000000000001423
 50
90.000000000004903
 51
116.58704853183521
  0
LINE
  8
_0-1_作画層１
  6
CONTINUOUS
 62
    7
 10
99.859836499268269
 20
109.68080355631068
 11
102.822411057735
 21
109.68080355631068
  0
ARC
  8
_0-1_作画層１
  6
CONTINUOUS
 62
    7
 10
102.82241105773494
 20
109.18080355631028
 40
0.5000000000003979
 50
71.548551577005298
 51
89.999999999993491
  0
LINE
  8
_0-1_作画層１
  6
CONTINUOUS
 62
    7
 10
102.98066153146328
 20
109.65509965324252
 11
103.76408602553997
 21
109.39370745937885
  0
ARC
  8
_0-1_作画層１
  6
CONTINUOUS
 62
    7
 10
103.92233649926814
 20
109.86800355631001
 40
0.4999999999993328
 50
251.54855157698523
 51
270.00000000001307
  0
ARC
  8
_0-1_作画層１
  6
CONTINUOUS
 62
    7
 10
103.95925910228114
 20
110.49360355631082
 40
0.5000000000001421
 50
243.41295146816481
 51
269.99999999999511
  0
LINE
  8
_0-1_作画層１
  6
CONTINUOUS
 62
    7
 10
103.73548062396868
 20
110.04647584229131
 11
103.32176693303452
 21
110.25353127033004
  0
LINE
  8
_0-1_作画層１
  6
CONTINUOUS
 62
    7
 10
99.271759102281095
 20
110.30640355631068
 11
103.09798845472211
 21
110.30640355631068
  0
ARC
  8
_0-1_作画層１
  6
CONTINUOUS
 62
    7
 10
103.0979884547221
 20
109.80640355631066
 40
0.5000000000000276
 50
63.412951468161879
 51
89.999999999998352
  0
LINE
  8
_0-1_作画層１
  6
CONTINUOUS
 62
    7
 10
105.49112377850162
 20
109.36800355631068
 11
98.216123778501611
 21
109.36800355631068
  0
LINE
  8
_0-1_作画層１
  6
CONTINUOUS
 62
    7
 10
105.49112377850162
 20
109.36800355631068
 11
103.92233649926825
 21
109.36800355631068
  0
LINE
  8
_0-1_作画層１
  6
CONTINUOUS
 62
    7
 10
105.49112377850162
 20
109.99360355631067
 11
103.9592591022811
 21
109.99360355631067
  0
LINE
  8
_0-1_作画層１
  6
CONTINUOUS
 62
    7
 10
96.991123778501617
 20
109.99360355631067
 11
98.410488454722127
 21
109.99360355631067
  0
LINE
  8
_0-1_作画層１
  6
CONTINUOUS
 62
    7
 10
96.991123778501617
 20
109.36800355631068
 11
98.759911057734996
 21
109.36800355631068
  0
ARC
  8
_0-1_作画層１
  6
CONTINUOUS
 62
    7
 10
88.56612377850162
 20
111.34600103578491
 40
1.5000000000000142
 50
90.00000000000054
 51
179.99999999999892
  0
LINE
  8
_0-1_作画層１
  6
CONTINUOUS
 62
    7
 10
88.566123778501606
 20
112.84600103578494
 11
91.816123778501606
 21
112.84600103578494
  0
ARC
  8
_0-1_作画層１
  6
CONTINUOUS
 62
    7
 10
91.816123778501591
 20
111.34600103578491
 40
1.5000000000000284
 50
0.0000000000010856
 51
89.99999999999946
  0
LINE
  8
_0-1_作画層１
  6
CONTINUOUS
 62
    7
 10
87.066123778501606
 20
111.34600103578494
 11
87.066123778501606
 21
110.84600103578494
  0
ARC
  8
_0-1_作画層１
  6
CONTINUOUS
 62
    7
 10
87.566123778501591
 20
110.84600103578492
 40
0.4999999999999856
 50
179.99999999999838
 51
270.00000000000159
  0
LINE
  8
_0-1_作画層１
  6
CONTINUOUS
 62
    7
 10
87.566123778501606
 20
110.34600103578494
 11
92.816123778501606
 21
110.34600103578494
  0
LINE
  8
_0-1_作画層１
  6
CONTINUOUS
 62
    7
 10
93.316123778501606
 20
111.34600103578494
 11
93.316123778501606
 21
110.84600103578494
  0
ARC
  8
_0-1_作画層１
  6
CONTINUOUS
 62
    7
 10
92.81612377850162
 20
110.84600103578492
 40
0.4999999999999856
 50
269.99999999999835
 51
0.0000000000016666
  0
ARC
  8
_0-1_作画層１
  6
CONTINUOUS
 62
    7
 10
87.260488454722079
 20
110.49360103578506
 40
0.5000000000001421
 50
270.00000000000489
 51
296.58704853183519
  0
ARC
  8
_0-1_作画層１
  6
CONTINUOUS
 62
    7
 10
87.609911057735147
 20
109.86800103578372
 40
0.499999999998792
 50
269.99999999998209
 51
288.45144842303034
  0
LINE
  8
_0-1_作画層１
  6
CONTINUOUS
 62
    7
 10
87.768161531463278
 20
109.39370493885311
 11
88.551586025539962
 21
109.65509713271676
  0
ARC
  8
_0-1_作画層１
  6
CONTINUOUS
 62
    7
 10
88.709836499268306
 20
109.18080103578454
 40
0.5000000000003842
 50
90.000000000004903
 51
108.45144842299523
  0
LINE
  8
_0-1_作画層１
  6
CONTINUOUS
 62
    7
 10
87.484266933034533
 20
110.04647332176556
 11
87.897980623968678
 21
110.25352874980429
  0
ARC
  8
_0-1_作画層１
  6
CONTINUOUS
 62
    7
 10
88.121759102281132
 20
109.80640103578479
 40
0.5000000000001423
 50
90.000000000004903
 51
116.58704853183521
  0
LINE
  8
_0-1_作画層１
  6
CONTINUOUS
 62
    7
 10
88.709836499268263
 20
109.68080103578492
 11
91.67241105773499
 21
109.68080103578492
  0
ARC
  8
_0-1_作画層１
  6
CONTINUOUS
 62
    7
 10
91.672411057734934
 20
109.18080103578453
 40
0.5000000000003979
 50
71.548551577005298
 51
89.999999999993491
  0
LINE
  8
_0-1_作画層１
  6
CONTINUOUS
 62
    7
 10
91.830661531463278
 20
109.65509713271676
 11
92.614086025539962
 21
109.39370493885309
  0
ARC
  8
_0-1_作画層１
  6
CONTINUOUS
 62
    7
 10
92.772336499268135
 20
109.86800103578426
 40
0.4999999999993328
 50
251.54855157698523
 51
270.00000000001307
  0
ARC
  8
_0-1_作画層１
  6
CONTINUOUS
 62
    7
 10
92.809259102281132
 20
110.49360103578506
 40
0.5000000000001421
 50
243.41295146816481
 51
269.99999999999511
  0
LINE
  8
_0-1_作画層１
  6
CONTINUOUS
 62
    7
 10
92.585480623968678
 20
110.04647332176556
 11
92.171766933034519
 21
110.25352874980429
  0
LINE
  8
_0-1_作画層１
  6
CONTINUOUS
 62
    7
 10
88.121759102281089
 20
110.30640103578493
 11
91.947988454722108
 21
110.30640103578493
  0
ARC
  8
_0-1_作画層１
  6
CONTINUOUS
 62
    7
 10
91.947988454722093
 20
109.8064010357849
 40
0.5000000000000276
 50
63.412951468161879
 51
89.999999999998352
  0
LINE
  8
_0-1_作画層１
  6
CONTINUOUS
 62
    7
 10
94.341123778501611
 20
109.36800103578493
 11
87.066123778501606
 21
109.36800103578493
  0
LINE
  8
_0-1_作画層１
  6
CONTINUOUS
 62
    7
 10
94.341123778501611
 20
109.36800103578493
 11
92.772336499268249
 21
109.36800103578493
  0
LINE
  8
_0-1_作画層１
  6
CONTINUOUS
 62
    7
 10
94.341123778501611
 20
109.99360103578492
 11
92.809259102281089
 21
109.99360103578492
  0
LINE
  8
_0-1_作画層１
  6
CONTINUOUS
 62
    7
 10
85.841123778501611
 20
109.99360103578492
 11
87.260488454722122
 21
109.99360103578492
  0
LINE
  8
_0-1_作画層１
  6
CONTINUOUS
 62
    7
 10
85.841123778501611
 20
109.36800103578493
 11
87.60991105773499
 21
109.36800103578493
  0
LINE
  8
_0-1_作画層１
  6
CONTINUOUS
 62
    7
 10
61.741123778501617
 20
105.36800103578493
 11
61.741123778501617
 21
117.36800103578493
  0
LINE
  8
_0-1_作画層１
  6
CONTINUOUS
 62
    7
 10
61.741123778501617
 20
117.36800103578493
 11
61.741123778501617
 21
109.36800103578493
  0
LINE
  8
_0-1_作画層１
  6
CONTINUOUS
 62
    7
 10
59.091123778501583
 20
105.36800103578493
 11
59.091123778501583
 21
117.36800103578493
  0
LINE
  8
_0-1_作画層１
  6
CONTINUOUS
 62
    7
 10
59.091123778501583
 20
117.36800103578493
 11
59.091123778501583
 21
109.36800103578493
  0
ARC
  8
_0-1_作画層１
  6
CONTINUOUS
 62
    7
 10
56.366123778501589
 20
111.34600355631066
 40
1.5000000000000213
 50
0.0000000000010856
 51
89.999999999999204
  0
LINE
  8
_0-1_作画層１
  6
CONTINUOUS
 62
    7
 10
56.366123778501617
 20
112.84600355631069
 11
53.116123778501617
 21
112.84600355631069
  0
ARC
  8
_0-1_作画層１
  6
CONTINUOUS
 62
    7
 10
53.116123778501617
 20
111.34600355631066
 40
1.5000000000000284
 50
90.00000000000081
 51
179.99999999999892
  0
LINE
  8
_0-1_作画層１
  6
CONTINUOUS
 62
    7
 10
57.866123778501617
 20
111.34600355631069
 11
57.866123778501617
 21
110.84600355631069
  0
ARC
  8
_0-1_作画層１
  6
CONTINUOUS
 62
    7
 10
57.366123778501617
 20
110.84600355631068
 40
0.4999999999999926
 50
269.9999999999992
 51
0.0000000000016284
  0
LINE
  8
_0-1_作画層１
  6
CONTINUOUS
 62
    7
 10
57.366123778501617
 20
110.34600355631069
 11
52.116123778501617
 21
110.34600355631069
  0
LINE
  8
_0-1_作画層１
  6
CONTINUOUS
 62
    7
 10
51.616123778501617
 20
111.34600355631069
 11
51.616123778501617
 21
110.84600355631069
  0
ARC
  8
_0-1_作画層１
  6
CONTINUOUS
 62
    7
 10
52.116123778501589
 20
110.84600355631068
 40
0.4999999999999856
 50
179.99999999999838
 51
270.0000000000008
  0
ARC
  8
_0-1_作画層１
  6
CONTINUOUS
 62
    7
 10
57.671759102281129
 20
110.49360355631082
 40
0.5000000000001421
 50
243.41295146816481
 51
269.99999999999511
  0
ARC
  8
_0-1_作画層１
  6
CONTINUOUS
 62
    7
 10
57.322336499268062
 20
109.86800355630947
 40
0.499999999998792
 50
251.54855157697051
 51
270.00000000001876
  0
LINE
  8
_0-1_作画層１
  6
CONTINUOUS
 62
    7
 10
57.164086025539916
 20
109.39370745937886
 11
56.380661531463261
 21
109.65509965324252
  0
ARC
  8
_0-1_作画層１
  6
CONTINUOUS
 62
    7
 10
56.222411057734917
 20
109.18080355631029
 40
0.5000000000003842
 50
71.548551577004758
 51
89.999999999995097
  0
LINE
  8
_0-1_作画層１
  6
CONTINUOUS
 62
    7
 10
57.447980623968675
 20
110.04647584229131
 11
57.03426693303453
 21
110.25353127033004
  0
ARC
  8
_0-1_作画層１
  6
CONTINUOUS
 62
    7
 10
56.810488454722076
 20
109.80640355631054
 40
0.5000000000001423
 50
63.412951468164792
 51
89.999999999995111
  0
LINE
  8
_0-1_作画層１
  6
CONTINUOUS
 62
    7
 10
56.222411057734945
 20
109.68080355631068
 11
53.259836499268204
 21
109.68080355631068
  0
ARC
  8
_0-1_作画層１
  6
CONTINUOUS
 62
    7
 10
53.25983649926826
 20
109.18080355631028
 40
0.5000000000003979
 50
90.000000000006509
 51
108.45144842299474
  0
LINE
  8
_0-1_作画層１
  6
CONTINUOUS
 62
    7
 10
53.101586025539916
 20
109.65509965324252
 11
52.318161531463261
 21
109.39370745937885
  0
ARC
  8
_0-1_作画層１
  6
CONTINUOUS
 62
    7
 10
52.159911057735087
 20
109.86800355631001
 40
0.4999999999993304
 50
269.99999999998613
 51
288.45144842301397
  0
ARC
  8
_0-1_作画層１
  6
CONTINUOUS
 62
    7
 10
52.122988454722076
 20
110.49360355631082
 40
0.5000000000001421
 50
270.00000000000489
 51
296.58704853183519
  0
LINE
  8
_0-1_作画層１
  6
CONTINUOUS
 62
    7
 10
52.34676693303453
 20
110.04647584229131
 11
52.760480623968704
 21
110.25353127033004
  0
LINE
  8
_0-1_作画層１
  6
CONTINUOUS
 62
    7
 10
56.810488454722133
 20
110.30640355631068
 11
52.984259102281101
 21
110.30640355631068
  0
ARC
  8
_0-1_作画層１
  6
CONTINUOUS
 62
    7
 10
52.984259102281101
 20
109.80640355631066
 40
0.5000000000000276
 50
90.000000000001634
 51
116.58704853183816
  0
LINE
  8
_0-1_作画層１
  6
CONTINUOUS
 62
    7
 10
50.591123778501583
 20
109.36800355631068
 11
57.866123778501617
 21
109.36800355631068
  0
LINE
  8
_0-1_作画層１
  6
CONTINUOUS
 62
    7
 10
50.591123778501583
 20
109.36800355631068
 11
52.159911057734973
 21
109.36800355631068
  0
LINE
  8
_0-1_作画層１
  6
CONTINUOUS
 62
    7
 10
50.591123778501583
 20
109.99360355631067
 11
52.122988454722133
 21
109.99360355631067
  0
LINE
  8
_0-1_作画層１
  6
CONTINUOUS
 62
    7
 10
59.091123778501583
 20
109.99360355631067
 11
57.671759102281101
 21
109.99360355631067
  0
LINE
  8
_0-1_作画層１
  6
CONTINUOUS
 62
    7
 10
59.091123778501583
 20
109.36800355631068
 11
57.322336499268204
 21
109.36800355631068
  0
ARC
  8
_0-1_作画層１
  6
CONTINUOUS
 62
    7
 10
67.516123778501594
 20
111.34600103578491
 40
1.5000000000000213
 50
0.0000000000010856
 51
89.999999999999204
  0
LINE
  8
_0-1_作画層１
  6
CONTINUOUS
 62
    7
 10
67.516123778501594
 20
112.84600103578494
 11
64.266123778501594
 21
112.84600103578494
  0
ARC
  8
_0-1_作画層１
  6
CONTINUOUS
 62
    7
 10
64.266123778501623
 20
111.34600103578491
 40
1.5000000000000284
 50
90.00000000000081
 51
179.99999999999892
  0
LINE
  8
_0-1_作画層１
  6
CONTINUOUS
 62
    7
 10
69.016123778501594
 20
111.34600103578494
 11
69.016123778501594
 21
110.84600103578494
  0
ARC
  8
_0-1_作画層１
  6
CONTINUOUS
 62
    7
 10
68.516123778501623
 20
110.84600103578492
 40
0.4999999999999926
 50
269.9999999999992
 51
0.0000000000016284
  0
LINE
  8
_0-1_作画層１
  6
CONTINUOUS
 62
    7
 10
68.516123778501594
 20
110.34600103578494
 11
63.266123778501594
 21
110.34600103578494
  0
LINE
  8
_0-1_作画層１
  6
CONTINUOUS
 62
    7
 10
62.766123778501594
 20
111.34600103578494
 11
62.766123778501594
 21
110.84600103578494
  0
ARC
  8
_0-1_作画層１
  6
CONTINUOUS
 62
    7
 10
63.266123778501594
 20
110.84600103578492
 40
0.4999999999999856
 50
179.99999999999838
 51
270.0000000000008
  0
ARC
  8
_0-1_作画層１
  6
CONTINUOUS
 62
    7
 10
68.821759102281135
 20
110.49360103578506
 40
0.5000000000001421
 50
243.41295146816481
 51
269.99999999999511
  0
ARC
  8
_0-1_作画層１
  6
CONTINUOUS
 62
    7
 10
68.472336499268067
 20
109.86800103578372
 40
0.499999999998792
 50
251.54855157697051
 51
270.00000000001876
  0
LINE
  8
_0-1_作画層１
  6
CONTINUOUS
 62
    7
 10
68.31408602553995
 20
109.39370493885311
 11
67.530661531463238
 21
109.65509713271676
  0
ARC
  8
_0-1_作画層１
  6
CONTINUOUS
 62
    7
 10
67.372411057734894
 20
109.18080103578454
 40
0.5000000000003842
 50
71.548551577004758
 51
89.999999999995097
  0
LINE
  8
_0-1_作画層１
  6
CONTINUOUS
 62
    7
 10
68.597980623968681
 20
110.04647332176556
 11
68.184266933034536
 21
110.25352874980429
  0
ARC
  8
_0-1_作画層１
  6
CONTINUOUS
 62
    7
 10
67.960488454722082
 20
109.80640103578479
 40
0.5000000000001423
 50
63.412951468164792
 51
89.999999999995111
  0
LINE
  8
_0-1_作画層１
  6
CONTINUOUS
 62
    7
 10
67.372411057734951
 20
109.68080103578492
 11
64.409836499268238
 21
109.68080103578492
  0
ARC
  8
_0-1_作画層１
  6
CONTINUOUS
 62
    7
 10
64.409836499268295
 20
109.18080103578453
 40
0.5000000000003979
 50
90.000000000006509
 51
108.45144842299474
  0
LINE
  8
_0-1_作画層１
  6
CONTINUOUS
 62
    7
 10
64.25158602553995
 20
109.65509713271676
 11
63.468161531463238
 21
109.39370493885309
  0
ARC
  8
_0-1_作画層１
  6
CONTINUOUS
 62
    7
 10
63.309911057735093
 20
109.86800103578426
 40
0.4999999999993304
 50
269.99999999998613
 51
288.45144842301397
  0
ARC
  8
_0-1_作画層１
  6
CONTINUOUS
 62
    7
 10
63.272988454722082
 20
110.49360103578506
 40
0.5000000000001421
 50
270.00000000000489
 51
296.58704853183519
  0
LINE
  8
_0-1_作画層１
  6
CONTINUOUS
 62
    7
 10
63.496766933034536
 20
110.04647332176556
 11
63.910480623968681
 21
110.25352874980429
  0
LINE
  8
_0-1_作画層１
  6
CONTINUOUS
 62
    7
 10
67.96048845472211
 20
110.30640103578493
 11
64.134259102281106
 21
110.30640103578493
  0
ARC
  8
_0-1_作画層１
  6
CONTINUOUS
 62
    7
 10
64.134259102281135
 20
109.8064010357849
 40
0.5000000000000276
 50
90.000000000001634
 51
116.58704853183816
  0
LINE
  8
_0-1_作画層１
  6
CONTINUOUS
 62
    7
 10
61.741123778501617
 20
109.36800103578493
 11
69.016123778501594
 21
109.36800103578493
  0
LINE
  8
_0-1_作画層１
  6
CONTINUOUS
 62
    7
 10
61.741123778501617
 20
109.36800103578493
 11
63.309911057734951
 21
109.36800103578493
  0
LINE
  8
_0-1_作画層１
  6
CONTINUOUS
 62
    7
 10
61.741123778501617
 20
109.99360103578492
 11
63.27298845472211
 21
109.99360103578492
  0
LINE
  8
_0-1_作画層１
  6
CONTINUOUS
 62
    7
 10
70.241123778501617
 20
109.99360103578492
 11
68.821759102281078
 21
109.99360103578492
  0
LINE
  8
_0-1_作画層１
  6
CONTINUOUS
 62
    7
 10
70.241123778501617
 20
109.36800103578493
 11
68.472336499268238
 21
109.36800103578493
  0
LINE
  8
_0-1_作画層１
  6
CONTINUOUS
 62
    7
 10
105.49112377850162
 20
105.36800547778772
 11
85.841123778501611
 21
105.36800103578493
  0
LINE
  8
_0-1_作画層１
  6
CONTINUOUS
 62
    7
 10
50.591123778501611
 20
105.36800547778772
 11
70.241123778501617
 21
105.36800103578493
  0
LINE
  8
_0-1_作画層１
  6
CONTINUOUS
 62
    7
 10
94.341123778501611
 20
117.36800103578493
 11
96.991123778501617
 21
117.36800103578493
  0
LINE
  8
_0-1_作画層１
  6
CONTINUOUS
 62
    7
 10
61.741123778501617
 20
117.36800103578493
 11
59.091123778501583
 21
117.36800103578493
  0
LINE
  8
_0-1_作画層１
  6
CONTINUOUS
 62
    7
 10
70.241123778501617
 20
108.86796203156979
 11
70.241123778501617
 21
105.36800103578493
  0
LINE
  8
_0-1_作画層１
  6
CONTINUOUS
 62
    7
 10
85.841123778501611
 20
108.86795831224134
 11
85.841123778501611
 21
105.36800103578493
  0
LINE
  8
_0-1_作画層１
  6
CONTINUOUS
 62
    7
 10
71.241123778501617
 20
108.8679617931513
 11
42.041127593198894
 21
108.86796875497032
  0
LINE
  8
_0-1_作画層１
  6
CONTINUOUS
 62
    7
 10
84.841123778501611
 20
108.86795855065982
 11
114.04115429607975
 21
108.86795158883263
  0
LINE
  8
_0-1_作画層１
  6
CONTINUOUS
 62
    7
 10
71.241123778501617
 20
117.86796203156979
 11
71.241123778501617
 21
108.86796203156979
  0
LINE
  8
_0-1_作画層１
  6
CONTINUOUS
 62
    7
 10
71.241123778501617
 20
117.86796203156979
 11
71.241123778501617
 21
108.86796203156979
  0
LINE
  8
_0-1_作画層１
  6
CONTINUOUS
 62
    7
 10
84.841123778501611
 20
117.86795878907832
 11
71.241123778501617
 21
117.86796203156979
  0
LINE
  8
_0-1_作画層１
  6
CONTINUOUS
 62
    7
 10
84.841123778501611
 20
117.86795878907832
 11
84.841123778501611
 21
108.86795831224134
  0
LINE
  8
_0-1_作画層１
  6
CONTINUOUS
 62
    7
 10
84.841123778501611
 20
117.86795878907832
 11
84.841123778501611
 21
108.86795831224134
  0
LINE
  8
_0-1_作画層１
  6
CONTINUOUS
 62
    7
 10
44.291127593198894
 20
79.867975837567229
 11
44.291127593198894
 21
108.86796821852872
  0
LINE
  8
_0-1_作画層１
  6
CONTINUOUS
 62
    7
 10
111.79113140789615
 20
79.867959433637751
 11
111.79113140789615
 21
108.86795212527969
  0
LINE
  8
_0-1_作画層１
  6
CONTINUOUS
 62
    7
 10
44.291127593198894
 20
79.867975837567229
 11
111.79113140789615
 21
79.867959433637751
  0
LINE
  8
_0-1_作画層１
  6
CENTER
 62
    7
 10
78.041123778501628
 20
76.867976384364852
 11
78.041123778501628
 21
160.36798973580625
  0
LINE
  8
_0-1_作画層１
  6
CONTINUOUS
 62
    7
 10
114.04115429607974
 20
134.36795158883263
 11
114.04115429607974
 21
154.73458277287912
  0
LINE
  8
_0-1_作画層１
  6
CONTINUOUS
 62
    7
 10
114.04115429607974
 20
154.73458277287912
 11
114.04115429607974
 21
156.86795888683457
  0
LINE
  8
_0-1_作画層１
  6
CONTINUOUS
 62
    7
 10
50.591123778501583
 20
119.34555000776004
 11
50.591123778501583
 21
105.36800355631068
  0
LINE
  8
_0-1_作画層１
  6
CONTINUOUS
 62
    7
 10
70.241123778501617
 20
119.38703801930203
 11
70.241123778501617
 21
109.36800103578493
  0
LINE
  8
_0-1_作画層１
  6
CONTINUOUS
 62
    7
 10
85.841123778501611
 20
119.38703801930203
 11
85.841123778501611
 21
109.36800103578493
  0
LINE
  8
_0-1_作画層１
  6
CONTINUOUS
 62
    7
 10
105.49112377850162
 20
119.34555000776004
 11
105.49112377850162
 21
105.36800355631068
  0
LINE
  8
_0-1_作画層１
  6
CONTINUOUS
 62
    7
 10
216.54113188473315
 20
188.11798019906212
 11
216.54112914292142
 21
176.61798405647278
  0
LINE
  8
_0-1_作画層１
  6
CONTINUOUS
 62
    7
 10
216.54113188473315
 20
188.11798019906212
 11
216.54113188473315
 21
198.11798019906212
  0
LINE
  8
_0-1_作画層１
  6
CONTINUOUS
 62
    7
 10
217.5411361285814
 20
205.66797638436486
 11
217.5411361285814
 21
199.66797638436486
  0
LINE
  8
_0-1_作画層１
  6
CONTINUOUS
 62
    7
 10
216.54113188473315
 20
198.11798019906212
 11
217.5411361285814
 21
199.66797638436486
  0
LINE
  8
_0-1_作画層１
  6
CONTINUOUS
 62
    7
 10
216.54113188473315
 20
194.61798024177551
 11
191.54113188473315
 21
194.61798024177551
  0
LINE
  8
_0-1_作画層１
  6
CONTINUOUS
 62
    7
 10
191.54113182512853
 20
188.11798028448891
 11
191.5411333748487
 21
194.61798024177517
  0
ARC
  8
_0-1_作画層１
  6
CONTINUOUS
 62
    7
 10
192.32853393994395
 20
190.48610700389969
 40
0.9074999999999987
 50
270
 51
359.99999999999818
  0
LINE
  8
_0-1_作画層１
  6
CONTINUOUS
 62
    7
 10
193.23603393994395
 20
190.48610700389966
 11
193.23603393994395
 21
192.45235700389966
  0
ARC
  8
_0-1_作画層１
  6
CONTINUOUS
 62
    7
 10
192.3285339399439
 20
192.45235700389966
 40
0.9075000000000557
 50
0
 51
89.999999999996419
  0
LINE
  8
_0-1_作画層１
  6
CONTINUOUS
 62
    7
 10
192.32853393994395
 20
189.57860700389969
 11
192.02603393994394
 21
189.57860700389969
  0
ARC
  8
_0-1_作画層１
  6
CONTINUOUS
 62
    7
 10
192.02603393994386
 20
189.88110700389961
 40
0.3024999999999237
 50
179.99999999998383
 51
270.00000000001626
  0
LINE
  8
_0-1_作画層１
  6
CONTINUOUS
 62
    7
 10
191.72353393994393
 20
189.8811070038997
 11
191.72353393994393
 21
193.05735700389968
  0
LINE
  8
_0-1_作画層１
  6
CONTINUOUS
 62
    7
 10
192.32853393994395
 20
193.35985700389969
 11
192.02603393994394
 21
193.35985700389969
  0
ARC
  8
_0-1_作画層１
  6
CONTINUOUS
 62
    7
 10
192.02603393994403
 20
193.0573570038996
 40
0.3025000000000944
 50
90.000000000016172
 51
179.99999999998386
  0
ARC
  8
_0-1_作画層１
  6
CONTINUOUS
 62
    7
 10
191.39707593994268
 20
190.21726637478648
 40
0.3025000000012553
 50
333.41295146822677
 51
359.99999999995697
  0
LINE
  8
_0-1_作画層１
  6
CONTINUOUS
 62
    7
 10
191.69957593994394
 20
190.21726637478625
 11
191.69957593994394
 21
192.53213513301304
  0
ARC
  8
_0-1_作画層１
  6
CONTINUOUS
 62
    7
 10
191.39707593994294
 20
192.53213513301284
 40
0.3025000000010139
 50
0.000000000037683
 51
26.587048531790067
  0
LINE
  8
_0-1_作画層１
  6
CONTINUOUS
 62
    7
 10
216.54112914292142
 20
176.61798405647278
 11
217.54112914292142
 21
176.61798405647278
  0
LINE
  8
_0-1_作画層１
  6
CONTINUOUS
 62
    7
 10
217.5411361285814
 20
176.61798401375938
 11
217.5411361285814
 21
171.61798405647278
  0
LINE
  8
_0-1_作画層１
  6
CONTINUOUS
 62
    7
 10
217.5411361285814
 20
171.61798405647278
 11
192.5411361285814
 21
171.61798405647278
  0
LINE
  8
_0-1_作画層１
  6
CONTINUOUS
 62
    7
 10
192.54114654747599
 20
170.11798405647278
 11
183.54114654747599
 21
170.11798405647278
  0
LINE
  8
_0-1_作画層１
  6
CONTINUOUS
 62
    7
 10
183.54114654747599
 20
170.11798405647278
 11
183.54114654747599
 21
186.11798405647278
  0
LINE
  8
_0-1_作画層１
  6
CONTINUOUS
 62
    7
 10
192.54114654747599
 20
170.11798405647278
 11
192.54114654747599
 21
171.61798405647278
  0
LINE
  8
_0-1_作画層１
  6
CONTINUOUS
 62
    7
 10
214.2183216836948
 20
171.61798405647278
 11
217.5411361285814
 21
171.61798405647278
  0
LINE
  8
_0-1_作画層１
  6
CONTINUOUS
 62
    7
 10
192.52113612858139
 20
171.62798405647277
 11
192.52113612858139
 21
171.51676775072704
  0
LINE
  8
_0-1_作画層１
  6
CONTINUOUS
 62
    7
 10
192.49600032722117
 20
171.67659322428372
 11
192.49600032722117
 21
171.56537691853799
  0
ARC
  8
_0-1_作画層１
  6
CONTINUOUS
 62
    7
 10
203.41748546900402
 20
178.08084969499382
 40
12.654441347655336
 50
148.79493755412449
 51
169.91940201245768
  0
ARC
  8
_0-1_作画層１
  6
CONTINUOUS
 62
    7
 10
203.41748546900402
 20
178.08084969499382
 40
12.654441347655336
 50
169.91940201245768
 51
210.76529805997376
  0
LINE
  8
_0-9_寸法線層１
  6
CONTINUOUS
 62
    4
 10
133.1184592931406
 20
257.86800690194298
 11
133.1184592931406
 21
170.11798405647278
  0
LINE
  8
_0-9_寸法線層１
  6
CONTINUOUS
 62
    4
 10
133.1184592931406
 20
257.86800690194298
 11
133.89491642844817
 21
254.97022942307578
  0
LINE
  8
_0-9_寸法線層１
  6
CONTINUOUS
 62
    4
 10
133.1184592931406
 20
257.86800690194298
 11
132.34200215783304
 21
254.97022942307578
  0
LINE
  8
_0-9_寸法線層１
  6
CONTINUOUS
 62
    4
 10
133.1184592931406
 20
170.11798405647278
 11
132.34200215783304
 21
173.01576153533998
  0
LINE
  8
_0-9_寸法線層１
  6
CONTINUOUS
 62
    4
 10
133.1184592931406
 20
170.11798405647278
 11
133.89491642844817
 21
173.01576153533998
  0
TEXT
  8
_0-9_寸法線層１
 62
    7
 10
132.6184592931406
 20
210.86799547920788
 40
2.5
 41
1
 50
90
  1
89
  0
LINE
  8
_0-9_寸法線層１
  6
CONTINUOUS
 62
    4
 10
33.000392296984643
 20
257.86797256966759
 11
33.000392296984643
 21
185.86801834603477
  0
LINE
  8
_0-9_寸法線層１
  6
CONTINUOUS
 62
    4
 10
33.000392296984643
 20
257.86797256966759
 11
33.776849432292209
 21
254.97019509080039
  0
LINE
  8
_0-9_寸法線層１
  6
CONTINUOUS
 62
    4
 10
33.000392296984643
 20
257.86797256966759
 11
32.223935161677076
 21
254.97019509080039
  0
LINE
  8
_0-9_寸法線層１
  6
CONTINUOUS
 62
    4
 10
33.000392296984643
 20
185.86801834603477
 11
32.223935161677076
 21
188.76579582490197
  0
LINE
  8
_0-9_寸法線層１
  6
CONTINUOUS
 62
    4
 10
33.000392296984643
 20
185.86801834603477
 11
33.776849432292209
 21
188.76579582490197
  0
TEXT
  8
_0-9_寸法線層１
 62
    7
 10
32.500392296984643
 20
220.61799545785118
 40
2.5
 41
1
 50
90
  1
72
  0
LINE
  8
_0-9_寸法線層１
  6
CONTINUOUS
 62
    4
 10
42.041146666685222
 20
267.20219691333341
 11
114.04110089031802
 21
267.20219691333341
  0
LINE
  8
_0-9_寸法線層１
  6
CONTINUOUS
 62
    4
 10
42.041146666685222
 20
267.20219691333341
 11
44.93892414555242
 21
267.97865404864092
  0
LINE
  8
_0-9_寸法線層１
  6
CONTINUOUS
 62
    4
 10
42.041146666685222
 20
267.20219691333341
 11
44.93892414555242
 21
266.42573977802579
  0
LINE
  8
_0-9_寸法線層１
  6
CONTINUOUS
 62
    4
 10
114.04110089031802
 20
267.20219691333341
 11
111.14332341145081
 21
266.42573977802579
  0
LINE
  8
_0-9_寸法線層１
  6
CONTINUOUS
 62
    4
 10
114.04110089031802
 20
267.20219691333341
 11
111.14332341145081
 21
267.97865404864092
  0
TEXT
  8
_0-9_寸法線層１
 62
    7
 10
76.791123778501628
 20
267.70219691333341
 40
2.5
 41
1
 50
0
  1
72
  0
LINE
  8
_0-1_作画層１
  6
CONTINUOUS
 62
    7
 10
160.54114803758679
 20
255.61798401375938
 11
216.54114803758679
 21
255.61798401375938
  0
LINE
  8
_0-1_作画層１
  6
CONTINUOUS
 62
    7
 10
160.54113194433779
 20
188.11798019906212
 11
216.54113188473315
 21
188.11798019906212
  0
LINE
  8
_0-9_寸法線層１
  6
CONTINUOUS
 62
    4
 10
229.4316309719934
 20
255.61798405647278
 11
229.4316309719934
 21
188.11798019906212
  0
LINE
  8
_0-9_寸法線層１
  6
CONTINUOUS
 62
    4
 10
229.4316309719934
 20
255.61798405647278
 11
230.20808810730097
 21
252.72020657760558
  0
LINE
  8
_0-9_寸法線層１
  6
CONTINUOUS
 62
    4
 10
229.4316309719934
 20
255.61798405647278
 11
228.65517383668583
 21
252.72020657760558
  0
LINE
  8
_0-9_寸法線層１
  6
CONTINUOUS
 62
    4
 10
229.4316309719934
 20
188.11798019906212
 11
228.65517383668583
 21
191.01575767792932
  0
LINE
  8
_0-9_寸法線層１
  6
CONTINUOUS
 62
    4
 10
229.4316309719934
 20
188.11798019906212
 11
230.20808810730097
 21
191.01575767792932
  0
TEXT
  8
_0-9_寸法線層１
 62
    7
 10
228.9316309719934
 20
219.36798212776745
 40
2.5
 41
1
 50
90
  1
68
  0
LINE
  8
_0-1_作画層１
  6
CONTINUOUS
 62
    7
 10
216.54114416328451
 20
239.36797638436485
 11
213.54114416328451
 21
239.36797638436485
  0
LINE
  8
_0-9_寸法線層１
  6
CONTINUOUS
 62
    4
 10
222.7686252974556
 20
204.36797638436485
 11
222.7686252974556
 21
239.36797638436485
  0
LINE
  8
_0-9_寸法線層１
  6
CONTINUOUS
 62
    4
 10
222.7686252974556
 20
204.36797638436485
 11
221.99216816214806
 21
207.26575386323205
  0
LINE
  8
_0-9_寸法線層１
  6
CONTINUOUS
 62
    4
 10
222.7686252974556
 20
204.36797638436485
 11
223.54508243276317
 21
207.26575386323205
  0
LINE
  8
_0-9_寸法線層１
  6
CONTINUOUS
 62
    4
 10
222.7686252974556
 20
239.36797638436485
 11
223.54508243276317
 21
236.47019890549765
  0
LINE
  8
_0-9_寸法線層１
  6
CONTINUOUS
 62
    4
 10
222.7686252974556
 20
239.36797638436485
 11
221.99216816214806
 21
236.47019890549765
  0
TEXT
  8
_0-9_寸法線層１
 62
    7
 10
222.2686252974556
 20
220.61797638436485
 40
2.5
 41
1
 50
90
  1
35
  0
LINE
  8
_0-9_寸法線層１
  6
CONTINUOUS
 62
    4
 10
229.4316309719934
 20
188.11798019906212
 11
229.4316309719934
 21
171.61798405647278
  0
LINE
  8
_0-9_寸法線層１
  6
CONTINUOUS
 62
    4
 10
229.4316309719934
 20
188.11798019906212
 11
230.20808810730097
 21
185.22020272019492
  0
LINE
  8
_0-9_寸法線層１
  6
CONTINUOUS
 62
    4
 10
229.4316309719934
 20
188.11798019906212
 11
228.65517383668583
 21
185.22020272019492
  0
LINE
  8
_0-9_寸法線層１
  6
CONTINUOUS
 62
    4
 10
229.4316309719934
 20
171.61798405647278
 11
228.65517383668583
 21
174.51576153533998
  0
LINE
  8
_0-9_寸法線層１
  6
CONTINUOUS
 62
    4
 10
229.4316309719934
 20
171.61798405647278
 11
230.20808810730097
 21
174.51576153533998
  0
LINE
  8
_0-9_寸法線層１
  6
CONTINUOUS
 62
    4
 10
231.4316309719934
 20
188.11798019906212
 11
218.15577521508328
 21
188.11798019906212
  0
LINE
  8
_0-9_寸法線層１
  6
CONTINUOUS
 62
    4
 10
231.4316309719934
 20
171.61798405647278
 11
218.15577521508328
 21
171.61798405647278
  0
TEXT
  8
_0-9_寸法線層１
 62
    7
 10
228.9316309719934
 20
177.36798212776745
 40
2.5
 41
1
 50
90
  1
16.5
  0
LINE
  8
_0-9_寸法線層１
  6
CONTINUOUS
 62
    4
 10
140.54114127603191
 20
267.20219691333341
 11
160.54114857403385
 21
267.20219691333341
  0
LINE
  8
_0-9_寸法線層１
  6
CONTINUOUS
 62
    4
 10
140.54114127603191
 20
267.20219691333341
 11
143.43891875489911
 21
267.97865404864092
  0
LINE
  8
_0-9_寸法線層１
  6
CONTINUOUS
 62
    4
 10
140.54114127603191
 20
267.20219691333341
 11
143.43891875489911
 21
266.42573977802579
  0
LINE
  8
_0-9_寸法線層１
  6
CONTINUOUS
 62
    4
 10
160.54114857403385
 20
267.20219691333341
 11
157.64337109516663
 21
266.42573977802579
  0
LINE
  8
_0-9_寸法線層１
  6
CONTINUOUS
 62
    4
 10
160.54114857403385
 20
267.20219691333341
 11
157.64337109516663
 21
267.97865404864092
  0
TEXT
  8
_0-9_寸法線層１
 62
    7
 10
149.29114492503288
 20
267.70219691333341
 40
2.5
 41
1
 50
0
  1
20
  0
LINE
  8
_0-9_寸法線層１
  6
CONTINUOUS
 62
    4
 10
160.54114857403385
 20
267.20219691333341
 11
188.54114803758677
 21
267.20219691333341
  0
LINE
  8
_0-9_寸法線層１
  6
CONTINUOUS
 62
    4
 10
160.54114857403385
 20
267.20219691333341
 11
163.43892605290105
 21
267.97865404864092
  0
LINE
  8
_0-9_寸法線層１
  6
CONTINUOUS
 62
    4
 10
160.54114857403385
 20
267.20219691333341
 11
163.43892605290105
 21
266.42573977802579
  0
LINE
  8
_0-9_寸法線層１
  6
CONTINUOUS
 62
    4
 10
188.54114803758677
 20
267.20219691333341
 11
185.64337055871957
 21
266.42573977802579
  0
LINE
  8
_0-9_寸法線層１
  6
CONTINUOUS
 62
    4
 10
188.54114803758677
 20
267.20219691333341
 11
185.64337055871957
 21
267.97865404864092
  0
TEXT
  8
_0-9_寸法線層１
 62
    7
 10
173.29114830581031
 20
267.70219691333341
 40
2.5
 41
1
 50
0
  1
28
  0
LINE
  8
_0-9_寸法線層１
  6
CONTINUOUS
 62
    4
 10
188.54114803758677
 20
267.20219691333341
 11
216.54114803758679
 21
267.20219691333341
  0
LINE
  8
_0-9_寸法線層１
  6
CONTINUOUS
 62
    4
 10
188.54114803758677
 20
267.20219691333341
 11
191.43892551645399
 21
267.97865404864092
  0
LINE
  8
_0-9_寸法線層１
  6
CONTINUOUS
 62
    4
 10
188.54114803758677
 20
267.20219691333341
 11
191.43892551645399
 21
266.42573977802579
  0
LINE
  8
_0-9_寸法線層１
  6
CONTINUOUS
 62
    4
 10
216.54114803758679
 20
267.20219691333341
 11
213.6433705587196
 21
266.42573977802579
  0
LINE
  8
_0-9_寸法線層１
  6
CONTINUOUS
 62
    4
 10
216.54114803758679
 20
267.20219691333341
 11
213.6433705587196
 21
267.97865404864092
  0
LINE
  8
_0-9_寸法線層１
  6
CONTINUOUS
 62
    4
 10
216.54114803758679
 20
267.20219691333341
 11
211.54114803758679
 21
267.20219691333341
  0
LINE
  8
_0-9_寸法線層１
  6
CONTINUOUS
 62
    4
 10
217.5411361285814
 20
267.20219691333341
 11
222.5411361285814
 21
267.20219691333341
  0
LINE
  8
_0-9_寸法線層１
  6
CONTINUOUS
 62
    4
 10
216.54114803758679
 20
267.20219691333341
 11
217.5411361285814
 21
267.20219691333341
  0
LINE
  8
_0-9_寸法線層１
  6
CONTINUOUS
 62
    4
 10
216.54114803758679
 20
267.20219691333341
 11
213.6433705587196
 21
266.42573977802579
  0
LINE
  8
_0-9_寸法線層１
  6
CONTINUOUS
 62
    4
 10
216.54114803758679
 20
267.20219691333341
 11
213.6433705587196
 21
267.97865404864092
  0
LINE
  8
_0-9_寸法線層１
  6
CONTINUOUS
 62
    4
 10
217.5411361285814
 20
267.20219691333341
 11
220.4389136074486
 21
267.97865404864092
  0
LINE
  8
_0-9_寸法線層１
  6
CONTINUOUS
 62
    4
 10
217.5411361285814
 20
267.20219691333341
 11
220.4389136074486
 21
266.42573977802579
  0
TEXT
  8
_0-9_寸法線層１
 62
    7
 10
216.41614208308408
 20
267.70219691333341
 40
2.5
 41
1
 50
0
  1
1
  0
LINE
  8
_0-9_寸法線層１
  6
CONTINUOUS
 62
    4
 10
140.54114127603191
 20
275.51354567087685
 11
217.5411361285814
 21
275.51354567087685
  0
LINE
  8
_0-9_寸法線層１
  6
CONTINUOUS
 62
    4
 10
140.54114127603191
 20
275.51354567087685
 11
143.43891875489911
 21
276.29000280618442
  0
LINE
  8
_0-9_寸法線層１
  6
CONTINUOUS
 62
    4
 10
140.54114127603191
 20
275.51354567087685
 11
143.43891875489911
 21
274.73708853556928
  0
LINE
  8
_0-9_寸法線層１
  6
CONTINUOUS
 62
    4
 10
217.5411361285814
 20
275.51354567087685
 11
214.6433586497142
 21
274.73708853556928
  0
LINE
  8
_0-9_寸法線層１
  6
CONTINUOUS
 62
    4
 10
217.5411361285814
 20
275.51354567087685
 11
214.6433586497142
 21
276.29000280618442
  0
LINE
  8
_0-9_寸法線層１
  6
CONTINUOUS
 62
    4
 10
140.54114127603191
 20
277.51354567087685
 11
140.54114127603191
 21
269.20219691333341
  0
LINE
  8
_0-9_寸法線層１
  6
CONTINUOUS
 62
    4
 10
217.5411361285814
 20
277.51354567087685
 11
217.5411361285814
 21
269.20219691333341
  0
TEXT
  8
_0-9_寸法線層１
 62
    7
 10
177.79113870230665
 20
276.01354567087685
 40
2.5
 41
1
 50
0
  1
77
  0
TEXT
  8
_0-9_寸法線層１
 62
    7
 10
201.29114803758679
 20
267.70219691333341
 40
2.5
 41
1
 50
0
  1
(28)
  0
LINE
  8
_0-1_作画層１
  6
CONTINUOUS
 62
    7
 10
114.04115429607974
 20
170.11798405647278
 11
114.04115429607974
 21
187.86798401375938
  0
LINE
  8
_0-1_作画層１
  6
CONTINUOUS
 62
    7
 10
42.041123778501628
 20
187.86801834603477
 11
42.041123778501628
 21
170.11798405647278
  0
LINE
  8
_0-1_作画層１
  6
CONTINUOUS
 62
    7
 10
114.04115429607974
 20
170.11798405647278
 11
42.041123778501628
 21
170.11798405647278
  0
LINE
  8
_0-1_作画層１
  6
CONTINUOUS
 62
    7
 10
112.54108181683169
 20
185.93149234065567
 11
112.54108181683169
 21
171.51676775072704
  0
LINE
  8
_0-1_作画層１
  6
CONTINUOUS
 62
    7
 10
183.54114654747599
 20
171.21798405647277
 11
183.54114654747599
 21
170.11798405647278
  0
LINE
  8
_0-1_作画層１
  6
CONTINUOUS
 62
    7
 10
183.54114654747599
 20
170.11798405647278
 11
182.04114654747599
 21
170.11798405647278
  0
LINE
  8
_0-1_作画層１
  6
CONTINUOUS
 62
    7
 10
182.04114654747599
 20
170.11798405647278
 11
182.04114654747599
 21
171.61798405647278
  0
LINE
  8
_0-1_作画層１
  6
CONTINUOUS
 62
    7
 10
182.04114654747599
 20
171.61798405647278
 11
183.54114654747599
 21
171.61798405647278
  0
LINE
  8
_0-1_作画層１
  6
CONTINUOUS
 62
    7
 10
112.54108181683169
 20
171.61676775072704
 11
43.541123778501628
 21
171.61676775072704
  0
LINE
  8
_0-1_作画層１
  6
CONTINUOUS
 62
    7
 10
43.541123778501628
 20
185.93152568798445
 11
43.541123778501628
 21
171.61676775072704
  0
LINE
  8
_0-1_作画層１
  6
CONTINUOUS
 62
    7
 10
50.591123778501583
 20
171.61676775072704
 11
50.591123778501583
 21
185.83005729622175
  0
LINE
  8
_0-1_作画層１
  6
CONTINUOUS
 62
    7
 10
59.091123778501583
 20
171.61676775072704
 11
59.091123778501583
 21
185.88454151894848
  0
LINE
  8
_0-1_作画層１
  6
CONTINUOUS
 62
    7
 10
61.741123778501617
 20
171.61676775072704
 11
61.741123778501617
 21
185.79465082727418
  0
LINE
  8
_0-1_作画層１
  6
CONTINUOUS
 62
    7
 10
70.241123778501617
 20
171.61676775072704
 11
70.241123778501617
 21
185.85568424112384
  0
LINE
  8
_0-1_作画層１
  6
CONTINUOUS
 62
    7
 10
94.341123778501611
 20
171.61676775072704
 11
94.341123778501611
 21
185.79465082727418
  0
LINE
  8
_0-1_作画層１
  6
CONTINUOUS
 62
    7
 10
96.991123778501617
 20
171.61676775072704
 11
96.991123778501617
 21
185.79465082727418
  0
LINE
  8
_0-1_作画層１
  6
CONTINUOUS
 62
    7
 10
105.49112377850162
 20
171.61676775072704
 11
105.49112377850162
 21
185.75317646151558
  0
LINE
  8
_0-1_作画層１
  6
CONTINUOUS
 62
    7
 10
98.0411237785016
 20
170.11798405647278
 11
98.0411237785016
 21
171.61676775072704
  0
LINE
  8
_0-1_作画層１
  6
CONTINUOUS
 62
    7
 10
92.041241080578104
 20
170.11798405647278
 11
92.041241080578104
 21
171.61676775072704
  0
LINE
  8
_0-1_作画層１
  6
CONTINUOUS
 62
    7
 10
58.041123778501628
 20
170.11798405647278
 11
58.041123778501628
 21
171.61676775072704
  0
LINE
  8
_0-1_作画層１
  6
CONTINUOUS
 62
    7
 10
64.041046531009783
 20
170.11798405647278
 11
64.041046531009783
 21
171.61676775072704
  0
CIRCLE
  8
_0-1_作画層１
  6
CONTINUOUS
 62
    7
 10
54.841123778501583
 20
180.11798405647278
 40
3.5
  0
CIRCLE
  8
_0-1_作画層１
  6
CONTINUOUS
 62
    7
 10
65.991123778501617
 20
180.11798405647278
 40
3.5
  0
CIRCLE
  8
_0-1_作画層１
  6
CONTINUOUS
 62
    7
 10
90.091123778501611
 20
180.11798405647278
 40
3.5
  0
CIRCLE
  8
_0-1_作画層１
  6
CONTINUOUS
 62
    7
 10
101.24112377850162
 20
180.11798405647278
 40
3.5
  0
LINE
  8
_0-1_作画層１
  6
CONTINUOUS
 62
    7
 10
50.591123778501583
 20
175.36963743677995
 11
59.091123778501583
 21
175.36963743677995
  0
LINE
  8
_0-1_作画層１
  6
CONTINUOUS
 62
    7
 10
61.741123778501617
 20
175.36963743677995
 11
70.241123778501617
 21
175.36963743677995
  0
LINE
  8
_0-1_作画層１
  6
CONTINUOUS
 62
    7
 10
85.841123778501611
 20
175.36963743677995
 11
94.341123778501611
 21
175.36963743677995
  0
LINE
  8
_0-1_作画層１
  6
CONTINUOUS
 62
    7
 10
96.991123778501617
 20
175.36963743677995
 11
105.49112377850162
 21
175.36963743677995
  0
LINE
  8
_0-1_作画層１
  6
CONTINUOUS
 62
    7
 10
183.54114654747599
 20
186.11798405647278
 11
192.54114654747599
 21
186.11798405647278
  0
LINE
  8
_0-1_作画層１
  6
CONTINUOUS
 62
    7
 10
185.04114654747599
 20
188.0680029287937
 11
185.04114654747599
 21
186.11798405647278
  0
LINE
  8
_0-1_作画層１
  6
CONTINUOUS
 62
    7
 10
185.04114654747599
 20
186.11798405647278
 11
185.04114654747599
 21
188.11798024177551
  0
LINE
  8
_0-1_作画層１
  6
CONTINUOUS
 62
    7
 10
192.54114654747599
 20
186.11798405647278
 11
192.54114654747599
 21
184.63714845899622
  0
LINE
  8
_0-9_寸法線層１
  6
CONTINUOUS
 62
    4
 10
131.1184592931406
 20
170.11798405647278
 11
181.25883786381092
 21
170.11798405647278
  0
LINE
  8
_0-9_寸法線層１
  6
CONTINUOUS
 62
    4
 10
114.04110089031802
 20
269.20219691333341
 11
114.04110089031802
 21
257.51987518304952
  0
LINE
  8
_0-9_寸法線層１
  6
CONTINUOUS
 62
    4
 10
140.54114127603191
 20
269.20219691333341
 11
140.54114127603191
 21
258.42194364360239
  0
LINE
  8
_0-9_寸法線層１
  6
CONTINUOUS
 62
    4
 10
131.1184592931406
 20
257.86800690194298
 11
140.03350379827918
 21
257.86800690194298
  0
LINE
  8
_0-9_寸法線層１
  6
CONTINUOUS
 62
    4
 10
160.54114857403385
 20
269.20219691333341
 11
160.54114857403385
 21
258.35751018213432
  0
LINE
  8
_0-9_寸法線層１
  6
CONTINUOUS
 62
    4
 10
217.5411361285814
 20
269.20219691333341
 11
217.5411361285814
 21
206.23083985447551
  0
LINE
  8
_0-9_寸法線層１
  6
CONTINUOUS
 62
    4
 10
224.7686252974556
 20
204.36797638436485
 11
217.94966707852811
 21
204.36797638436485
  0
LINE
  8
_0-9_寸法線層１
  6
CONTINUOUS
 62
    4
 10
224.7686252974556
 20
239.36797638436485
 11
217.17646554091144
 21
239.36797638436485
  0
LINE
  8
_0-9_寸法線層１
  6
CONTINUOUS
 62
    4
 10
231.4316309719934
 20
255.61798405647278
 11
217.06370698334231
 21
255.61798405647278
  0
LINE
  8
_0-9_寸法線層１
  6
CONTINUOUS
 62
    4
 10
216.54114803758679
 20
269.20219691333341
 11
216.54114803758679
 21
256.11307794099696
  0
LINE
  8
_0-9_寸法線層１
  6
CONTINUOUS
 62
    4
 10
188.54114803758677
 20
269.20219691333341
 11
188.54114803758677
 21
256.2419448639331
  0
LINE
  8
_0-9_寸法線層１
  6
CONTINUOUS
 62
    4
 10
31.000392296984643
 20
257.86797256966759
 11
42.38526412532778
 21
257.86797256966759
  0
LINE
  8
_0-9_寸法線層１
  6
CONTINUOUS
 62
    4
 10
42.041146666685222
 20
269.20219691333341
 11
42.041146666685222
 21
257.3218765254133
  0
LINE
  8
_0-9_寸法線層１
  6
CONTINUOUS
 62
    4
 10
31.000392296984643
 20
185.86801834603477
 11
42.514131048263891
 21
185.86801834603477
  0
TEXT
  8
_0-7_注記層１
 62
    7
 10
272.5
 20
28
 40
3.5
 41
1
 50
0
  1
2017.10.24
  0
ENDSEC
  0
EOF
