  0
SECTION
  2
HEADER
  9
$ACADVER
  1
AC1009
  9
$INSBASE
 10
0
 20
0
 30
0
  9
$EXTMIN
 10
0
 20
0
  9
$EXTMAX
 10
297
 20
210
  9
$LIMMIN
 10
0
 20
0
  9
$LIMMAX
 10
297
 20
210
  9
$LTSCALE
 40
1
  0
ENDSEC
  0
SECTION
  2
TABLES
  0
TABLE
  2
LTYPE
 70
     9
  0
LTYPE
  2
CONTINUOUS
 70
    64
  3
実線
 72
    65
 73
     0
 40
0.0
  0
LTYPE
  2
DASHED1
 70
    64
  3
--  --  --  --  --  --  --  --  
 72
    65
 73
     2
 40
2.5
 49
1.25
 49
-1.25
  0
LTYPE
  2
DASHED2
 70
    64
  3
----    ----    ----    ----    
 72
    65
 73
     2
 40
5.0
 49
2.5
 49
-2.5
  0
LTYPE
  2
DASHED3
 70
    64
  3
------  ------  ------  ------  
 72
    65
 73
     2
 40
5.0
 49
3.75
 49
-1.25
  0
LTYPE
  2
CENTER1
 70
    64
  3
----- - ----- - ----- - ----- - 
 72
    65
 73
     4
 40
10.0
 49
6.25
 49
-1.25
 49
1.25
 49
-1.25
  0
LTYPE
  2
CENTER2
 70
    64
  3
----------  --  ----------  --  
 72
    65
 73
     4
 40
20.0
 49
12.5
 49
-2.5
 49
2.5
 49
-2.5
  0
LTYPE
  2
PHANTOM1
 70
    64
  3
--- - - --- - - --- - - --- - - 
 72
    65
 73
     6
 40
10.0
 49
3.25
 49
-1.25
 49
1.25
 49
-1.25
 49
1.25
 49
-1.25
  0
LTYPE
  2
PHANTOM2
 70
    64
  3
--------  -  -  --------  -  -  
 72
    65
 73
     6
 40
20.0
 49
10.0
 49
-2.5
 49
1.25
 49
-2.5
 49
1.25
 49
-2.5
  0
LTYPE
  2
DOT
 70
    64
  3
-   -   -   -   -   -   -   -   
 72
    65
 73
     2
 40
2.5
 49
0.625
 49
-1.875
  0
LTYPE
  2
DUMMY
 70
    64
  3
ダミー
 72
    65
 73
     0
 40
0.0
  0
LTYPE
  2
RAND1
 70
    64
  3
ランダム線1
 72
    65
 73
     4
 40
10.0
 49
1.0
 49
-2.0
 49
3.0
 49
-4.0
  0
LTYPE
  2
RAND2
 70
    64
  3
ランダム線2
 72
    65
 73
     4
 40
14.0
 49
2.0
 49
-3.0
 49
4.0
 49
-5.0
  0
LTYPE
  2
RAND3
 70
    64
  3
ランダム線3
 72
    65
 73
     4
 40
18.0
 49
3.0
 49
-4.0
 49
5.0
 49
-6.0
  0
LTYPE
  2
RAND4
 70
    64
  3
ランダム線4
 72
    65
 73
     4
 40
22.0
 49
4.0
 49
-5.0
 49
6.0
 49
-7.0
  0
LTYPE
  2
RAND5
 70
    64
  3
ランダム線5
 72
    65
 73
     4
 40
26.0
 49
5.0
 49
-6.0
 49
7.0
 49
-8.0
  0
LTYPE
  2
LONG1
 70
    64
  3
----------  --  ----------  --  
 72
    65
 73
     4
 40
40.0
 49
32.5
 49
-2.5
 49
2.5
 49
-2.5
  0
LTYPE
  2
LONG2
 70
    64
  3
--------  -  -  --------  -  -  
 72
    65
 73
     6
 40
40.0
 49
30.0
 49
-2.5
 49
1.25
 49
-2.5
 49
1.25
 49
-2.5
  0
LTYPE
  2
LONG3
 70
    64
  3
+++++++++++++++..+++++++++++++++
 72
    65
 73
     2
 40
40.0
 49
37.5
 49
-2.5
  0
LTYPE
  2
LONG4
 70
    64
  3
+++++++++++++++..+++++++++++++++
 72
    65
 73
     2
 40
80.0
 49
75.0
 49
-5.0
  0
LTYPE
  2
LONG5
 70
    64
  3
----------  --  ----------  --  
 72
    65
 73
     4
 40
60.0
 49
37.5
 49
-7.5
 49
7.5
 49
-7.5
  0
LTYPE
  2
dashed
 70
   64
  3
-------   -------------   ------
 72
   65
 73
    2
 40
7.5
 49
6
 49
-1.5
  0
LTYPE
  2
dashed_spaced
 70
   64
  3
----        --------        ----
 72
   65
 73
    2
 40
12
 49
6
 49
-6
  0
LTYPE
  2
long_dashed_dotted
 70
   64
  3
------------- --- --------------
 72
   65
 73
    4
 40
15.25
 49
12
 49
-1.5
 49
0.25
 49
-1.5
  0
LTYPE
  2
long_dashed_double-dotted
 70
   64
  3
----------- --- --- ------------
 72
   65
 73
    6
 40
17
 49
12
 49
-1.5
 49
0.25
 49
-1.5
 49
0.25
 49
-1.5
  0
LTYPE
  2
long_dashed_triplicate-dotted
 70
   64
  3
--------- --- --- --- ----------
 72
   65
 73
    8
 40
18.75
 49
12
 49
-1.5
 49
0.25
 49
-1.5
 49
0.25
 49
-1.5
 49
0.25
 49
-1.5
  0
LTYPE
  2
dotted
 70
   64
  3
   -       -       -       -    
 72
   65
 73
    2
 40
1.75
 49
0.25
 49
-1.5
  0
LTYPE
  2
chain
 70
   64
  3
-------------- -- --------------
 72
   65
 73
    4
 40
18.5
 49
12
 49
-1.5
 49
3.5
 49
-1.5
  0
LTYPE
  2
chain_double_dash
 70
   64
  3
------------ -- -- -------------
 72
   65
 73
    6
 40
23.5
 49
12
 49
-1.5
 49
3.5
 49
-1.5
 49
3.5
 49
-1.5
  0
LTYPE
  2
dashed_dotted
 70
   64
  3
-----------     -     ----------
 72
   65
 73
    4
 40
9.25
 49
6
 49
-1.5
 49
0.25
 49
-1.5
  0
LTYPE
  2
double-dashed_dotted
 70
   64
  3
------   -----------   -   -----
 72
   65
 73
    6
 40
16.75
 49
6
 49
-1.5
 49
6
 49
-1.5
 49
0.25
 49
-1.5
  0
LTYPE
  2
dashed_double-dotted
 70
   64
  3
---------    -    -    ---------
 72
   65
 73
    6
 40
11
 49
6
 49
-1.5
 49
0.25
 49
-1.5
 49
0.25
 49
-1.5
  0
LTYPE
  2
double-dashed_double-dotted
 70
   64
  3
-----   ---------   -   -   ----
 72
   65
 73
    8
 40
18.5
 49
6
 49
-1.5
 49
6
 49
-1.5
 49
0.25
 49
-1.5
 49
0.25
 49
-1.5
  0
LTYPE
  2
dashed_triplicate-dotted
 70
   64
  3
-------    -    -    -    ------
 72
   65
 73
    8
 40
12.75
 49
6
 49
-1.5
 49
0.25
 49
-1.5
 49
0.25
 49
-1.5
 49
0.25
 49
-1.5
  0
LTYPE
  2
double-dashed_triplicate-dotted
 70
   64
  3
-----  ---------  -  -  -  -----
 72
   65
 73
   10
 40
20.25
 49
6
 49
-1.5
 49
6
 49
-1.5
 49
0.25
 49
-1.5
 49
0.25
 49
-1.5
 49
0.25
 49
-1.5
  0
LTYPE
  2
undefined
 70
   64
  3
--------------------------------
 72
   65
 73
    0
 40
0
  0
LTYPE
  2
DASHED
 70
   64
  3
----        --------        ----
 72
   65
 73
    2
 40
4
 49
2
 49
-2
  0
LTYPE
  2
DOT_18
 70
   64
  3
---           -----           --
 72
   65
 73
    2
 40
3
 49
1
 49
-2
  0
LTYPE
  2
DASHDOT
 70
   64
  3
---------    ------    ---------
 72
   65
 73
    4
 40
17
 49
10
 49
-2
 49
3
 49
-2
  0
LTYPE
  2
DIVIDE
 70
   64
  3
-----------  --  --  -----------
 72
   65
 73
    6
 40
30
 49
20
 49
-2
 49
2
 49
-2
 49
2
 49
-2
  0
LTYPE
  2
CENTER
 70
   64
  3
-------------  --  -------------
 72
   65
 73
    4
 40
13
 49
10
 49
-1
 49
1
 49
-1
  0
ENDTAB
  0
TABLE
  2
STYLE
  5
3
100
AcDbSymbolTable
 70
     1
  0
STYLE
  5
10
100
AcDbSymbolTableRecord
100
AcDbTextStyleTableRecord
  2
STANDARD
 70
     0
 40
0.0
 41
1.0
 50
0.0
 71
     0
 42
0.2
  3
txt
  4
bigfont.shx
  0
STYLE
  5
26
100
AcDbSymbolTableRecord
100
AcDbTextStyleTableRecord
  2
TATEGAKI
 70
    68
 40
0.0
 41
1.0
 50
0.0
 71
     0
 42
1.0
  3
txt
  4
bigfont.shx
  0
ENDTAB
  0
TABLE
  2
LAYER
 70
    5
  0
LAYER
  2
_0-0_
 70
   64
 62
    7
  6
CONTINUOUS
  0
LAYER
  2
_0-1_作画層１
 70
   64
 62
    7
  6
CONTINUOUS
  0
LAYER
  2
_0-7_注記層１
 70
   64
 62
    7
  6
CONTINUOUS
  0
LAYER
  2
_0-9_寸法線層１
 70
   64
 62
    7
  6
CONTINUOUS
  0
LAYER
  2
ADD_LINE
 70
   64
 62
    7
  6
CONTINUOUS
  0
ENDTAB
  0
ENDSEC
  0
SECTION
  2
BLOCKS
  0
BLOCK
  2
-000-_D0
 70
   64
 10
0
 20
0
 30
0
  0
LINE
  8
_0-9_寸法線層１
  6
CONTINUOUS
 62
    7
 10
35
 20
155
 11
107
 21
155
  0
TEXT
  8
_0-9_寸法線層１
 62
    7
 10
69.111771432346217
 20
156
 40
3
 41
1
 50
0
  1
72
  0
LINE
  8
_0-9_寸法線層１
  6
CONTINUOUS
 62
    7
 10
35
 20
164.5
 11
35
 21
153
  0
LINE
  8
_0-9_寸法線層１
  6
CONTINUOUS
 62
    7
 10
107
 20
164.5
 11
107
 21
153
  0
ENDBLK
  0
BLOCK
  2
-001-_D1
 70
   64
 10
0
 20
0
 30
0
  0
LINE
  8
_0-9_寸法線層１
  6
CONTINUOUS
 62
    7
 10
27.5
 20
237
 11
27.5
 21
165
  0
TEXT
  8
_0-9_寸法線層１
 62
    7
 10
26.5
 20
199.11177143234622
 40
3
 41
1
 50
90
  1
72
  0
LINE
  8
_0-9_寸法線層１
  6
CONTINUOUS
 62
    7
 10
34.5
 20
237
 11
25.5
 21
237
  0
LINE
  8
_0-9_寸法線層１
  6
CONTINUOUS
 62
    7
 10
34.5
 20
165
 11
25.5
 21
165
  0
ENDBLK
  0
BLOCK
  2
-002-_D2
 70
   64
 10
0
 20
0
 30
0
  0
LINE
  8
_0-9_寸法線層１
  6
CONTINUOUS
 62
    7
 10
194
 20
155
 11
146
 21
155
  0
TEXT
  8
_0-9_寸法線層１
 62
    7
 10
168.11177143234622
 20
156
 40
3
 41
1
 50
0
  1
48
  0
LINE
  8
_0-9_寸法線層１
  6
CONTINUOUS
 62
    7
 10
194
 20
166.75
 11
194
 21
153
  0
LINE
  8
_0-9_寸法線層１
  6
CONTINUOUS
 62
    7
 10
146
 20
166.75
 11
146
 21
153
  0
ENDBLK
  0
BLOCK
  2
-003-_D3
 70
   64
 10
0
 20
0
 30
0
  0
LINE
  8
_0-9_寸法線層１
  6
CONTINUOUS
 62
    7
 10
146
 20
155
 11
134.5
 21
155
  0
TEXT
  8
_0-9_寸法線層１
 62
    7
 10
136.86177143234622
 20
156
 40
3
 41
1
 50
0
  1
11.5
  0
LINE
  8
_0-9_寸法線層１
  6
CONTINUOUS
 62
    7
 10
146
 20
164.5
 11
146
 21
153
  0
LINE
  8
_0-9_寸法線層１
  6
CONTINUOUS
 62
    7
 10
134.5
 20
167
 11
134.5
 21
153
  0
ENDBLK
  0
BLOCK
  2
-004-_D4
 70
   64
 10
0
 20
0
 30
0
  0
LINE
  8
_0-9_寸法線層１
  6
CONTINUOUS
 62
    7
 10
125
 20
237
 11
125
 21
165
  0
TEXT
  8
_0-9_寸法線層１
 62
    7
 10
124
 20
199.11177143234622
 40
3
 41
1
 50
90
  1
72
  0
LINE
  8
_0-9_寸法線層１
  6
CONTINUOUS
 62
    7
 10
142.5
 20
237
 11
123
 21
237
  0
LINE
  8
_0-9_寸法線層１
  6
CONTINUOUS
 62
    7
 10
142.5
 20
165
 11
123
 21
165
  0
ENDBLK
  0
BLOCK
  2
-005-_D5
 70
   64
 10
0
 20
0
 30
0
  0
LINE
  8
_0-9_寸法線層１
  6
CONTINUOUS
 62
    7
 10
395.5
 20
122.5
 11
327.5
 21
122.5
  0
TEXT
  8
_0-9_寸法線層１
 62
    7
 10
357.24001143498862
 20
124.09999999999999
 40
3
 41
1
 50
0
  1
68
  0
TEXT
  8
_0-9_寸法線層１
 62
    7
 10
361.01646857029613
 20
125.59999999999999
 40
2.0999999999999996
 41
1
 50
0
  1
+0.5
  0
TEXT
  8
_0-9_寸法線層１
 62
    7
 10
361.01646857029613
 20
123.5
 40
2.0999999999999996
 41
1
 50
0
  1
-0
  0
LINE
  8
_0-9_寸法線層１
  6
CONTINUOUS
 62
    7
 10
395.5
 20
116
 11
395.5
 21
124.5
  0
LINE
  8
_0-9_寸法線層１
  6
CONTINUOUS
 62
    7
 10
327.5
 20
116
 11
327.5
 21
124.5
  0
ENDBLK
  0
BLOCK
  2
-006-_D6
 70
   64
 10
0
 20
0
 30
0
  0
LINE
  8
_0-9_寸法線層１
  6
CONTINUOUS
 62
    7
 10
320
 20
115.5
 11
320
 21
47.5
  0
TEXT
  8
_0-9_寸法線層１
 62
    7
 10
318.39999999999998
 20
77.240011434988574
 40
3
 41
1
 50
90
  1
68
  0
TEXT
  8
_0-9_寸法線層１
 62
    7
 10
316.89999999999998
 20
81.016468570296141
 40
2.0999999999999996
 41
1
 50
90
  1
+0.5
  0
TEXT
  8
_0-9_寸法線層１
 62
    7
 10
319
 20
81.016468570296141
 40
2.0999999999999996
 41
1
 50
90
  1
-0
  0
LINE
  8
_0-9_寸法線層１
  6
CONTINUOUS
 62
    7
 10
327
 20
115.5
 11
318
 21
115.5
  0
LINE
  8
_0-9_寸法線層１
  6
CONTINUOUS
 62
    7
 10
327
 20
47.5
 11
318
 21
47.5
  0
ENDBLK
  0
ENDSEC
  0
SECTION
  2
ENTITIES
  0
LINE
  8
_0-1_作画層１
  6
CONTINUOUS
 62
    7
 10
312.25
 20
135
 11
312.25
 21
180.5162818355667
  0
LINE
  8
_0-1_作画層１
  6
CONTINUOUS
 62
    7
 10
307.25
 20
193.75
 11
207.25
 21
193.75
  0
LINE
  8
_0-1_作画層１
  6
CONTINUOUS
 62
    7
 10
312.35203430031015
 20
183.75
 11
207.25
 21
183.75
  0
LINE
  8
_0-1_作画層１
  6
CONTINUOUS
 62
    7
 10
312.06303594234629
 20
188.75
 11
207.25
 21
188.75
  0
LINE
  8
_0-1_作画層１
  6
CONTINUOUS
 62
    7
 10
312.25
 20
223.75
 11
207.25
 21
223.75
  0
TEXT
  8
_0-7_注記層１
 62
    7
 10
244.75
 20
174.5
 40
3.5
 41
1
 50
0
  1
1日16回　ON-OFF動作又は、31パルス動作
  0
LINE
  8
_0-1_作画層１
  6
CONTINUOUS
 62
    7
 10
47.25
 20
126.25
 11
47.25
 21
198.25
  0
LINE
  8
_0-1_作画層１
  6
CONTINUOUS
 62
    7
 10
44.75
 20
126.25
 11
44.75
 21
198.25
  0
LINE
  8
_0-1_作画層１
  6
CONTINUOUS
 62
    7
 10
42.25
 20
126.25
 11
42.25
 21
198.25
  0
LINE
  8
_0-1_作画層１
  6
CONTINUOUS
 62
    7
 10
-15.75
 20
126.25
 11
-15.75
 21
198.25
  0
LINE
  8
_0-1_作画層１
  6
CONTINUOUS
 62
    7
 10
-13.25
 20
126.25
 11
-13.25
 21
198.25
  0
LINE
  8
_0-1_作画層１
  6
CONTINUOUS
 62
    7
 10
-10.75
 20
126.25
 11
-10.75
 21
198.25
  0
LINE
  8
_0-1_作画層１
  6
CONTINUOUS
 62
    7
 10
14
 20
154.25285016286645
 11
14
 21
160.25285016286645
  0
LINE
  8
_0-1_作画層１
  6
CONTINUOUS
 62
    7
 10
14
 20
160.25285016286645
 11
17.5
 21
160.25285016286645
  0
LINE
  8
_0-1_作画層１
  6
CONTINUOUS
 62
    7
 10
17.5
 20
154.25285016286645
 11
14
 21
154.25285016286645
  0
LINE
  8
_0-1_作画層１
  6
CONTINUOUS
 62
    7
 10
17.5
 20
160.25285016286645
 11
17.5
 21
154.25285016286645
  0
LINE
  8
_0-1_作画層１
  6
CONTINUOUS
 62
    7
 10
8.7500000000000284
 20
154.25285016286645
 11
12.250000000000028
 21
154.25285016286645
  0
LINE
  8
_0-1_作画層１
  6
CONTINUOUS
 62
    7
 10
3.5000000000000284
 20
154.25285016286645
 11
7.0000000000000284
 21
154.25285016286645
  0
LINE
  8
_0-1_作画層１
  6
CONTINUOUS
 62
    7
 10
-1.7499999999999716
 20
154.25285016286645
 11
1.7500000000000284
 21
154.25285016286645
  0
LINE
  8
_0-1_作画層１
  6
CONTINUOUS
 62
    7
 10
13.5
 20
143
 11
13.5
 21
147.5
  0
LINE
  8
_0-1_作画層１
  6
CONTINUOUS
 62
    7
 10
13.5
 20
147.5
 11
18
 21
147.5
  0
LINE
  8
_0-1_作画層１
  6
CONTINUOUS
 62
    7
 10
18
 20
147.5
 11
18
 21
143
  0
LINE
  8
_0-1_作画層１
  6
CONTINUOUS
 62
    7
 10
18
 20
143
 11
13.5
 21
143
  0
LINE
  8
_0-1_作画層１
  6
CONTINUOUS
 62
    7
 10
20.5
 20
143
 11
20.5
 21
147.5
  0
LINE
  8
_0-1_作画層１
  6
CONTINUOUS
 62
    7
 10
20.5
 20
147.5
 11
25
 21
147.5
  0
LINE
  8
_0-1_作画層１
  6
CONTINUOUS
 62
    7
 10
25
 20
147.5
 11
25
 21
143
  0
LINE
  8
_0-1_作画層１
  6
CONTINUOUS
 62
    7
 10
25
 20
143
 11
20.5
 21
143
  0
LINE
  8
_0-1_作画層１
  6
CONTINUOUS
 62
    7
 10
6.5
 20
143
 11
6.5
 21
147.5
  0
LINE
  8
_0-1_作画層１
  6
CONTINUOUS
 62
    7
 10
6.5
 20
147.5
 11
11
 21
147.5
  0
LINE
  8
_0-1_作画層１
  6
CONTINUOUS
 62
    7
 10
11
 20
147.5
 11
11
 21
143
  0
LINE
  8
_0-1_作画層１
  6
CONTINUOUS
 62
    7
 10
11
 20
143
 11
6.5
 21
143
  0
LINE
  8
_0-1_作画層１
  6
CONTINUOUS
 62
    7
 10
13.5
 20
136
 11
13.5
 21
140.5
  0
LINE
  8
_0-1_作画層１
  6
CONTINUOUS
 62
    7
 10
13.5
 20
140.5
 11
18
 21
140.5
  0
LINE
  8
_0-1_作画層１
  6
CONTINUOUS
 62
    7
 10
18
 20
140.5
 11
18
 21
136
  0
LINE
  8
_0-1_作画層１
  6
CONTINUOUS
 62
    7
 10
18
 20
136
 11
13.5
 21
136
  0
LINE
  8
_0-1_作画層１
  6
CONTINUOUS
 62
    7
 10
20.5
 20
136
 11
20.5
 21
140.5
  0
LINE
  8
_0-1_作画層１
  6
CONTINUOUS
 62
    7
 10
20.5
 20
140.5
 11
25
 21
140.5
  0
LINE
  8
_0-1_作画層１
  6
CONTINUOUS
 62
    7
 10
25
 20
140.5
 11
25
 21
136
  0
LINE
  8
_0-1_作画層１
  6
CONTINUOUS
 62
    7
 10
25
 20
136
 11
20.5
 21
136
  0
LINE
  8
_0-1_作画層１
  6
CONTINUOUS
 62
    7
 10
6.5
 20
136
 11
6.5
 21
140.5
  0
LINE
  8
_0-1_作画層１
  6
CONTINUOUS
 62
    7
 10
6.5
 20
140.5
 11
11
 21
140.5
  0
LINE
  8
_0-1_作画層１
  6
CONTINUOUS
 62
    7
 10
11
 20
140.5
 11
11
 21
136
  0
LINE
  8
_0-1_作画層１
  6
CONTINUOUS
 62
    7
 10
11
 20
136
 11
6.5
 21
136
  0
LINE
  8
_0-1_作画層１
  6
CONTINUOUS
 62
    7
 10
14.000000000000028
 20
157.25285016286645
 11
17.500000000000028
 21
157.25285016286645
  0
LINE
  8
_0-1_作画層１
  6
CONTINUOUS
 62
    7
 10
17.418005145751948
 20
154.25128951136088
 11
17.499662297477926
 21
154.33294666308686
  0
LINE
  8
_0-1_作画層１
  6
CONTINUOUS
 62
    7
 10
17.27658378951466
 20
154.25128951136088
 11
17.499662297477926
 21
154.47436801932417
  0
LINE
  8
_0-1_作画層１
  6
CONTINUOUS
 62
    7
 10
17.135162433277344
 20
154.25128951136088
 11
17.499662297477926
 21
154.61578937556146
  0
LINE
  8
_0-1_作画層１
  6
CONTINUOUS
 62
    7
 10
16.993741077040056
 20
154.25128951136088
 11
17.499662297477926
 21
154.75721073179878
  0
LINE
  8
_0-1_作画層１
  6
CONTINUOUS
 62
    7
 10
16.85231972080274
 20
154.25128951136088
 11
17.499662297477926
 21
154.89863208803609
  0
LINE
  8
_0-1_作画層１
  6
CONTINUOUS
 62
    7
 10
16.710898364565423
 20
154.25128951136088
 11
17.499662297477926
 21
155.04005344427338
  0
LINE
  8
_0-1_作画層１
  6
CONTINUOUS
 62
    7
 10
16.569477008328136
 20
154.25128951136088
 11
17.499662297477926
 21
155.18147480051067
  0
LINE
  8
_0-1_作画層１
  6
CONTINUOUS
 62
    7
 10
16.428055652090848
 20
154.25128951136088
 11
17.499662297477926
 21
155.32289615674799
  0
LINE
  8
_0-1_作画層１
  6
CONTINUOUS
 62
    7
 10
16.286634295853531
 20
154.25128951136088
 11
17.499662297477926
 21
155.4643175129853
  0
LINE
  8
_0-1_作画層１
  6
CONTINUOUS
 62
    7
 10
16.145212939616215
 20
154.25128951136088
 11
17.499662297477926
 21
155.60573886922259
  0
LINE
  8
_0-1_作画層１
  6
CONTINUOUS
 62
    7
 10
16.003791583378927
 20
154.25128951136088
 11
17.499662297477926
 21
155.74716022545988
  0
LINE
  8
_0-1_作画層１
  6
CONTINUOUS
 62
    7
 10
15.862370227141639
 20
154.25128951136088
 11
17.499662297477926
 21
155.88858158169717
  0
LINE
  8
_0-1_作画層１
  6
CONTINUOUS
 62
    7
 10
15.720948870904323
 20
154.25128951136088
 11
17.499662297477926
 21
156.03000293793451
  0
LINE
  8
_0-1_作画層１
  6
CONTINUOUS
 62
    7
 10
15.579527514667035
 20
154.25128951136088
 11
17.499662297477926
 21
156.1714242941718
  0
LINE
  8
_0-1_作画層１
  6
CONTINUOUS
 62
    7
 10
15.438106158429719
 20
154.25128951136088
 11
17.499662297477926
 21
156.31284565040909
  0
LINE
  8
_0-1_作画層１
  6
CONTINUOUS
 62
    7
 10
15.296684802192431
 20
154.25128951136088
 11
17.499662297477926
 21
156.4542670066464
  0
LINE
  8
_0-1_作画層１
  6
CONTINUOUS
 62
    7
 10
15.155263445955114
 20
154.25128951136088
 11
17.499662297477926
 21
156.59568836288372
  0
LINE
  8
_0-1_作画層１
  6
CONTINUOUS
 62
    7
 10
15.013842089717798
 20
154.25128951136088
 11
17.499662297477926
 21
156.73710971912101
  0
LINE
  8
_0-1_作画層１
  6
CONTINUOUS
 62
    7
 10
14.87242073348051
 20
154.25128951136088
 11
17.499662297477926
 21
156.8785310753583
  0
LINE
  8
_0-1_作画層１
  6
CONTINUOUS
 62
    7
 10
14.730999377243222
 20
154.25128951136088
 11
17.499662297477926
 21
157.01995243159561
  0
LINE
  8
_0-1_作画層１
  6
CONTINUOUS
 62
    7
 10
14.589578021005906
 20
154.25128951136088
 11
17.499662297477926
 21
157.16137378783293
  0
LINE
  8
_0-1_作画層１
  6
CONTINUOUS
 62
    7
 10
14.44815666476859
 20
154.25128951136088
 11
17.447038367094308
 21
157.2501712136866
  0
LINE
  8
_0-1_作画層１
  6
CONTINUOUS
 62
    7
 10
14.306735308531302
 20
154.25128951136088
 11
17.30561701085702
 21
157.2501712136866
  0
LINE
  8
_0-1_作画層１
  6
CONTINUOUS
 62
    7
 10
14.165313952293985
 20
154.25128951136088
 11
17.164195654619732
 21
157.2501712136866
  0
LINE
  8
_0-1_作画層１
  6
CONTINUOUS
 62
    7
 10
14.023892596056697
 20
154.25128951136088
 11
17.022774298382416
 21
157.2501712136866
  0
LINE
  8
_0-1_作画層１
  6
CONTINUOUS
 62
    7
 10
14.000966978097921
 20
154.36978524963939
 11
16.881352942145099
 21
157.2501712136866
  0
LINE
  8
_0-1_作画層１
  6
CONTINUOUS
 62
    7
 10
14.000966978097921
 20
154.51120660587668
 11
16.739931585907811
 21
157.2501712136866
  0
LINE
  8
_0-1_作画層１
  6
CONTINUOUS
 62
    7
 10
14.000966978097921
 20
154.652627962114
 11
16.598510229670524
 21
157.2501712136866
  0
LINE
  8
_0-1_作画層１
  6
CONTINUOUS
 62
    7
 10
14.000966978097921
 20
154.79404931835131
 11
16.457088873433207
 21
157.2501712136866
  0
LINE
  8
_0-1_作画層１
  6
CONTINUOUS
 62
    7
 10
14.000966978097921
 20
154.9354706745886
 11
16.315667517195891
 21
157.2501712136866
  0
LINE
  8
_0-1_作画層１
  6
CONTINUOUS
 62
    7
 10
14.000966978097921
 20
155.07689203082592
 11
16.174246160958603
 21
157.2501712136866
  0
LINE
  8
_0-1_作画層１
  6
CONTINUOUS
 62
    7
 10
14.000966978097921
 20
155.21831338706323
 11
16.032824804721287
 21
157.2501712136866
  0
LINE
  8
_0-1_作画層１
  6
CONTINUOUS
 62
    7
 10
14.000966978097921
 20
155.35973474330052
 11
15.891403448483999
 21
157.2501712136866
  0
LINE
  8
_0-1_作画層１
  6
CONTINUOUS
 62
    7
 10
14.000966978097921
 20
155.50115609953781
 11
15.749982092246682
 21
157.2501712136866
  0
LINE
  8
_0-1_作画層１
  6
CONTINUOUS
 62
    7
 10
14.000966978097921
 20
155.64257745577513
 11
15.608560736009395
 21
157.2501712136866
  0
LINE
  8
_0-1_作画層１
  6
CONTINUOUS
 62
    7
 10
14.000966978097921
 20
155.78399881201244
 11
15.467139379772078
 21
157.2501712136866
  0
LINE
  8
_0-1_作画層１
  6
CONTINUOUS
 62
    7
 10
14.000966978097921
 20
155.92542016824973
 11
15.32571802353479
 21
157.2501712136866
  0
LINE
  8
_0-1_作画層１
  6
CONTINUOUS
 62
    7
 10
14.000966978097921
 20
156.06684152448702
 11
15.184296667297474
 21
157.2501712136866
  0
LINE
  8
_0-1_作画層１
  6
CONTINUOUS
 62
    7
 10
14.000966978097921
 20
156.20826288072433
 11
15.042875311060186
 21
157.2501712136866
  0
LINE
  8
_0-1_作画層１
  6
CONTINUOUS
 62
    7
 10
14.000966978097921
 20
156.34968423696165
 11
14.90145395482287
 21
157.2501712136866
  0
LINE
  8
_0-1_作画層１
  6
CONTINUOUS
 62
    7
 10
14.000966978097921
 20
156.49110559319894
 11
14.760032598585553
 21
157.2501712136866
  0
LINE
  8
_0-1_作画層１
  6
CONTINUOUS
 62
    7
 10
14.000966978097921
 20
156.63252694943623
 11
14.618611242348265
 21
157.2501712136866
  0
LINE
  8
_0-1_作画層１
  6
CONTINUOUS
 62
    7
 10
14.000966978097921
 20
156.77394830567354
 11
14.477189886110978
 21
157.2501712136866
  0
LINE
  8
_0-1_作画層１
  6
CONTINUOUS
 62
    7
 10
14.000966978097921
 20
156.91536966191086
 11
14.335768529873661
 21
157.2501712136866
  0
LINE
  8
_0-1_作画層１
  6
CONTINUOUS
 62
    7
 10
14.000966978097921
 20
157.05679101814815
 11
14.194347173636345
 21
157.2501712136866
  0
LINE
  8
_0-1_作画層１
  6
CONTINUOUS
 62
    7
 10
14.000966978097921
 20
157.19821237438543
 11
14.052925817399057
 21
157.2501712136866
  0
LINE
  8
_0-1_作画層１
  6
CONTINUOUS
 62
    7
 10
30.75
 20
134.25285016286645
 11
27.25
 21
134.25285016286645
  0
LINE
  8
_0-1_作画層１
  6
CONTINUOUS
 62
    7
 10
27.25
 20
142.75285016286645
 11
30.75
 21
142.75285016286645
  0
LINE
  8
_0-1_作画層１
  6
CONTINUOUS
 62
    7
 10
27.25
 20
142.75285016286645
 11
27.25
 21
134.25285016286645
  0
LINE
  8
_0-1_作画層１
  6
CONTINUOUS
 62
    7
 10
30.75
 20
142.75285016286645
 11
30.75
 21
134.25285016286645
  0
LINE
  8
_0-1_作画層１
  6
CONTINUOUS
 62
    7
 10
27.250000000000028
 20
139.75285016286645
 11
30.750000000000028
 21
139.75285016286645
  0
LINE
  8
_0-1_作画層１
  6
CONTINUOUS
 62
    7
 10
30.668005145751948
 20
136.75128951136088
 11
30.74966229747794
 21
136.83294666308686
  0
LINE
  8
_0-1_作画層１
  6
CONTINUOUS
 62
    7
 10
30.52658378951466
 20
136.75128951136088
 11
30.74966229747794
 21
136.97436801932417
  0
LINE
  8
_0-1_作画層１
  6
CONTINUOUS
 62
    7
 10
30.385162433277344
 20
136.75128951136088
 11
30.74966229747794
 21
137.11578937556146
  0
LINE
  8
_0-1_作画層１
  6
CONTINUOUS
 62
    7
 10
30.243741077040042
 20
136.75128951136088
 11
30.74966229747794
 21
137.25721073179878
  0
LINE
  8
_0-1_作画層１
  6
CONTINUOUS
 62
    7
 10
30.10231972080274
 20
136.75128951136088
 11
30.74966229747794
 21
137.39863208803609
  0
LINE
  8
_0-1_作画層１
  6
CONTINUOUS
 62
    7
 10
29.960898364565423
 20
136.75128951136088
 11
30.74966229747794
 21
137.54005344427338
  0
LINE
  8
_0-1_作画層１
  6
CONTINUOUS
 62
    7
 10
29.819477008328136
 20
136.75128951136088
 11
30.74966229747794
 21
137.68147480051067
  0
LINE
  8
_0-1_作画層１
  6
CONTINUOUS
 62
    7
 10
29.678055652090833
 20
136.75128951136088
 11
30.74966229747794
 21
137.82289615674799
  0
LINE
  8
_0-1_作画層１
  6
CONTINUOUS
 62
    7
 10
29.536634295853531
 20
136.75128951136088
 11
30.74966229747794
 21
137.9643175129853
  0
LINE
  8
_0-1_作画層１
  6
CONTINUOUS
 62
    7
 10
29.395212939616229
 20
136.75128951136088
 11
30.74966229747794
 21
138.10573886922259
  0
LINE
  8
_0-1_作画層１
  6
CONTINUOUS
 62
    7
 10
29.253791583378927
 20
136.75128951136088
 11
30.74966229747794
 21
138.24716022545988
  0
LINE
  8
_0-1_作画層１
  6
CONTINUOUS
 62
    7
 10
29.112370227141639
 20
136.75128951136088
 11
30.74966229747794
 21
138.38858158169717
  0
LINE
  8
_0-1_作画層１
  6
CONTINUOUS
 62
    7
 10
28.970948870904323
 20
136.75128951136088
 11
30.74966229747794
 21
138.53000293793451
  0
LINE
  8
_0-1_作画層１
  6
CONTINUOUS
 62
    7
 10
28.829527514667035
 20
136.75128951136088
 11
30.74966229747794
 21
138.6714242941718
  0
LINE
  8
_0-1_作画層１
  6
CONTINUOUS
 62
    7
 10
28.688106158429719
 20
136.75128951136088
 11
30.74966229747794
 21
138.81284565040909
  0
LINE
  8
_0-1_作画層１
  6
CONTINUOUS
 62
    7
 10
28.546684802192416
 20
136.75128951136088
 11
30.74966229747794
 21
138.9542670066464
  0
LINE
  8
_0-1_作画層１
  6
CONTINUOUS
 62
    7
 10
28.405263445955114
 20
136.75128951136088
 11
30.74966229747794
 21
139.09568836288372
  0
LINE
  8
_0-1_作画層１
  6
CONTINUOUS
 62
    7
 10
28.263842089717798
 20
136.75128951136088
 11
30.74966229747794
 21
139.23710971912101
  0
LINE
  8
_0-1_作画層１
  6
CONTINUOUS
 62
    7
 10
28.12242073348051
 20
136.75128951136088
 11
30.74966229747794
 21
139.3785310753583
  0
LINE
  8
_0-1_作画層１
  6
CONTINUOUS
 62
    7
 10
27.980999377243208
 20
136.75128951136088
 11
30.74966229747794
 21
139.51995243159561
  0
LINE
  8
_0-1_作画層１
  6
CONTINUOUS
 62
    7
 10
27.839578021005906
 20
136.75128951136088
 11
30.74966229747794
 21
139.66137378783293
  0
LINE
  8
_0-1_作画層１
  6
CONTINUOUS
 62
    7
 10
27.698156664768604
 20
136.75128951136088
 11
30.697038367094322
 21
139.7501712136866
  0
LINE
  8
_0-1_作画層１
  6
CONTINUOUS
 62
    7
 10
27.556735308531302
 20
136.75128951136088
 11
30.55561701085702
 21
139.7501712136866
  0
LINE
  8
_0-1_作画層１
  6
CONTINUOUS
 62
    7
 10
27.415313952293985
 20
136.75128951136088
 11
30.414195654619718
 21
139.7501712136866
  0
LINE
  8
_0-1_作画層１
  6
CONTINUOUS
 62
    7
 10
27.273892596056697
 20
136.75128951136088
 11
30.272774298382416
 21
139.7501712136866
  0
LINE
  8
_0-1_作画層１
  6
CONTINUOUS
 62
    7
 10
27.250966978097921
 20
136.86978524963939
 11
30.131352942145114
 21
139.7501712136866
  0
LINE
  8
_0-1_作画層１
  6
CONTINUOUS
 62
    7
 10
27.250966978097921
 20
137.01120660587668
 11
29.989931585907811
 21
139.7501712136866
  0
LINE
  8
_0-1_作画層１
  6
CONTINUOUS
 62
    7
 10
27.250966978097921
 20
137.152627962114
 11
29.848510229670509
 21
139.7501712136866
  0
LINE
  8
_0-1_作画層１
  6
CONTINUOUS
 62
    7
 10
27.250966978097921
 20
137.29404931835131
 11
29.707088873433207
 21
139.7501712136866
  0
LINE
  8
_0-1_作画層１
  6
CONTINUOUS
 62
    7
 10
27.250966978097921
 20
137.4354706745886
 11
29.565667517195905
 21
139.7501712136866
  0
LINE
  8
_0-1_作画層１
  6
CONTINUOUS
 62
    7
 10
27.250966978097921
 20
137.57689203082592
 11
29.424246160958603
 21
139.7501712136866
  0
LINE
  8
_0-1_作画層１
  6
CONTINUOUS
 62
    7
 10
27.250966978097921
 20
137.71831338706323
 11
29.282824804721287
 21
139.7501712136866
  0
LINE
  8
_0-1_作画層１
  6
CONTINUOUS
 62
    7
 10
27.250966978097921
 20
137.85973474330052
 11
29.141403448483999
 21
139.7501712136866
  0
LINE
  8
_0-1_作画層１
  6
CONTINUOUS
 62
    7
 10
27.250966978097921
 20
138.00115609953781
 11
28.999982092246682
 21
139.7501712136866
  0
LINE
  8
_0-1_作画層１
  6
CONTINUOUS
 62
    7
 10
27.250966978097921
 20
138.14257745577513
 11
28.858560736009395
 21
139.7501712136866
  0
LINE
  8
_0-1_作画層１
  6
CONTINUOUS
 62
    7
 10
27.250966978097921
 20
138.28399881201244
 11
28.717139379772078
 21
139.7501712136866
  0
LINE
  8
_0-1_作画層１
  6
CONTINUOUS
 62
    7
 10
27.250966978097921
 20
138.42542016824973
 11
28.57571802353479
 21
139.7501712136866
  0
LINE
  8
_0-1_作画層１
  6
CONTINUOUS
 62
    7
 10
27.250966978097921
 20
138.56684152448702
 11
28.434296667297474
 21
139.7501712136866
  0
LINE
  8
_0-1_作画層１
  6
CONTINUOUS
 62
    7
 10
27.250966978097921
 20
138.70826288072433
 11
28.292875311060186
 21
139.7501712136866
  0
LINE
  8
_0-1_作画層１
  6
CONTINUOUS
 62
    7
 10
27.250966978097921
 20
138.84968423696165
 11
28.15145395482287
 21
139.7501712136866
  0
LINE
  8
_0-1_作画層１
  6
CONTINUOUS
 62
    7
 10
27.250966978097921
 20
138.99110559319894
 11
28.010032598585568
 21
139.7501712136866
  0
LINE
  8
_0-1_作画層１
  6
CONTINUOUS
 62
    7
 10
27.250966978097921
 20
139.13252694943623
 11
27.86861124234828
 21
139.7501712136866
  0
LINE
  8
_0-1_作画層１
  6
CONTINUOUS
 62
    7
 10
27.250966978097921
 20
139.27394830567354
 11
27.727189886110978
 21
139.7501712136866
  0
LINE
  8
_0-1_作画層１
  6
CONTINUOUS
 62
    7
 10
27.250966978097921
 20
139.41536966191086
 11
27.585768529873661
 21
139.7501712136866
  0
LINE
  8
_0-1_作画層１
  6
CONTINUOUS
 62
    7
 10
27.250966978097921
 20
139.55679101814815
 11
27.444347173636359
 21
139.7501712136866
  0
LINE
  8
_0-1_作画層１
  6
CONTINUOUS
 62
    7
 10
27.250966978097921
 20
139.69821237438543
 11
27.302925817399057
 21
139.7501712136866
  0
LINE
  8
_0-1_作画層１
  6
CONTINUOUS
 62
    7
 10
0.75
 20
134.25285016286645
 11
4.25
 21
134.25285016286645
  0
LINE
  8
_0-1_作画層１
  6
CONTINUOUS
 62
    7
 10
4.25
 20
142.75285016286645
 11
0.75
 21
142.75285016286645
  0
LINE
  8
_0-1_作画層１
  6
CONTINUOUS
 62
    7
 10
4.25
 20
142.75285016286645
 11
4.25
 21
134.25285016286645
  0
LINE
  8
_0-1_作画層１
  6
CONTINUOUS
 62
    7
 10
0.75
 20
142.75285016286645
 11
0.75
 21
134.25285016286645
  0
LINE
  8
_0-1_作画層１
  6
CONTINUOUS
 62
    7
 10
4.25
 20
139.75285016286645
 11
0.75
 21
139.75285016286645
  0
LINE
  8
_0-1_作画層１
  6
CONTINUOUS
 62
    7
 10
0.8319948542480801
 20
136.75128951136088
 11
0.7503377025220743
 21
136.83294666308686
  0
LINE
  8
_0-1_作画層１
  6
CONTINUOUS
 62
    7
 10
0.973416210485368
 20
136.75128951136088
 11
0.7503377025220743
 21
136.97436801932417
  0
LINE
  8
_0-1_作画層１
  6
CONTINUOUS
 62
    7
 10
1.114837566722656
 20
136.75128951136088
 11
0.7503377025220743
 21
137.11578937556146
  0
LINE
  8
_0-1_作画層１
  6
CONTINUOUS
 62
    7
 10
1.2562589229599723
 20
136.75128951136088
 11
0.7503377025220743
 21
137.25721073179878
  0
LINE
  8
_0-1_作画層１
  6
CONTINUOUS
 62
    7
 10
1.3976802791972887
 20
136.75128951136088
 11
0.7503377025220743
 21
137.39863208803609
  0
LINE
  8
_0-1_作画層１
  6
CONTINUOUS
 62
    7
 10
1.5391016354345766
 20
136.75128951136088
 11
0.7503377025220743
 21
137.54005344427338
  0
LINE
  8
_0-1_作画層１
  6
CONTINUOUS
 62
    7
 10
1.6805229916718645
 20
136.75128951136088
 11
0.7503377025220743
 21
137.68147480051067
  0
LINE
  8
_0-1_作画層１
  6
CONTINUOUS
 62
    7
 10
1.8219443479091808
 20
136.75128951136088
 11
0.7503377025220743
 21
137.82289615674799
  0
LINE
  8
_0-1_作画層１
  6
CONTINUOUS
 62
    7
 10
1.9633657041464971
 20
136.75128951136088
 11
0.7503377025220743
 21
137.9643175129853
  0
LINE
  8
_0-1_作画層１
  6
CONTINUOUS
 62
    7
 10
2.104787060383785
 20
136.75128951136088
 11
0.7503377025220743
 21
138.10573886922259
  0
LINE
  8
_0-1_作画層１
  6
CONTINUOUS
 62
    7
 10
2.246208416621073
 20
136.75128951136088
 11
0.7503377025220743
 21
138.24716022545988
  0
LINE
  8
_0-1_作画層１
  6
CONTINUOUS
 62
    7
 10
2.3876297728583609
 20
136.75128951136088
 11
0.7503377025220743
 21
138.38858158169717
  0
LINE
  8
_0-1_作画層１
  6
CONTINUOUS
 62
    7
 10
2.5290511290957056
 20
136.75128951136088
 11
0.7503377025220743
 21
138.53000293793451
  0
LINE
  8
_0-1_作画層１
  6
CONTINUOUS
 62
    7
 10
2.6704724853329935
 20
136.75128951136088
 11
0.7503377025220743
 21
138.6714242941718
  0
LINE
  8
_0-1_作画層１
  6
CONTINUOUS
 62
    7
 10
2.8118938415702814
 20
136.75128951136088
 11
0.7503377025220743
 21
138.81284565040909
  0
LINE
  8
_0-1_作画層１
  6
CONTINUOUS
 62
    7
 10
2.9533151978075978
 20
136.75128951136088
 11
0.7503377025220743
 21
138.9542670066464
  0
LINE
  8
_0-1_作画層１
  6
CONTINUOUS
 62
    7
 10
3.0947365540449141
 20
136.75128951136088
 11
0.7503377025220743
 21
139.09568836288372
  0
LINE
  8
_0-1_作画層１
  6
CONTINUOUS
 62
    7
 10
3.236157910282202
 20
136.75128951136088
 11
0.7503377025220743
 21
139.23710971912101
  0
LINE
  8
_0-1_作画層１
  6
CONTINUOUS
 62
    7
 10
3.3775792665194899
 20
136.75128951136088
 11
0.7503377025220743
 21
139.3785310753583
  0
LINE
  8
_0-1_作画層１
  6
CONTINUOUS
 62
    7
 10
3.5190006227568063
 20
136.75128951136088
 11
0.7503377025220743
 21
139.51995243159561
  0
LINE
  8
_0-1_作画層１
  6
CONTINUOUS
 62
    7
 10
3.6604219789941226
 20
136.75128951136088
 11
0.7503377025220743
 21
139.66137378783293
  0
LINE
  8
_0-1_作画層１
  6
CONTINUOUS
 62
    7
 10
3.8018433352314105
 20
136.75128951136088
 11
0.8029616329056921
 21
139.7501712136866
  0
LINE
  8
_0-1_作画層１
  6
CONTINUOUS
 62
    7
 10
3.9432646914686984
 20
136.75128951136088
 11
0.94438298914298
 21
139.7501712136866
  0
LINE
  8
_0-1_作画層１
  6
CONTINUOUS
 62
    7
 10
4.0846860477060432
 20
136.75128951136088
 11
1.0858043453802964
 21
139.7501712136866
  0
LINE
  8
_0-1_作画層１
  6
CONTINUOUS
 62
    7
 10
4.2261074039433311
 20
136.75128951136088
 11
1.2272257016176127
 21
139.7501712136866
  0
LINE
  8
_0-1_作画層１
  6
CONTINUOUS
 62
    7
 10
4.2490330219021075
 20
136.86978524963939
 11
1.3686470578549006
 21
139.7501712136866
  0
LINE
  8
_0-1_作画層１
  6
CONTINUOUS
 62
    7
 10
4.2490330219021075
 20
137.01120660587668
 11
1.5100684140921885
 21
139.7501712136866
  0
LINE
  8
_0-1_作画層１
  6
CONTINUOUS
 62
    7
 10
4.2490330219021075
 20
137.152627962114
 11
1.6514897703295048
 21
139.7501712136866
  0
LINE
  8
_0-1_作画層１
  6
CONTINUOUS
 62
    7
 10
4.2490330219021075
 20
137.29404931835131
 11
1.7929111265668212
 21
139.7501712136866
  0
LINE
  8
_0-1_作画層１
  6
CONTINUOUS
 62
    7
 10
4.2490330219021075
 20
137.4354706745886
 11
1.9343324828041091
 21
139.7501712136866
  0
LINE
  8
_0-1_作画層１
  6
CONTINUOUS
 62
    7
 10
4.2490330219021075
 20
137.57689203082592
 11
2.075753839041397
 21
139.7501712136866
  0
LINE
  8
_0-1_作画層１
  6
CONTINUOUS
 62
    7
 10
4.2490330219021075
 20
137.71831338706323
 11
2.2171751952787417
 21
139.7501712136866
  0
LINE
  8
_0-1_作画層１
  6
CONTINUOUS
 62
    7
 10
4.2490330219021075
 20
137.85973474330052
 11
2.3585965515160296
 21
139.7501712136866
  0
LINE
  8
_0-1_作画層１
  6
CONTINUOUS
 62
    7
 10
4.2490330219021075
 20
138.00115609953781
 11
2.5000179077533176
 21
139.7501712136866
  0
LINE
  8
_0-1_作画層１
  6
CONTINUOUS
 62
    7
 10
4.2490330219021075
 20
138.14257745577513
 11
2.6414392639906055
 21
139.7501712136866
  0
LINE
  8
_0-1_作画層１
  6
CONTINUOUS
 62
    7
 10
4.2490330219021075
 20
138.28399881201244
 11
2.7828606202279502
 21
139.7501712136866
  0
LINE
  8
_0-1_作画層１
  6
CONTINUOUS
 62
    7
 10
4.2490330219021075
 20
138.42542016824973
 11
2.9242819764652381
 21
139.7501712136866
  0
LINE
  8
_0-1_作画層１
  6
CONTINUOUS
 62
    7
 10
4.2490330219021075
 20
138.56684152448702
 11
3.065703332702526
 21
139.7501712136866
  0
LINE
  8
_0-1_作画層１
  6
CONTINUOUS
 62
    7
 10
4.2490330219021075
 20
138.70826288072433
 11
3.207124688939814
 21
139.7501712136866
  0
LINE
  8
_0-1_作画層１
  6
CONTINUOUS
 62
    7
 10
4.2490330219021075
 20
138.84968423696165
 11
3.3485460451771587
 21
139.7501712136866
  0
LINE
  8
_0-1_作画層１
  6
CONTINUOUS
 62
    7
 10
4.2490330219021075
 20
138.99110559319894
 11
3.4899674014144466
 21
139.7501712136866
  0
LINE
  8
_0-1_作画層１
  6
CONTINUOUS
 62
    7
 10
4.2490330219021075
 20
139.13252694943623
 11
3.6313887576517345
 21
139.7501712136866
  0
LINE
  8
_0-1_作画層１
  6
CONTINUOUS
 62
    7
 10
4.2490330219021075
 20
139.27394830567354
 11
3.7728101138890224
 21
139.7501712136866
  0
LINE
  8
_0-1_作画層１
  6
CONTINUOUS
 62
    7
 10
4.2490330219021075
 20
139.41536966191086
 11
3.9142314701263672
 21
139.7501712136866
  0
LINE
  8
_0-1_作画層１
  6
CONTINUOUS
 62
    7
 10
4.2490330219021075
 20
139.55679101814815
 11
4.0556528263636551
 21
139.7501712136866
  0
LINE
  8
_0-1_作画層１
  6
CONTINUOUS
 62
    7
 10
4.2490330219021075
 20
139.69821237438543
 11
4.197074182600943
 21
139.7501712136866
  0
LINE
  8
_0-1_作画層１
  6
CONTINUOUS
 62
    7
 10
-6.1425049309664814
 20
151.16740631163708
 11
-6.1431914240484957
 21
151.17717612119361
  0
LINE
  8
_0-1_作画層１
  6
CONTINUOUS
 62
    7
 10
-6.1431914240484957
 20
151.17717612119361
 11
-6.1432411926426767
 21
151.1852828017563
  0
LINE
  8
_0-1_作画層１
  6
CONTINUOUS
 62
    7
 10
-6.1432411926426767
 20
151.1852828017563
 11
-6.1430910941044488
 21
151.19535224318565
  0
LINE
  8
_0-1_作画層１
  6
CONTINUOUS
 62
    7
 10
-6.1430910941044488
 20
151.19535224318565
 11
-6.1427379670577977
 21
151.20724562823938
  0
LINE
  8
_0-1_作画層１
  6
CONTINUOUS
 62
    7
 10
-6.1427379670577977
 20
151.20724562823938
 11
-6.1421786501267661
 21
151.22082413967536
  0
LINE
  8
_0-1_作画層１
  6
CONTINUOUS
 62
    7
 10
-6.1421786501267661
 20
151.22082413967536
 11
-6.1414099819353964
 21
151.23594896025125
  0
LINE
  8
_0-1_作画層１
  6
CONTINUOUS
 62
    7
 10
-6.1414099819353964
 20
151.23594896025125
 11
-6.1404288011077597
 21
151.25248127272496
  0
LINE
  8
_0-1_作画層１
  6
CONTINUOUS
 62
    7
 10
-6.1404288011077597
 20
151.25248127272496
 11
-6.1392319462678699
 21
151.2702822598541
  0
LINE
  8
_0-1_作画層１
  6
CONTINUOUS
 62
    7
 10
-6.1392319462678699
 20
151.2702822598541
 11
-6.1378162560397698
 21
151.28921310439665
  0
LINE
  8
_0-1_作画層１
  6
CONTINUOUS
 62
    7
 10
-6.1378162560397698
 20
151.28921310439665
 11
-6.1361785690475585
 21
151.30913498911016
  0
LINE
  8
_0-1_作画層１
  6
CONTINUOUS
 62
    7
 10
-6.1361785690475585
 20
151.30913498911016
 11
-6.134315723915222
 21
151.32990909675263
  0
LINE
  8
_0-1_作画層１
  6
CONTINUOUS
 62
    7
 10
-6.134315723915222
 20
151.32990909675263
 11
-6.132224559266831
 21
151.35139661008168
  0
LINE
  8
_0-1_作画層１
  6
CONTINUOUS
 62
    7
 10
-6.132224559266831
 20
151.35139661008168
 11
-6.1299019137263997
 21
151.37345871185516
  0
LINE
  8
_0-1_作画層１
  6
CONTINUOUS
 62
    7
 10
-6.1299019137263997
 20
151.37345871185516
 11
-6.1273446259179991
 21
151.3959565848308
  0
LINE
  8
_0-1_作画層１
  6
CONTINUOUS
 62
    7
 10
-6.1273446259179991
 20
151.3959565848308
 11
-6.1245495344657002
 21
151.41875141176638
  0
LINE
  8
_0-1_作画層１
  6
CONTINUOUS
 62
    7
 10
-6.1245495344657002
 20
151.41875141176638
 11
-6.121513477993517
 21
151.44170437541968
  0
LINE
  8
_0-1_作画層１
  6
CONTINUOUS
 62
    7
 10
-6.121513477993517
 20
151.44170437541968
 11
-6.1182332951254921
 21
151.46467665854851
  0
LINE
  8
_0-1_作画層１
  6
CONTINUOUS
 62
    7
 10
-6.1182332951254921
 20
151.46467665854851
 11
-6.114705824485668
 21
151.4875294439106
  0
LINE
  8
_0-1_作画層１
  6
CONTINUOUS
 62
    7
 10
-6.114705824485668
 20
151.4875294439106
 11
-6.1109279046980873
 21
151.5101239142638
  0
LINE
  8
_0-1_作画層１
  6
CONTINUOUS
 62
    7
 10
-6.1109279046980873
 20
151.5101239142638
 11
-6.106896374386821
 21
151.5323212523657
  0
LINE
  8
_0-1_作画層１
  6
CONTINUOUS
 62
    7
 10
-6.106896374386821
 20
151.5323212523657
 11
-6.1026080721758831
 21
151.55398264097431
  0
LINE
  8
_0-1_作画層１
  6
CONTINUOUS
 62
    7
 10
-6.1026080721758831
 20
151.55398264097431
 11
-6.0980598366893446
 21
151.5749692628473
  0
LINE
  8
_0-1_作画層１
  6
CONTINUOUS
 62
    7
 10
-6.0980598366893446
 20
151.5749692628473
 11
-6.0932485065512481
 21
151.59514230074242
  0
LINE
  8
_0-1_作画層１
  6
CONTINUOUS
 62
    7
 10
-6.0932485065512481
 20
151.59514230074242
 11
-6.0881709203856076
 21
151.61436293741747
  0
LINE
  8
_0-1_作画層１
  6
CONTINUOUS
 62
    7
 10
-6.0881709203856076
 20
151.61436293741747
 11
-6.0828239168164941
 21
151.63249235563023
  0
LINE
  8
_0-1_作画層１
  6
CONTINUOUS
 62
    7
 10
-6.0828239168164941
 20
151.63249235563023
 11
-6.0772043344679787
 21
151.64939173813846
  0
LINE
  8
_0-1_作画層１
  6
CONTINUOUS
 62
    7
 10
-6.0772043344679787
 20
151.64939173813846
 11
-6.0713090119640469
 21
151.66492226769995
  0
LINE
  8
_0-1_作画層１
  6
CONTINUOUS
 62
    7
 10
-6.0713090119640469
 20
151.66492226769995
 11
-6.0651347879287698
 21
151.67894512707247
  0
LINE
  8
_0-1_作画層１
  6
CONTINUOUS
 62
    7
 10
-6.0651347879287698
 20
151.67894512707247
 11
-6.0586785009861899
 21
151.69132149901381
  0
LINE
  8
_0-1_作画層１
  6
CONTINUOUS
 62
    7
 10
-6.0586785009861899
 20
151.69132149901381
 11
-6.023829949118948
 21
151.74617799742902
  0
LINE
  8
_0-1_作画層１
  6
CONTINUOUS
 62
    7
 10
-6.023829949118948
 20
151.74617799742902
 11
-6.0032301256126459
 21
151.77487226746018
  0
LINE
  8
_0-1_作画層１
  6
CONTINUOUS
 62
    7
 10
-6.0032301256126459
 20
151.77487226746018
 11
-5.9806786440282735
 21
151.80426877400882
  0
LINE
  8
_0-1_作画層１
  6
CONTINUOUS
 62
    7
 10
-5.9806786440282735
 20
151.80426877400882
 11
-5.9562995345936542
 21
151.83426118405123
  0
LINE
  8
_0-1_作画層１
  6
CONTINUOUS
 62
    7
 10
-5.9562995345936542
 20
151.83426118405123
 11
-5.9302168275365545
 21
151.86474316456378
  0
LINE
  8
_0-1_作画層１
  6
CONTINUOUS
 62
    7
 10
-5.9302168275365545
 20
151.86474316456378
 11
-5.9025545530848262
 21
151.89560838252271
  0
LINE
  8
_0-1_作画層１
  6
CONTINUOUS
 62
    7
 10
-5.9025545530848262
 20
151.89560838252271
 11
-5.873436741466179
 21
151.9267505049045
  0
LINE
  8
_0-1_作画層１
  6
CONTINUOUS
 62
    7
 10
-5.873436741466179
 20
151.9267505049045
 11
-5.8429874229085499
 21
151.95806319868524
  0
LINE
  8
_0-1_作画層１
  6
CONTINUOUS
 62
    7
 10
-5.8429874229085499
 20
151.95806319868524
 11
-5.8113306276395917
 21
151.9894401308415
  0
LINE
  8
_0-1_作画層１
  6
CONTINUOUS
 62
    7
 10
-5.8113306276395917
 20
151.9894401308415
 11
-5.7785903858872132
 21
152.02077496834934
  0
LINE
  8
_0-1_作画層１
  6
CONTINUOUS
 62
    7
 10
-5.7785903858872132
 20
152.02077496834934
 11
-5.7448907278791523
 21
152.05196137818535
  0
LINE
  8
_0-1_作画層１
  6
CONTINUOUS
 62
    7
 10
-5.7448907278791523
 20
152.05196137818535
 11
-5.7103556838432326
 21
152.08289302732567
  0
LINE
  8
_0-1_作画層１
  6
CONTINUOUS
 62
    7
 10
-5.7103556838432326
 20
152.08289302732567
 11
-5.6751092840072488
 21
152.11346358274665
  0
LINE
  8
_0-1_作画層１
  6
CONTINUOUS
 62
    7
 10
-5.6751092840072488
 20
152.11346358274665
 11
-5.6392755585990244
 21
152.14356671142465
  0
LINE
  8
_0-1_作画層１
  6
CONTINUOUS
 62
    7
 10
-5.6392755585990244
 20
152.14356671142465
 11
-5.6029785378463259
 21
152.17309608033594
  0
LINE
  8
_0-1_作画層１
  6
CONTINUOUS
 62
    7
 10
-5.6029785378463259
 20
152.17309608033594
 11
-5.5663422519769483
 21
152.20194535645686
  0
LINE
  8
_0-1_作画層１
  6
CONTINUOUS
 62
    7
 10
-5.5663422519769483
 20
152.20194535645686
 11
-5.5294907312187433
 21
152.23000820676376
  0
LINE
  8
_0-1_作画層１
  6
CONTINUOUS
 62
    7
 10
-5.5294907312187433
 20
152.23000820676376
 11
-5.4925480057994491
 21
152.25717829823293
  0
LINE
  8
_0-1_作画層１
  6
CONTINUOUS
 62
    7
 10
-5.4925480057994491
 20
152.25717829823293
 11
-5.4556381059469174
 21
152.28334929784066
  0
LINE
  8
_0-1_作画層１
  6
CONTINUOUS
 62
    7
 10
-5.4556381059469174
 20
152.28334929784066
 11
-5.4188850618889148
 21
152.30841487256333
  0
LINE
  8
_0-1_作画層１
  6
CONTINUOUS
 62
    7
 10
-5.4188850618889148
 20
152.30841487256333
 11
-5.3824129038532647
 21
152.33226868937723
  0
LINE
  8
_0-1_作画層１
  6
CONTINUOUS
 62
    7
 10
-5.3824129038532647
 20
152.33226868937723
 11
-5.346345662067705
 21
152.35480441525874
  0
LINE
  8
_0-1_作画層１
  6
CONTINUOUS
 62
    7
 10
-5.346345662067705
 20
152.35480441525874
 11
-5.3108073667601161
 21
152.37591571718406
  0
LINE
  8
_0-1_作画層１
  6
CONTINUOUS
 62
    7
 10
-5.3108073667601161
 20
152.37591571718406
 11
-5.2759220481582645
 21
152.3954962621296
  0
LINE
  8
_0-1_作画層１
  6
CONTINUOUS
 62
    7
 10
-5.2759220481582645
 20
152.3954962621296
 11
-5.2418137364899735
 21
152.41343971707164
  0
LINE
  8
_0-1_作画層１
  6
CONTINUOUS
 62
    7
 10
-5.2418137364899735
 20
152.41343971707164
 11
-5.2086064619829813
 21
152.42963974898652
  0
LINE
  8
_0-1_作画層１
  6
CONTINUOUS
 62
    7
 10
-5.2086064619829813
 20
152.42963974898652
 11
-5.1764242548651396
 21
152.44399002485056
  0
LINE
  8
_0-1_作画層１
  6
CONTINUOUS
 62
    7
 10
-5.1764242548651396
 20
152.44399002485056
 11
-5.1453911453642434
 21
152.45638421164006
  0
LINE
  8
_0-1_作画層１
  6
CONTINUOUS
 62
    7
 10
-5.1453911453642434
 20
152.45638421164006
 11
-5.1156311637080876
 21
152.46671597633136
  0
LINE
  8
_0-1_作画層１
  6
CONTINUOUS
 62
    7
 10
-5.1156311637080876
 20
152.46671597633136
 11
-5.0553459989430678
 21
152.48229270816023
  0
LINE
  8
_0-1_作画層１
  6
CONTINUOUS
 62
    7
 10
-5.0553459989430678
 20
152.48229270816023
 11
-5.0222499805621226
 21
152.48842825211003
  0
LINE
  8
_0-1_作画層１
  6
CONTINUOUS
 62
    7
 10
-5.0222499805621226
 20
152.48842825211003
 11
-4.9873817136782748
 21
152.49351317144948
  0
LINE
  8
_0-1_作画層１
  6
CONTINUOUS
 62
    7
 10
-4.9873817136782748
 20
152.49351317144948
 11
-4.9508887299135722
 21
152.49758590870309
  0
LINE
  8
_0-1_作画層１
  6
CONTINUOUS
 62
    7
 10
-4.9508887299135722
 20
152.49758590870309
 11
-4.9129185608900627
 21
152.50068490639529
  0
LINE
  8
_0-1_作画層１
  6
CONTINUOUS
 62
    7
 10
-4.9129185608900627
 20
152.50068490639529
 11
-4.8736187382297942
 21
152.50284860705059
  0
LINE
  8
_0-1_作画層１
  6
CONTINUOUS
 62
    7
 10
-4.8736187382297942
 20
152.50284860705059
 11
-4.8331367935547291
 21
152.50411545319375
  0
LINE
  8
_0-1_作画層１
  6
CONTINUOUS
 62
    7
 10
-4.8331367935547291
 20
152.50411545319375
 11
-4.7916202584870291
 21
152.504523887349
  0
LINE
  8
_0-1_作画層１
  6
CONTINUOUS
 62
    7
 10
-4.7916202584870291
 20
152.504523887349
 11
-4.7492166646486282
 21
152.50411235204106
  0
LINE
  8
_0-1_作画層１
  6
CONTINUOUS
 62
    7
 10
-4.7492166646486282
 20
152.50411235204106
 11
-4.7060735436616312
 21
152.50291928979425
  0
LINE
  8
_0-1_作画層１
  6
CONTINUOUS
 62
    7
 10
-4.7060735436616312
 20
152.50291928979425
 11
-4.6623384271480575
 21
152.50098314313331
  0
LINE
  8
_0-1_作画層１
  6
CONTINUOUS
 62
    7
 10
-4.6623384271480575
 20
152.50098314313331
 11
-4.6181588467299548
 21
152.49834235458263
  0
LINE
  8
_0-1_作画層１
  6
CONTINUOUS
 62
    7
 10
-4.6181588467299548
 20
152.49834235458263
 11
-4.5736823340293142
 21
152.49503536666674
  0
LINE
  8
_0-1_作画層１
  6
CONTINUOUS
 62
    7
 10
-4.5736823340293142
 20
152.49503536666674
 11
-4.5290564206682404
 21
152.49110062191014
  0
LINE
  8
_0-1_作画層１
  6
CONTINUOUS
 62
    7
 10
-4.5290564206682404
 20
152.49110062191014
 11
-4.4844286382687528
 21
152.48657656283737
  0
LINE
  8
_0-1_作画層１
  6
CONTINUOUS
 62
    7
 10
-4.4844286382687528
 20
152.48657656283737
 11
-4.4399465184528708
 21
152.48150163197298
  0
LINE
  8
_0-1_作画層１
  6
CONTINUOUS
 62
    7
 10
-4.4399465184528708
 20
152.48150163197298
 11
-4.3957575928426422
 21
152.47591427184142
  0
LINE
  8
_0-1_作画層１
  6
CONTINUOUS
 62
    7
 10
-4.3957575928426422
 20
152.47591427184142
 11
-4.3520093930601433
 21
152.46985292496728
  0
LINE
  8
_0-1_作画層１
  6
CONTINUOUS
 62
    7
 10
-4.3520093930601433
 20
152.46985292496728
 11
-4.3088494507273651
 21
152.46335603387504
  0
LINE
  8
_0-1_作画層１
  6
CONTINUOUS
 62
    7
 10
-4.3088494507273651
 20
152.46335603387504
 11
-4.2664252974663839
 21
152.45646204108917
  0
LINE
  8
_0-1_作画層１
  6
CONTINUOUS
 62
    7
 10
-4.2664252974663839
 20
152.45646204108917
 11
-4.224884464899219
 21
152.4492093891343
  0
LINE
  8
_0-1_作画層１
  6
CONTINUOUS
 62
    7
 10
-4.224884464899219
 20
152.4492093891343
 11
-4.1843744846478899
 21
152.44163652053487
  0
LINE
  8
_0-1_作画層１
  6
CONTINUOUS
 62
    7
 10
-4.1843744846478899
 20
152.44163652053487
 11
-4.1450428883345012
 21
152.43378187781542
  0
LINE
  8
_0-1_作画層１
  6
CONTINUOUS
 62
    7
 10
-4.1450428883345012
 20
152.43378187781542
 11
-4.1070372075810155
 21
152.42568390350044
  0
LINE
  8
_0-1_作画層１
  6
CONTINUOUS
 62
    7
 10
-4.1070372075810155
 20
152.42568390350044
 11
-4.070504974009566
 21
152.41738104011449
  0
LINE
  8
_0-1_作画層１
  6
CONTINUOUS
 62
    7
 10
-4.070504974009566
 20
152.41738104011449
 11
-4.0355937192420868
 21
152.40891173018207
  0
LINE
  8
_0-1_作画層１
  6
CONTINUOUS
 62
    7
 10
-4.0355937192420868
 20
152.40891173018207
 11
-4.0024509749006825
 21
152.40031441622767
  0
LINE
  8
_0-1_作画層１
  6
CONTINUOUS
 62
    7
 10
-4.0024509749006825
 20
152.40031441622767
 11
-3.971224272607401
 21
152.39162754077583
  0
LINE
  8
_0-1_作画層１
  6
CONTINUOUS
 62
    7
 10
-3.971224272607401
 20
152.39162754077583
 11
-3.9420611439842332
 21
152.38288954635109
  0
LINE
  8
_0-1_作画層１
  6
CONTINUOUS
 62
    7
 10
-3.9420611439842332
 20
152.38288954635109
 11
-3.8496746653995046
 21
152.3511372428427
  0
LINE
  8
_0-1_作画層１
  6
CONTINUOUS
 62
    7
 10
-3.8496746653995046
 20
152.3511372428427
 11
-3.8021791140691334
 21
152.33270837259511
  0
LINE
  8
_0-1_作画層１
  6
CONTINUOUS
 62
    7
 10
-3.8021791140691334
 20
152.33270837259511
 11
-3.7538562115617253
 21
152.31265777530464
  0
LINE
  8
_0-1_作画層１
  6
CONTINUOUS
 62
    7
 10
-3.7538562115617253
 20
152.31265777530464
 11
-3.7047366005134279
 21
152.29104551493597
  0
LINE
  8
_0-1_作画層１
  6
CONTINUOUS
 62
    7
 10
-3.7047366005134279
 20
152.29104551493597
 11
-3.6548509235604456
 21
152.26793165545348
  0
LINE
  8
_0-1_作画層１
  6
CONTINUOUS
 62
    7
 10
-3.6548509235604456
 20
152.26793165545348
 11
-3.6042298233389829
 21
152.24337626082169
  0
LINE
  8
_0-1_作画層１
  6
CONTINUOUS
 62
    7
 10
-3.6042298233389829
 20
152.24337626082169
 11
-3.552903942485159
 21
152.21743939500539
  0
LINE
  8
_0-1_作画層１
  6
CONTINUOUS
 62
    7
 10
-3.552903942485159
 20
152.21743939500539
 11
-3.5009039236352066
 21
152.19018112196886
  0
LINE
  8
_0-1_作画層１
  6
CONTINUOUS
 62
    7
 10
-3.5009039236352066
 20
152.19018112196886
 11
-3.448260409425302
 21
152.16166150567696
  0
LINE
  8
_0-1_作画層１
  6
CONTINUOUS
 62
    7
 10
-3.448260409425302
 20
152.16166150567696
 11
-3.3950040424917063
 21
152.13194061009384
  0
LINE
  8
_0-1_作画層１
  6
CONTINUOUS
 62
    7
 10
-3.3950040424917063
 20
152.13194061009384
 11
-3.3411654654704819
 21
152.10107849918444
  0
LINE
  8
_0-1_作画層１
  6
CONTINUOUS
 62
    7
 10
-3.3411654654704819
 20
152.10107849918444
 11
-3.28677532099789
 21
152.06913523691307
  0
LINE
  8
_0-1_作画層１
  6
CONTINUOUS
 62
    7
 10
-3.28677532099789
 20
152.06913523691307
 11
-3.2318642517101352
 21
152.03617088724437
  0
LINE
  8
_0-1_作画層１
  6
CONTINUOUS
 62
    7
 10
-3.2318642517101352
 20
152.03617088724437
 11
-3.1764629002433367
 21
152.00224551414283
  0
LINE
  8
_0-1_作画層１
  6
CONTINUOUS
 62
    7
 10
-3.1764629002433367
 20
152.00224551414283
 11
-3.1206019092337556
 21
151.96741918157309
  0
LINE
  8
_0-1_作画層１
  6
CONTINUOUS
 62
    7
 10
-3.1206019092337556
 20
151.96741918157309
 11
-3.0643119213175112
 21
151.93175195349957
  0
LINE
  8
_0-1_作画層１
  6
CONTINUOUS
 62
    7
 10
-3.0643119213175112
 20
151.93175195349957
 11
-3.0076235791308363
 21
151.89530389388699
  0
LINE
  8
_0-1_作画層１
  6
CONTINUOUS
 62
    7
 10
-3.0076235791308363
 20
151.89530389388699
 11
-2.9505675253099355
 21
151.85813506669976
  0
LINE
  8
_0-1_作画層１
  6
CONTINUOUS
 62
    7
 10
-2.9505675253099355
 20
151.85813506669976
 11
-2.8931744024909563
 21
151.82030553590249
  0
LINE
  8
_0-1_作画層１
  6
CONTINUOUS
 62
    7
 10
-2.8931744024909563
 20
151.82030553590249
 11
-2.8354748533100746
 21
151.78187536545965
  0
LINE
  8
_0-1_作画層１
  6
CONTINUOUS
 62
    7
 10
-2.8354748533100746
 20
151.78187536545965
 11
-2.777499520403552
 21
151.74290461933595
  0
LINE
  8
_0-1_作画層１
  6
CONTINUOUS
 62
    7
 10
-2.777499520403552
 20
151.74290461933595
 11
-2.719279046407479
 21
151.70345336149586
  0
LINE
  8
_0-1_作画層１
  6
CONTINUOUS
 62
    7
 10
-2.719279046407479
 20
151.70345336149586
 11
-2.660844073958117
 21
151.66358165590387
  0
LINE
  8
_0-1_作画層１
  6
CONTINUOUS
 62
    7
 10
-2.660844073958117
 20
151.66358165590387
 11
-2.6022252456916135
 21
151.62334956652461
  0
LINE
  8
_0-1_作画層１
  6
CONTINUOUS
 62
    7
 10
-2.6022252456916135
 20
151.62334956652461
 11
-2.5434532042442015
 21
151.58281715732255
  0
LINE
  8
_0-1_作画層１
  6
CONTINUOUS
 62
    7
 10
-2.5434532042442015
 20
151.58281715732255
 11
-2.4845585922520286
 21
151.54204449226233
  0
LINE
  8
_0-1_作画層１
  6
CONTINUOUS
 62
    7
 10
-2.4845585922520286
 20
151.54204449226233
 11
-2.4255720523512707
 21
151.50109163530846
  0
LINE
  8
_0-1_作画層１
  6
CONTINUOUS
 62
    7
 10
-2.4255720523512707
 20
151.50109163530846
 11
-2.3665242271781608
 21
151.46001865042547
  0
LINE
  8
_0-1_作画層１
  6
CONTINUOUS
 62
    7
 10
-2.3665242271781608
 20
151.46001865042547
 11
-2.3074457593688464
 21
151.41888560157793
  0
LINE
  8
_0-1_作画層１
  6
CONTINUOUS
 62
    7
 10
-0.8404832347139858
 20
149.11365877712032
 11
-0.8297226120720608
 21
149.10422057751157
  0
LINE
  8
_0-1_作画層１
  6
CONTINUOUS
 62
    7
 10
-0.8297226120720608
 20
149.10422057751157
 11
-0.8206954151575018
 21
149.09667442293153
  0
LINE
  8
_0-1_作画層１
  6
CONTINUOUS
 62
    7
 10
-0.8206954151575018
 20
149.09667442293153
 11
-0.8094323188810506
 21
149.08741009178721
  0
LINE
  8
_0-1_作画層１
  6
CONTINUOUS
 62
    7
 10
-0.8094323188810506
 20
149.08741009178721
 11
-0.7960798415181216
 21
149.07655247904339
  0
LINE
  8
_0-1_作画層１
  6
CONTINUOUS
 62
    7
 10
-0.7960798415181216
 20
149.07655247904339
 11
-0.7807845013441294
 21
149.06422647966463
  0
LINE
  8
_0-1_作画層１
  6
CONTINUOUS
 62
    7
 10
-0.7807845013441294
 20
149.06422647966463
 11
-0.7636928166344318
 21
149.05055698861557
  0
LINE
  8
_0-1_作画層１
  6
CONTINUOUS
 62
    7
 10
-0.7636928166344318
 20
149.05055698861557
 11
-0.744951305664415
 21
149.03566890086105
  0
LINE
  8
_0-1_作画層１
  6
CONTINUOUS
 62
    7
 10
-0.744951305664415
 20
149.03566890086105
 11
-0.7247064867095218
 21
149.01968711136553
  0
LINE
  8
_0-1_作画層１
  6
CONTINUOUS
 62
    7
 10
-0.7247064867095218
 20
149.01968711136553
 11
-0.7031048780450532
 21
149.00273651509383
  0
LINE
  8
_0-1_作画層１
  6
CONTINUOUS
 62
    7
 10
-0.7031048780450532
 20
149.00273651509383
 11
-0.6802929979465375
 21
148.9849420070104
  0
LINE
  8
_0-1_作画層１
  6
CONTINUOUS
 62
    7
 10
-0.6802929979465375
 20
148.9849420070104
 11
-0.6564173646892186
 21
148.9664284820802
  0
LINE
  8
_0-1_作画層１
  6
CONTINUOUS
 62
    7
 10
-0.6564173646892186
 20
148.9664284820802
 11
-0.6316244965485964
 21
148.9473208352677
  0
LINE
  8
_0-1_作画層１
  6
CONTINUOUS
 62
    7
 10
-0.6316244965485964
 20
148.9473208352677
 11
-0.6060609118000002
 21
148.92774396153763
  0
LINE
  8
_0-1_作画層１
  6
CONTINUOUS
 62
    7
 10
-0.6060609118000002
 20
148.92774396153763
 11
-0.5798731287188729
 21
148.90782275585457
  0
LINE
  8
_0-1_作画層１
  6
CONTINUOUS
 62
    7
 10
-0.5798731287188729
 20
148.90782275585457
 11
-0.553207665580544
 21
148.88768211318327
  0
LINE
  8
_0-1_作画層１
  6
CONTINUOUS
 62
    7
 10
-0.553207665580544
 20
148.88768211318327
 11
-0.5262110406604847
 21
148.86744692848836
  0
LINE
  8
_0-1_作画層１
  6
CONTINUOUS
 62
    7
 10
-0.5262110406604847
 20
148.86744692848836
 11
-0.4990297722340528
 21
148.84724209673453
  0
LINE
  8
_0-1_作画層１
  6
CONTINUOUS
 62
    7
 10
-0.4990297722340528
 20
148.84724209673453
 11
-0.4718103785766061
 21
148.82719251288643
  0
LINE
  8
_0-1_作画層１
  6
CONTINUOUS
 62
    7
 10
-0.4718103785766061
 20
148.82719251288643
 11
-0.444699377963559
 21
148.80742307190872
  0
LINE
  8
_0-1_作画層１
  6
CONTINUOUS
 62
    7
 10
-0.444699377963559
 20
148.80742307190872
 11
-0.4178432886703262
 21
148.78805866876598
  0
LINE
  8
_0-1_作画層１
  6
CONTINUOUS
 62
    7
 10
-0.4178432886703262
 20
148.78805866876598
 11
-0.3913886289722938
 21
148.76922419842305
  0
LINE
  8
_0-1_作画層１
  6
CONTINUOUS
 62
    7
 10
-0.3913886289722938
 20
148.76922419842305
 11
-0.3654819171448195
 21
148.75104455584449
  0
LINE
  8
_0-1_作画層１
  6
CONTINUOUS
 62
    7
 10
-0.3654819171448195
 20
148.75104455584449
 11
-0.3402696714633464
 21
148.73364463599495
  0
LINE
  8
_0-1_作画層１
  6
CONTINUOUS
 62
    7
 10
-0.3402696714633464
 20
148.73364463599495
 11
-0.315898410203232
 21
148.7171493338391
  0
LINE
  8
_0-1_作画層１
  6
CONTINUOUS
 62
    7
 10
-0.315898410203232
 20
148.7171493338391
 11
-0.2925146516398626
 21
148.70168354434165
  0
LINE
  8
_0-1_作画層１
  6
CONTINUOUS
 62
    7
 10
-0.2925146516398626
 20
148.70168354434165
 11
-0.2702649140486812
 21
148.68737216246723
  0
LINE
  8
_0-1_作画層１
  6
CONTINUOUS
 62
    7
 10
-0.2702649140486812
 20
148.68737216246723
 11
-0.2492957157050455
 21
148.67434008318048
  0
LINE
  8
_0-1_作画層１
  6
CONTINUOUS
 62
    7
 10
-0.2492957157050455
 20
148.67434008318048
 11
-0.2297535748843131
 21
148.66271220144611
  0
LINE
  8
_0-1_作画層１
  6
CONTINUOUS
 62
    7
 10
-0.2297535748843131
 20
148.66271220144611
 11
-0.2117850098619271
 21
148.65261341222879
  0
LINE
  8
_0-1_作画層１
  6
CONTINUOUS
 62
    7
 10
-0.2117850098619271
 20
148.65261341222879
 11
-0.164222061123894
 21
148.62787603705371
  0
LINE
  8
_0-1_作画層１
  6
CONTINUOUS
 62
    7
 10
-0.164222061123894
 20
148.62787603705371
 11
-0.1381610349882862
 21
148.6150361882554
  0
LINE
  8
_0-1_作画層１
  6
CONTINUOUS
 62
    7
 10
-0.1381610349882862
 20
148.6150361882554
 11
-0.1107244598402132
 21
148.60193398628292
  0
LINE
  8
_0-1_作画層１
  6
CONTINUOUS
 62
    7
 10
-0.1107244598402132
 20
148.60193398628292
 11
-0.082020449803565
 21
148.58860824686079
  0
LINE
  8
_0-1_作画層１
  6
CONTINUOUS
 62
    7
 10
-0.082020449803565
 20
148.58860824686079
 11
-0.0521571190022598
 21
148.57509778571372
  0
LINE
  8
_0-1_作画層１
  6
CONTINUOUS
 62
    7
 10
-0.0521571190022598
 20
148.57509778571372
 11
-0.0212425815602728
 21
148.56144141856629
  0
LINE
  8
_0-1_作画層１
  6
CONTINUOUS
 62
    7
 10
-0.0212425815602728
 20
148.56144141856629
 11
0.0106150483985345
 21
148.54767796114334
  0
LINE
  8
_0-1_作画層１
  6
CONTINUOUS
 62
    7
 10
0.0106150483985345
 20
148.54767796114334
 11
0.0433076567501871
 21
148.53384622916928
  0
LINE
  8
_0-1_作画層１
  6
CONTINUOUS
 62
    7
 10
0.0433076567501871
 20
148.53384622916928
 11
0.0767271293707949
 21
148.51998503836907
  0
LINE
  8
_0-1_作画層１
  6
CONTINUOUS
 62
    7
 10
0.0767271293707949
 20
148.51998503836907
 11
0.1107653521364113
 21
148.50613320446701
  0
LINE
  8
_0-1_作画層１
  6
CONTINUOUS
 62
    7
 10
0.1107653521364113
 20
148.50613320446701
 11
0.145314210923118
 21
148.49232954318811
  0
LINE
  8
_0-1_作画層１
  6
CONTINUOUS
 62
    7
 10
0.145314210923118
 20
148.49232954318811
 11
0.1802655916069682
 21
148.47861287025682
  0
LINE
  8
_0-1_作画層１
  6
CONTINUOUS
 62
    7
 10
0.1802655916069682
 20
148.47861287025682
 11
0.2155113800641004
 21
148.4650220013979
  0
LINE
  8
_0-1_作画層１
  6
CONTINUOUS
 62
    7
 10
0.2155113800641004
 20
148.4650220013979
 11
0.2509434621705395
 21
148.45159575233595
  0
LINE
  8
_0-1_作画層１
  6
CONTINUOUS
 62
    7
 10
0.2509434621705395
 20
148.45159575233595
 11
0.2864537238023672
 21
148.43837293879562
  0
LINE
  8
_0-1_作画層１
  6
CONTINUOUS
 62
    7
 10
0.2864537238023672
 20
148.43837293879562
 11
0.3219340508356367
 21
148.42539237650158
  0
LINE
  8
_0-1_作画層１
  6
CONTINUOUS
 62
    7
 10
0.3219340508356367
 20
148.42539237650158
 11
0.3572763291464866
 21
148.41269288117851
  0
LINE
  8
_0-1_作画層１
  6
CONTINUOUS
 62
    7
 10
0.3572763291464866
 20
148.41269288117851
 11
0.3923724446109417
 21
148.40031326855109
  0
LINE
  8
_0-1_作画層１
  6
CONTINUOUS
 62
    7
 10
0.3923724446109417
 20
148.40031326855109
 11
0.4271142831050838
 21
148.38829235434395
  0
LINE
  8
_0-1_作画層１
  6
CONTINUOUS
 62
    7
 10
0.4271142831050838
 20
148.38829235434395
 11
0.4613937305049944
 21
148.37666895428168
  0
LINE
  8
_0-1_作画層１
  6
CONTINUOUS
 62
    7
 10
0.4613937305049944
 20
148.37666895428168
 11
0.4951026726867553
 21
148.36548188408904
  0
LINE
  8
_0-1_作画層１
  6
CONTINUOUS
 62
    7
 10
0.4951026726867553
 20
148.36548188408904
 11
0.5281329955264482
 21
148.35476995949071
  0
LINE
  8
_0-1_作画層１
  6
CONTINUOUS
 62
    7
 10
0.5281329955264482
 20
148.35476995949071
 11
0.5603765849000979
 21
148.34457199621124
  0
LINE
  8
_0-1_作画層１
  6
CONTINUOUS
 62
    7
 10
0.5603765849000979
 20
148.34457199621124
 11
0.5917253266838429
 21
148.33492680997534
  0
LINE
  8
_0-1_作画層１
  6
CONTINUOUS
 62
    7
 10
0.5917253266838429
 20
148.33492680997534
 11
0.6220711067537081
 21
148.32587321650772
  0
LINE
  8
_0-1_作画層１
  6
CONTINUOUS
 62
    7
 10
0.6220711067537081
 20
148.32587321650772
 11
0.651305810985832
 21
148.31745003153293
  0
LINE
  8
_0-1_作画層１
  6
CONTINUOUS
 62
    7
 10
0.651305810985832
 20
148.31745003153293
 11
0.6793213252562111
 21
148.30969607077577
  0
LINE
  8
_0-1_作画層１
  6
CONTINUOUS
 62
    7
 10
0.6793213252562111
 20
148.30969607077577
 11
0.7060095354409554
 21
148.30265014996075
  0
LINE
  8
_0-1_作画層１
  6
CONTINUOUS
 62
    7
 10
0.7060095354409554
 20
148.30265014996075
 11
0.7312623274161751
 21
148.29635108481261
  0
LINE
  8
_0-1_作画層１
  6
CONTINUOUS
 62
    7
 10
0.7312623274161751
 20
148.29635108481261
 11
0.799150296436494
 21
148.28055453795204
  0
LINE
  8
_0-1_作画層１
  6
CONTINUOUS
 62
    7
 10
0.799150296436494
 20
148.28055453795204
 11
0.8361203814261273
 21
148.27237915794075
  0
LINE
  8
_0-1_作画層１
  6
CONTINUOUS
 62
    7
 10
0.8361203814261273
 20
148.27237915794075
 11
0.8749081072980402
 21
148.26407824366316
  0
LINE
  8
_0-1_作画層１
  6
CONTINUOUS
 62
    7
 10
0.8749081072980402
 20
148.26407824366316
 11
0.9153636544742482
 21
148.25569619771008
  0
LINE
  8
_0-1_作画層１
  6
CONTINUOUS
 62
    7
 10
0.9153636544742482
 20
148.25569619771008
 11
0.9573372033767668
 21
148.24727742267223
  0
LINE
  8
_0-1_作画層１
  6
CONTINUOUS
 62
    7
 10
0.9573372033767668
 20
148.24727742267223
 11
1.0006789344274978
 21
148.23886632114028
  0
LINE
  8
_0-1_作画層１
  6
CONTINUOUS
 62
    7
 10
1.0006789344274978
 20
148.23886632114028
 11
1.0452390280485702
 21
148.23050729570531
  0
LINE
  8
_0-1_作画層１
  6
CONTINUOUS
 62
    7
 10
1.0452390280485702
 20
148.23050729570531
 11
1.0908676646618858
 21
148.22224474895773
  0
LINE
  8
_0-1_作画層１
  6
CONTINUOUS
 62
    7
 10
1.0908676646618858
 20
148.22224474895773
 11
1.1374150246894885
 21
148.21412308348869
  0
LINE
  8
_0-1_作画層１
  6
CONTINUOUS
 62
    7
 10
1.1374150246894885
 20
148.21412308348869
 11
1.184731288553337
 21
148.20618670188856
  0
LINE
  8
_0-1_作画層１
  6
CONTINUOUS
 62
    7
 10
1.184731288553337
 20
148.20618670188856
 11
1.2326666366754466
 21
148.19848000674847
  0
LINE
  8
_0-1_作画層１
  6
CONTINUOUS
 62
    7
 10
1.2326666366754466
 20
148.19848000674847
 11
1.2810712494778045
 21
148.19104740065896
  0
LINE
  8
_0-1_作画層１
  6
CONTINUOUS
 62
    7
 10
1.2810712494778045
 20
148.19104740065896
 11
1.329795307382426
 21
148.1839332862109
  0
LINE
  8
_0-1_作画層１
  6
CONTINUOUS
 62
    7
 10
1.329795307382426
 20
148.1839332862109
 11
1.3786889908112983
 21
148.17718206599505
  0
LINE
  8
_0-1_作画層１
  6
CONTINUOUS
 62
    7
 10
1.3786889908112983
 20
148.17718206599505
 11
1.4276024801864082
 21
148.17083814260218
  0
LINE
  8
_0-1_作画層１
  6
CONTINUOUS
 62
    7
 10
1.4276024801864082
 20
148.17083814260218
 11
1.476385955929743
 21
148.16494591862303
  0
LINE
  8
_0-1_作画層１
  6
CONTINUOUS
 62
    7
 10
1.476385955929743
 20
148.16494591862303
 11
1.524889598463318
 21
148.15954979664843
  0
LINE
  8
_0-1_作画層１
  6
CONTINUOUS
 62
    7
 10
1.524889598463318
 20
148.15954979664843
 11
1.5729635882091202
 21
148.15469417926911
  0
LINE
  8
_0-1_作画層１
  6
CONTINUOUS
 62
    7
 10
1.5729635882091202
 20
148.15469417926911
 11
1.6204581055891367
 21
148.15042346907589
  0
LINE
  8
_0-1_作画層１
  6
CONTINUOUS
 62
    7
 10
1.6204581055891367
 20
148.15042346907589
 11
1.6672233310253546
 21
148.14678206865946
  0
LINE
  8
_0-1_作画層１
  6
CONTINUOUS
 62
    7
 10
1.6672233310253546
 20
148.14678206865946
 11
1.7131094449397892
 21
148.14381438061065
  0
LINE
  8
_0-1_作画層１
  6
CONTINUOUS
 62
    7
 10
1.7131094449397892
 20
148.14381438061065
 11
1.7579666277544561
 21
148.1415648075203
  0
LINE
  8
_0-1_作画層１
  6
CONTINUOUS
 62
    7
 10
1.7579666277544561
 20
148.1415648075203
 11
1.8016450598913138
 21
148.14007775197905
  0
LINE
  8
_0-1_作画層１
  6
CONTINUOUS
 62
    7
 10
1.8016450598913138
 20
148.14007775197905
 11
1.8439949217723779
 21
148.13939761657772
  0
LINE
  8
_0-1_作画層１
  6
CONTINUOUS
 62
    7
 10
1.8439949217723779
 20
148.13939761657772
 11
1.8848663938196069
 21
148.13956880390708
  0
LINE
  8
_0-1_作画層１
  6
CONTINUOUS
 62
    7
 10
1.8848663938196069
 20
148.13956880390708
 11
1.924109656455073
 21
148.14063571655797
  0
LINE
  8
_0-1_作画層１
  6
CONTINUOUS
 62
    7
 10
1.924109656455073
 20
148.14063571655797
 11
1.9615748901006782
 21
148.14264275712111
  0
LINE
  8
_0-1_作画層１
  6
CONTINUOUS
 62
    7
 10
1.9615748901006782
 20
148.14264275712111
 11
1.9971122751784662
 21
148.14563432818721
  0
LINE
  8
_0-1_作画層１
  6
CONTINUOUS
 62
    7
 10
1.9971122751784662
 20
148.14563432818721
 11
2.0305719921104526
 21
148.14965483234715
  0
LINE
  8
_0-1_作画層１
  6
CONTINUOUS
 62
    7
 10
2.0305719921104526
 20
148.14965483234715
 11
2.0851607456662862
 21
148.1592207297613
  0
LINE
  8
_0-1_作画層１
  6
CONTINUOUS
 62
    7
 10
2.0851607456662862
 20
148.1592207297613
 11
2.114495780064118
 21
148.16565220462689
  0
LINE
  8
_0-1_作画層１
  6
CONTINUOUS
 62
    7
 10
2.114495780064118
 20
148.16565220462689
 11
2.1450409137245288
 21
148.1731097162461
  0
LINE
  8
_0-1_作画層１
  6
CONTINUOUS
 62
    7
 10
2.1450409137245288
 20
148.1731097162461
 11
2.1766833922845308
 21
148.1815385291049
  0
LINE
  8
_0-1_作画層１
  6
CONTINUOUS
 62
    7
 10
2.1766833922845308
 20
148.1815385291049
 11
2.2093104613811647
 21
148.19088390768911
  0
LINE
  8
_0-1_作画層１
  6
CONTINUOUS
 62
    7
 10
2.2093104613811647
 20
148.19088390768911
 11
2.2428093666513291
 21
148.20109111648463
  0
LINE
  8
_0-1_作画層１
  6
CONTINUOUS
 62
    7
 10
2.2428093666513291
 20
148.20109111648463
 11
2.2770673537321784
 21
148.2121054199776
  0
LINE
  8
_0-1_作画層１
  6
CONTINUOUS
 62
    7
 10
2.2770673537321784
 20
148.2121054199776
 11
2.3119716682605826
 21
148.22387208265368
  0
LINE
  8
_0-1_作画層１
  6
CONTINUOUS
 62
    7
 10
2.3119716682605826
 20
148.22387208265368
 11
2.3474095558736394
 21
148.23633636899908
  0
LINE
  8
_0-1_作画層１
  6
CONTINUOUS
 62
    7
 10
2.3474095558736394
 20
148.23633636899908
 11
2.3832682622082189
 21
148.24944354349938
  0
LINE
  8
_0-1_作画層１
  6
CONTINUOUS
 62
    7
 10
2.3832682622082189
 20
148.24944354349938
 11
2.4194350329014753
 21
148.2631388706408
  0
LINE
  8
_0-1_作画層１
  6
CONTINUOUS
 62
    7
 10
2.4194350329014753
 20
148.2631388706408
 11
2.4557971135903358
 21
148.27736761490917
  0
LINE
  8
_0-1_作画層１
  6
CONTINUOUS
 62
    7
 10
2.4557971135903358
 20
148.27736761490917
 11
2.4922417499117842
 21
148.29207504079037
  0
LINE
  8
_0-1_作画層１
  6
CONTINUOUS
 62
    7
 10
2.4922417499117842
 20
148.29207504079037
 11
2.528656187502861
 21
148.30720641277034
  0
LINE
  8
_0-1_作画層１
  6
CONTINUOUS
 62
    7
 10
2.528656187502861
 20
148.30720641277034
 11
2.5649276720005503
 21
148.32270699533504
  0
LINE
  8
_0-1_作画層１
  6
CONTINUOUS
 62
    7
 10
2.5649276720005503
 20
148.32270699533504
 11
2.6009434490418641
 21
148.33852205297035
  0
LINE
  8
_0-1_作画層１
  6
CONTINUOUS
 62
    7
 10
2.6009434490418641
 20
148.33852205297035
 11
2.6365907642637865
 21
148.35459685016224
  0
LINE
  8
_0-1_作画層１
  6
CONTINUOUS
 62
    7
 10
2.6365907642637865
 20
148.35459685016224
 11
2.6717568633033295
 21
148.37087665139663
  0
LINE
  8
_0-1_作画層１
  6
CONTINUOUS
 62
    7
 10
2.6717568633033295
 20
148.37087665139663
 11
2.7063289917975055
 21
148.38730672115943
  0
LINE
  8
_0-1_作画層１
  6
CONTINUOUS
 62
    7
 10
2.7063289917975055
 20
148.38730672115943
 11
2.7401943953832983
 21
148.40383232393651
  0
LINE
  8
_0-1_作画層１
  6
CONTINUOUS
 62
    7
 10
2.7401943953832983
 20
148.40383232393651
 11
2.7732403196976918
 21
148.4203987242139
  0
LINE
  8
_0-1_作画層１
  6
CONTINUOUS
 62
    7
 10
2.7732403196976918
 20
148.4203987242139
 11
2.805354010377755
 21
148.43695118647753
  0
LINE
  8
_0-1_作画層１
  6
CONTINUOUS
 62
    7
 10
2.805354010377755
 20
148.43695118647753
 11
2.8364227130604149
 21
148.45343497521321
  0
LINE
  8
_0-1_作画層１
  6
CONTINUOUS
 62
    7
 10
2.8364227130604149
 20
148.45343497521321
 11
2.8663336733826839
 21
148.46979535490692
  0
LINE
  8
_0-1_作画層１
  6
CONTINUOUS
 62
    7
 10
2.8663336733826839
 20
148.46979535490692
 11
2.8949741369816024
 21
148.48597759004463
  0
LINE
  8
_0-1_作画層１
  6
CONTINUOUS
 62
    7
 10
2.8949741369816024
 20
148.48597759004463
 11
2.9222313494941545
 21
148.50192694511219
  0
LINE
  8
_0-1_作画層１
  6
CONTINUOUS
 62
    7
 10
2.9222313494941545
 20
148.50192694511219
 11
2.9479925565573524
 21
148.51758868459555
  0
LINE
  8
_0-1_作画層１
  6
CONTINUOUS
 62
    7
 10
2.9479925565573524
 20
148.51758868459555
 11
2.9721450038081798
 21
148.53290807298066
  0
LINE
  8
_0-1_作画層１
  6
CONTINUOUS
 62
    7
 10
2.9721450038081798
 20
148.53290807298066
 11
2.9945759368836207
 21
148.54783037475346
  0
LINE
  8
_0-1_作画層１
  6
CONTINUOUS
 62
    7
 10
2.9945759368836207
 20
148.54783037475346
 11
3.0236691056518339
 21
148.56883210736657
  0
LINE
  8
_0-1_作画層１
  6
CONTINUOUS
 62
    7
 10
3.0236691056518339
 20
148.56883210736657
 11
3.0384543832301176
 21
148.58031661100125
  0
LINE
  8
_0-1_作画層１
  6
CONTINUOUS
 62
    7
 10
3.0384543832301176
 20
148.58031661100125
 11
3.0533913011905724
 21
148.59242601364434
  0
LINE
  8
_0-1_作画層１
  6
CONTINUOUS
 62
    7
 10
3.0533913011905724
 20
148.59242601364434
 11
3.0684742432227665
 21
148.6051371708881
  0
LINE
  8
_0-1_作画層１
  6
CONTINUOUS
 62
    7
 10
3.0684742432227665
 20
148.6051371708881
 11
3.0836975930162396
 21
148.61842693832497
  0
LINE
  8
_0-1_作画層１
  6
CONTINUOUS
 62
    7
 10
3.0836975930162396
 20
148.61842693832497
 11
3.099055734260503
 21
148.63227217154693
  0
LINE
  8
_0-1_作画層１
  6
CONTINUOUS
 62
    7
 10
3.099055734260503
 20
148.63227217154693
 11
3.1145430506452101
 21
148.64664972614662
  0
LINE
  8
_0-1_作画層１
  6
CONTINUOUS
 62
    7
 10
3.1145430506452101
 20
148.64664972614662
 11
3.130153925859787
 21
148.66153645771601
  0
LINE
  8
_0-1_作画層１
  6
CONTINUOUS
 62
    7
 10
3.130153925859787
 20
148.66153645771601
 11
3.1458827435938872
 21
148.67690922184767
  0
LINE
  8
_0-1_作画層１
  6
CONTINUOUS
 62
    7
 10
3.1458827435938872
 20
148.67690922184767
 11
3.1617238875369651
 21
148.69274487413361
  0
LINE
  8
_0-1_作画層１
  6
CONTINUOUS
 62
    7
 10
3.1617238875369651
 20
148.69274487413361
 11
3.1776717413786457
 21
148.70902027016626
  0
LINE
  8
_0-1_作画層１
  6
CONTINUOUS
 62
    7
 10
3.1776717413786457
 20
148.70902027016626
 11
3.1937206888084404
 21
148.72571226553788
  0
LINE
  8
_0-1_作画層１
  6
CONTINUOUS
 62
    7
 10
3.1937206888084404
 20
148.72571226553788
 11
3.2098651135158889
 21
148.74279771584074
  0
LINE
  8
_0-1_作画層１
  6
CONTINUOUS
 62
    7
 10
3.2098651135158889
 20
148.74279771584074
 11
3.2260993991905593
 21
148.76025347666712
  0
LINE
  8
_0-1_作画層１
  6
CONTINUOUS
 62
    7
 10
3.2260993991905593
 20
148.76025347666712
 11
3.2424179295220199
 21
148.77805640360927
  0
LINE
  8
_0-1_作画層１
  6
CONTINUOUS
 62
    7
 10
3.2424179295220199
 20
148.77805640360927
 11
3.2588150881997819
 21
148.79618335225948
  0
LINE
  8
_0-1_作画層１
  6
CONTINUOUS
 62
    7
 10
3.2588150881997819
 20
148.79618335225948
 11
3.2752852589134136
 21
148.81461117821007
  0
LINE
  8
_0-1_作画層１
  6
CONTINUOUS
 62
    7
 10
3.2752852589134136
 20
148.81461117821007
 11
3.2918228253524546
 21
148.83331673705331
  0
LINE
  8
_0-1_作画層１
  6
CONTINUOUS
 62
    7
 10
3.2918228253524546
 20
148.83331673705331
 11
3.3084221712064732
 21
148.85227688438147
  0
LINE
  8
_0-1_作画層１
  6
CONTINUOUS
 62
    7
 10
3.3084221712064732
 20
148.85227688438147
 11
3.3250776801649806
 21
148.8714684757868
  0
LINE
  8
_0-1_作画層１
  6
CONTINUOUS
 62
    7
 10
3.3250776801649806
 20
148.8714684757868
 11
3.3417837359175451
 21
148.89086836686164
  0
LINE
  8
_0-1_作画層１
  6
CONTINUOUS
 62
    7
 10
3.3417837359175451
 20
148.89086836686164
 11
3.3585347221537631
 21
148.91045341319824
  0
LINE
  8
_0-1_作画層１
  6
CONTINUOUS
 62
    7
 10
3.3585347221537631
 20
148.91045341319824
 11
3.3753250225630893
 21
148.93020047038885
  0
LINE
  8
_0-1_作画層１
  6
CONTINUOUS
 62
    7
 10
3.3753250225630893
 20
148.93020047038885
 11
3.3921490208351486
 21
148.95008639402582
  0
LINE
  8
_0-1_作画層１
  6
CONTINUOUS
 62
    7
 10
3.3921490208351486
 20
148.95008639402582
 11
3.4090011006594523
 21
148.97008803970135
  0
LINE
  8
_0-1_作画層１
  6
CONTINUOUS
 62
    7
 10
3.4090011006594523
 20
148.97008803970135
 11
3.4258756457255686
 21
148.99018226300777
  0
LINE
  8
_0-1_作画層１
  6
CONTINUOUS
 62
    7
 10
3.4258756457255686
 20
148.99018226300777
 11
3.4427670397230372
 21
149.01034591953737
  0
LINE
  8
_0-1_作画層１
  6
CONTINUOUS
 62
    7
 10
3.4427670397230372
 20
149.01034591953737
 11
3.4596696663413979
 21
149.03055586488239
  0
LINE
  8
_0-1_作画層１
  6
CONTINUOUS
 62
    7
 10
3.4596696663413979
 20
149.03055586488239
 11
3.4765779092702189
 21
149.05078895463512
  0
LINE
  8
_0-1_作画層１
  6
CONTINUOUS
 62
    7
 10
12.25
 20
161.75
 11
-0.25
 21
161.75
  0
LINE
  8
_0-1_作画層１
  6
CONTINUOUS
 62
    7
 10
12.25
 20
152.75
 11
-0.25
 21
152.75
  0
LINE
  8
_0-1_作画層１
  6
CONTINUOUS
 62
    7
 10
18.5
 20
161.75
 11
31.625
 21
161.75
  0
LINE
  8
_0-1_作画層１
  6
CONTINUOUS
 62
    7
 10
18.5
 20
152.75
 11
31.625
 21
152.75
  0
TEXT
  8
_0-7_注記層１
 62
    7
 10
14.75
 20
160.75
 40
2
 41
1
 50
0
  1
ON
  0
TEXT
  8
_0-7_注記層１
 62
    7
 10
14.25
 20
151.75
 40
2
 41
1
 50
0
  1
OFF
  0
INSERT
  2
-000-_D0
  8
_0-9_寸法線層１
 10
-55.25
 20
-38.75
 41
1
 42
1
 50
0
  0
ARC
  8
_0-1_作画層１
  6
CONTINUOUS
 62
    7
 10
47.749999999999986
 20
194.25
 40
4
 50
0
 51
89.999999999999801
  0
LINE
  8
_0-1_作画層１
  6
CONTINUOUS
 62
    7
 10
47.75
 20
198.25
 11
-16.25
 21
198.25
  0
ARC
  8
_0-1_作画層１
  6
CONTINUOUS
 62
    7
 10
-16.25
 20
194.25
 40
4
 50
90.000000000000099
 51
180
  0
LINE
  8
_0-1_作画層１
  6
CONTINUOUS
 62
    7
 10
-20.25
 20
194.25
 11
-20.25
 21
130.25
  0
ARC
  8
_0-1_作画層１
  6
CONTINUOUS
 62
    7
 10
-16.25
 20
130.25
 40
4.0000000000000071
 50
180
 51
269.99999999999989
  0
LINE
  8
_0-1_作画層１
  6
CONTINUOUS
 62
    7
 10
-16.25
 20
126.25
 11
47.75
 21
126.25
  0
LINE
  8
_0-1_作画層１
  6
CONTINUOUS
 62
    7
 10
51.75
 20
194.25
 11
51.75
 21
130.25
  0
ARC
  8
_0-1_作画層１
  6
CONTINUOUS
 62
    7
 10
47.749999999999986
 20
130.25
 40
4
 50
270.00000000000023
 51
0.0000000000000254
  0
LINE
  8
_0-1_作画層１
  6
CONTINUOUS
 62
    7
 10
-18.25
 20
126.78589838486232
 11
-18.25
 21
197.71410161513776
  0
LINE
  8
_0-1_作画層１
  6
CONTINUOUS
 62
    7
 10
49.75
 20
126.78589838486232
 11
49.75
 21
197.71410161513776
  0
LINE
  8
_0-1_作画層１
  6
CONTINUOUS
 62
    7
 10
19
 20
154.25285016286645
 11
19
 21
160.25285016286645
  0
LINE
  8
_0-1_作画層１
  6
CONTINUOUS
 62
    7
 10
19
 20
160.25285016286645
 11
22.5
 21
160.25285016286645
  0
LINE
  8
_0-1_作画層１
  6
CONTINUOUS
 62
    7
 10
22.5
 20
154.25285016286645
 11
19
 21
154.25285016286645
  0
LINE
  8
_0-1_作画層１
  6
CONTINUOUS
 62
    7
 10
22.5
 20
160.25285016286645
 11
22.5
 21
154.25285016286645
  0
LINE
  8
_0-1_作画層１
  6
CONTINUOUS
 62
    7
 10
19.000000000000028
 20
157.25285016286645
 11
22.500000000000028
 21
157.25285016286645
  0
LINE
  8
_0-1_作画層１
  6
CONTINUOUS
 62
    7
 10
22.418005145751948
 20
154.25128951136088
 11
22.49966229747794
 21
154.33294666308686
  0
LINE
  8
_0-1_作画層１
  6
CONTINUOUS
 62
    7
 10
22.27658378951466
 20
154.25128951136088
 11
22.49966229747794
 21
154.47436801932417
  0
LINE
  8
_0-1_作画層１
  6
CONTINUOUS
 62
    7
 10
22.135162433277344
 20
154.25128951136088
 11
22.49966229747794
 21
154.61578937556146
  0
LINE
  8
_0-1_作画層１
  6
CONTINUOUS
 62
    7
 10
21.993741077040042
 20
154.25128951136088
 11
22.49966229747794
 21
154.75721073179878
  0
LINE
  8
_0-1_作画層１
  6
CONTINUOUS
 62
    7
 10
21.85231972080274
 20
154.25128951136088
 11
22.49966229747794
 21
154.89863208803609
  0
LINE
  8
_0-1_作画層１
  6
CONTINUOUS
 62
    7
 10
21.710898364565423
 20
154.25128951136088
 11
22.49966229747794
 21
155.04005344427338
  0
LINE
  8
_0-1_作画層１
  6
CONTINUOUS
 62
    7
 10
21.569477008328136
 20
154.25128951136088
 11
22.49966229747794
 21
155.18147480051067
  0
LINE
  8
_0-1_作画層１
  6
CONTINUOUS
 62
    7
 10
21.428055652090833
 20
154.25128951136088
 11
22.49966229747794
 21
155.32289615674799
  0
LINE
  8
_0-1_作画層１
  6
CONTINUOUS
 62
    7
 10
21.286634295853531
 20
154.25128951136088
 11
22.49966229747794
 21
155.4643175129853
  0
LINE
  8
_0-1_作画層１
  6
CONTINUOUS
 62
    7
 10
21.145212939616229
 20
154.25128951136088
 11
22.49966229747794
 21
155.60573886922259
  0
LINE
  8
_0-1_作画層１
  6
CONTINUOUS
 62
    7
 10
21.003791583378927
 20
154.25128951136088
 11
22.49966229747794
 21
155.74716022545988
  0
LINE
  8
_0-1_作画層１
  6
CONTINUOUS
 62
    7
 10
20.862370227141639
 20
154.25128951136088
 11
22.49966229747794
 21
155.88858158169717
  0
LINE
  8
_0-1_作画層１
  6
CONTINUOUS
 62
    7
 10
20.720948870904323
 20
154.25128951136088
 11
22.49966229747794
 21
156.03000293793451
  0
LINE
  8
_0-1_作画層１
  6
CONTINUOUS
 62
    7
 10
20.579527514667035
 20
154.25128951136088
 11
22.49966229747794
 21
156.1714242941718
  0
LINE
  8
_0-1_作画層１
  6
CONTINUOUS
 62
    7
 10
20.438106158429719
 20
154.25128951136088
 11
22.49966229747794
 21
156.31284565040909
  0
LINE
  8
_0-1_作画層１
  6
CONTINUOUS
 62
    7
 10
20.296684802192431
 20
154.25128951136088
 11
22.49966229747794
 21
156.4542670066464
  0
LINE
  8
_0-1_作画層１
  6
CONTINUOUS
 62
    7
 10
20.155263445955114
 20
154.25128951136088
 11
22.49966229747794
 21
156.59568836288372
  0
LINE
  8
_0-1_作画層１
  6
CONTINUOUS
 62
    7
 10
20.013842089717798
 20
154.25128951136088
 11
22.49966229747794
 21
156.73710971912101
  0
LINE
  8
_0-1_作画層１
  6
CONTINUOUS
 62
    7
 10
19.87242073348051
 20
154.25128951136088
 11
22.49966229747794
 21
156.8785310753583
  0
LINE
  8
_0-1_作画層１
  6
CONTINUOUS
 62
    7
 10
19.730999377243222
 20
154.25128951136088
 11
22.49966229747794
 21
157.01995243159561
  0
LINE
  8
_0-1_作画層１
  6
CONTINUOUS
 62
    7
 10
19.589578021005906
 20
154.25128951136088
 11
22.49966229747794
 21
157.16137378783293
  0
LINE
  8
_0-1_作画層１
  6
CONTINUOUS
 62
    7
 10
19.44815666476859
 20
154.25128951136088
 11
22.447038367094322
 21
157.2501712136866
  0
LINE
  8
_0-1_作画層１
  6
CONTINUOUS
 62
    7
 10
19.306735308531302
 20
154.25128951136088
 11
22.30561701085702
 21
157.2501712136866
  0
LINE
  8
_0-1_作画層１
  6
CONTINUOUS
 62
    7
 10
19.165313952293985
 20
154.25128951136088
 11
22.164195654619718
 21
157.2501712136866
  0
LINE
  8
_0-1_作画層１
  6
CONTINUOUS
 62
    7
 10
19.023892596056697
 20
154.25128951136088
 11
22.022774298382416
 21
157.2501712136866
  0
LINE
  8
_0-1_作画層１
  6
CONTINUOUS
 62
    7
 10
19.000966978097921
 20
154.36978524963939
 11
21.881352942145114
 21
157.2501712136866
  0
LINE
  8
_0-1_作画層１
  6
CONTINUOUS
 62
    7
 10
19.000966978097921
 20
154.51120660587668
 11
21.739931585907811
 21
157.2501712136866
  0
LINE
  8
_0-1_作画層１
  6
CONTINUOUS
 62
    7
 10
19.000966978097921
 20
154.652627962114
 11
21.598510229670509
 21
157.2501712136866
  0
LINE
  8
_0-1_作画層１
  6
CONTINUOUS
 62
    7
 10
19.000966978097921
 20
154.79404931835131
 11
21.457088873433207
 21
157.2501712136866
  0
LINE
  8
_0-1_作画層１
  6
CONTINUOUS
 62
    7
 10
19.000966978097921
 20
154.9354706745886
 11
21.315667517195905
 21
157.2501712136866
  0
LINE
  8
_0-1_作画層１
  6
CONTINUOUS
 62
    7
 10
19.000966978097921
 20
155.07689203082592
 11
21.174246160958603
 21
157.2501712136866
  0
LINE
  8
_0-1_作画層１
  6
CONTINUOUS
 62
    7
 10
19.000966978097921
 20
155.21831338706323
 11
21.032824804721287
 21
157.2501712136866
  0
LINE
  8
_0-1_作画層１
  6
CONTINUOUS
 62
    7
 10
19.000966978097921
 20
155.35973474330052
 11
20.891403448483999
 21
157.2501712136866
  0
LINE
  8
_0-1_作画層１
  6
CONTINUOUS
 62
    7
 10
19.000966978097921
 20
155.50115609953781
 11
20.749982092246682
 21
157.2501712136866
  0
LINE
  8
_0-1_作画層１
  6
CONTINUOUS
 62
    7
 10
19.000966978097921
 20
155.64257745577513
 11
20.608560736009395
 21
157.2501712136866
  0
LINE
  8
_0-1_作画層１
  6
CONTINUOUS
 62
    7
 10
19.000966978097921
 20
155.78399881201244
 11
20.467139379772078
 21
157.2501712136866
  0
LINE
  8
_0-1_作画層１
  6
CONTINUOUS
 62
    7
 10
19.000966978097921
 20
155.92542016824973
 11
20.32571802353479
 21
157.2501712136866
  0
LINE
  8
_0-1_作画層１
  6
CONTINUOUS
 62
    7
 10
19.000966978097921
 20
156.06684152448702
 11
20.184296667297474
 21
157.2501712136866
  0
LINE
  8
_0-1_作画層１
  6
CONTINUOUS
 62
    7
 10
19.000966978097921
 20
156.20826288072433
 11
20.042875311060186
 21
157.2501712136866
  0
LINE
  8
_0-1_作画層１
  6
CONTINUOUS
 62
    7
 10
19.000966978097921
 20
156.34968423696165
 11
19.90145395482287
 21
157.2501712136866
  0
LINE
  8
_0-1_作画層１
  6
CONTINUOUS
 62
    7
 10
19.000966978097921
 20
156.49110559319894
 11
19.760032598585553
 21
157.2501712136866
  0
LINE
  8
_0-1_作画層１
  6
CONTINUOUS
 62
    7
 10
19.000966978097921
 20
156.63252694943623
 11
19.618611242348265
 21
157.2501712136866
  0
LINE
  8
_0-1_作画層１
  6
CONTINUOUS
 62
    7
 10
19.000966978097921
 20
156.77394830567354
 11
19.477189886110978
 21
157.2501712136866
  0
LINE
  8
_0-1_作画層１
  6
CONTINUOUS
 62
    7
 10
19.000966978097921
 20
156.91536966191086
 11
19.335768529873661
 21
157.2501712136866
  0
LINE
  8
_0-1_作画層１
  6
CONTINUOUS
 62
    7
 10
19.000966978097921
 20
157.05679101814815
 11
19.194347173636345
 21
157.2501712136866
  0
LINE
  8
_0-1_作画層１
  6
CONTINUOUS
 62
    7
 10
19.000966978097921
 20
157.19821237438543
 11
19.052925817399057
 21
157.2501712136866
  0
LINE
  8
_0-1_作画層１
  6
CONTINUOUS
 62
    7
 10
24
 20
154.25285016286645
 11
24
 21
160.25285016286645
  0
LINE
  8
_0-1_作画層１
  6
CONTINUOUS
 62
    7
 10
24
 20
160.25285016286645
 11
27.5
 21
160.25285016286645
  0
LINE
  8
_0-1_作画層１
  6
CONTINUOUS
 62
    7
 10
27.5
 20
154.25285016286645
 11
24
 21
154.25285016286645
  0
LINE
  8
_0-1_作画層１
  6
CONTINUOUS
 62
    7
 10
27.5
 20
160.25285016286645
 11
27.5
 21
154.25285016286645
  0
LINE
  8
_0-1_作画層１
  6
CONTINUOUS
 62
    7
 10
24.000000000000028
 20
157.25285016286645
 11
27.500000000000028
 21
157.25285016286645
  0
LINE
  8
_0-1_作画層１
  6
CONTINUOUS
 62
    7
 10
27.418005145751948
 20
154.25128951136088
 11
27.49966229747794
 21
154.33294666308686
  0
LINE
  8
_0-1_作画層１
  6
CONTINUOUS
 62
    7
 10
27.27658378951466
 20
154.25128951136088
 11
27.49966229747794
 21
154.47436801932417
  0
LINE
  8
_0-1_作画層１
  6
CONTINUOUS
 62
    7
 10
27.135162433277344
 20
154.25128951136088
 11
27.49966229747794
 21
154.61578937556146
  0
LINE
  8
_0-1_作画層１
  6
CONTINUOUS
 62
    7
 10
26.993741077040042
 20
154.25128951136088
 11
27.49966229747794
 21
154.75721073179878
  0
LINE
  8
_0-1_作画層１
  6
CONTINUOUS
 62
    7
 10
26.85231972080274
 20
154.25128951136088
 11
27.49966229747794
 21
154.89863208803609
  0
LINE
  8
_0-1_作画層１
  6
CONTINUOUS
 62
    7
 10
26.710898364565423
 20
154.25128951136088
 11
27.49966229747794
 21
155.04005344427338
  0
LINE
  8
_0-1_作画層１
  6
CONTINUOUS
 62
    7
 10
26.569477008328136
 20
154.25128951136088
 11
27.49966229747794
 21
155.18147480051067
  0
LINE
  8
_0-1_作画層１
  6
CONTINUOUS
 62
    7
 10
26.428055652090833
 20
154.25128951136088
 11
27.49966229747794
 21
155.32289615674799
  0
LINE
  8
_0-1_作画層１
  6
CONTINUOUS
 62
    7
 10
26.286634295853531
 20
154.25128951136088
 11
27.49966229747794
 21
155.4643175129853
  0
LINE
  8
_0-1_作画層１
  6
CONTINUOUS
 62
    7
 10
26.145212939616229
 20
154.25128951136088
 11
27.49966229747794
 21
155.60573886922259
  0
LINE
  8
_0-1_作画層１
  6
CONTINUOUS
 62
    7
 10
26.003791583378927
 20
154.25128951136088
 11
27.49966229747794
 21
155.74716022545988
  0
LINE
  8
_0-1_作画層１
  6
CONTINUOUS
 62
    7
 10
25.862370227141639
 20
154.25128951136088
 11
27.49966229747794
 21
155.88858158169717
  0
LINE
  8
_0-1_作画層１
  6
CONTINUOUS
 62
    7
 10
25.720948870904323
 20
154.25128951136088
 11
27.49966229747794
 21
156.03000293793451
  0
LINE
  8
_0-1_作画層１
  6
CONTINUOUS
 62
    7
 10
25.579527514667035
 20
154.25128951136088
 11
27.49966229747794
 21
156.1714242941718
  0
LINE
  8
_0-1_作画層１
  6
CONTINUOUS
 62
    7
 10
25.438106158429719
 20
154.25128951136088
 11
27.49966229747794
 21
156.31284565040909
  0
LINE
  8
_0-1_作画層１
  6
CONTINUOUS
 62
    7
 10
25.296684802192416
 20
154.25128951136088
 11
27.49966229747794
 21
156.4542670066464
  0
LINE
  8
_0-1_作画層１
  6
CONTINUOUS
 62
    7
 10
25.155263445955114
 20
154.25128951136088
 11
27.49966229747794
 21
156.59568836288372
  0
LINE
  8
_0-1_作画層１
  6
CONTINUOUS
 62
    7
 10
25.013842089717798
 20
154.25128951136088
 11
27.49966229747794
 21
156.73710971912101
  0
LINE
  8
_0-1_作画層１
  6
CONTINUOUS
 62
    7
 10
24.87242073348051
 20
154.25128951136088
 11
27.49966229747794
 21
156.8785310753583
  0
LINE
  8
_0-1_作画層１
  6
CONTINUOUS
 62
    7
 10
24.730999377243208
 20
154.25128951136088
 11
27.49966229747794
 21
157.01995243159561
  0
LINE
  8
_0-1_作画層１
  6
CONTINUOUS
 62
    7
 10
24.589578021005906
 20
154.25128951136088
 11
27.49966229747794
 21
157.16137378783293
  0
LINE
  8
_0-1_作画層１
  6
CONTINUOUS
 62
    7
 10
24.448156664768604
 20
154.25128951136088
 11
27.447038367094322
 21
157.2501712136866
  0
LINE
  8
_0-1_作画層１
  6
CONTINUOUS
 62
    7
 10
24.306735308531302
 20
154.25128951136088
 11
27.30561701085702
 21
157.2501712136866
  0
LINE
  8
_0-1_作画層１
  6
CONTINUOUS
 62
    7
 10
24.165313952293985
 20
154.25128951136088
 11
27.164195654619718
 21
157.2501712136866
  0
LINE
  8
_0-1_作画層１
  6
CONTINUOUS
 62
    7
 10
24.023892596056697
 20
154.25128951136088
 11
27.022774298382416
 21
157.2501712136866
  0
LINE
  8
_0-1_作画層１
  6
CONTINUOUS
 62
    7
 10
24.000966978097921
 20
154.36978524963939
 11
26.881352942145114
 21
157.2501712136866
  0
LINE
  8
_0-1_作画層１
  6
CONTINUOUS
 62
    7
 10
24.000966978097921
 20
154.51120660587668
 11
26.739931585907811
 21
157.2501712136866
  0
LINE
  8
_0-1_作画層１
  6
CONTINUOUS
 62
    7
 10
24.000966978097921
 20
154.652627962114
 11
26.598510229670509
 21
157.2501712136866
  0
LINE
  8
_0-1_作画層１
  6
CONTINUOUS
 62
    7
 10
24.000966978097921
 20
154.79404931835131
 11
26.457088873433207
 21
157.2501712136866
  0
LINE
  8
_0-1_作画層１
  6
CONTINUOUS
 62
    7
 10
24.000966978097921
 20
154.9354706745886
 11
26.315667517195905
 21
157.2501712136866
  0
LINE
  8
_0-1_作画層１
  6
CONTINUOUS
 62
    7
 10
24.000966978097921
 20
155.07689203082592
 11
26.174246160958603
 21
157.2501712136866
  0
LINE
  8
_0-1_作画層１
  6
CONTINUOUS
 62
    7
 10
24.000966978097921
 20
155.21831338706323
 11
26.032824804721287
 21
157.2501712136866
  0
LINE
  8
_0-1_作画層１
  6
CONTINUOUS
 62
    7
 10
24.000966978097921
 20
155.35973474330052
 11
25.891403448483999
 21
157.2501712136866
  0
LINE
  8
_0-1_作画層１
  6
CONTINUOUS
 62
    7
 10
24.000966978097921
 20
155.50115609953781
 11
25.749982092246682
 21
157.2501712136866
  0
LINE
  8
_0-1_作画層１
  6
CONTINUOUS
 62
    7
 10
24.000966978097921
 20
155.64257745577513
 11
25.608560736009395
 21
157.2501712136866
  0
LINE
  8
_0-1_作画層１
  6
CONTINUOUS
 62
    7
 10
24.000966978097921
 20
155.78399881201244
 11
25.467139379772078
 21
157.2501712136866
  0
LINE
  8
_0-1_作画層１
  6
CONTINUOUS
 62
    7
 10
24.000966978097921
 20
155.92542016824973
 11
25.32571802353479
 21
157.2501712136866
  0
LINE
  8
_0-1_作画層１
  6
CONTINUOUS
 62
    7
 10
24.000966978097921
 20
156.06684152448702
 11
25.184296667297474
 21
157.2501712136866
  0
LINE
  8
_0-1_作画層１
  6
CONTINUOUS
 62
    7
 10
24.000966978097921
 20
156.20826288072433
 11
25.042875311060186
 21
157.2501712136866
  0
LINE
  8
_0-1_作画層１
  6
CONTINUOUS
 62
    7
 10
24.000966978097921
 20
156.34968423696165
 11
24.90145395482287
 21
157.2501712136866
  0
LINE
  8
_0-1_作画層１
  6
CONTINUOUS
 62
    7
 10
24.000966978097921
 20
156.49110559319894
 11
24.760032598585568
 21
157.2501712136866
  0
LINE
  8
_0-1_作画層１
  6
CONTINUOUS
 62
    7
 10
24.000966978097921
 20
156.63252694943623
 11
24.61861124234828
 21
157.2501712136866
  0
LINE
  8
_0-1_作画層１
  6
CONTINUOUS
 62
    7
 10
24.000966978097921
 20
156.77394830567354
 11
24.477189886110978
 21
157.2501712136866
  0
LINE
  8
_0-1_作画層１
  6
CONTINUOUS
 62
    7
 10
24.000966978097921
 20
156.91536966191086
 11
24.335768529873661
 21
157.2501712136866
  0
LINE
  8
_0-1_作画層１
  6
CONTINUOUS
 62
    7
 10
24.000966978097921
 20
157.05679101814815
 11
24.194347173636359
 21
157.2501712136866
  0
LINE
  8
_0-1_作画層１
  6
CONTINUOUS
 62
    7
 10
24.000966978097921
 20
157.19821237438543
 11
24.052925817399057
 21
157.2501712136866
  0
LINE
  8
_0-1_作画層１
  6
CONTINUOUS
 62
    7
 10
29
 20
154.25285016286645
 11
29
 21
160.25285016286645
  0
LINE
  8
_0-1_作画層１
  6
CONTINUOUS
 62
    7
 10
29
 20
160.25285016286645
 11
32.5
 21
160.25285016286645
  0
LINE
  8
_0-1_作画層１
  6
CONTINUOUS
 62
    7
 10
32.5
 20
154.25285016286645
 11
29
 21
154.25285016286645
  0
LINE
  8
_0-1_作画層１
  6
CONTINUOUS
 62
    7
 10
32.5
 20
160.25285016286645
 11
32.5
 21
154.25285016286645
  0
LINE
  8
_0-1_作画層１
  6
CONTINUOUS
 62
    7
 10
29.000000000000028
 20
157.25285016286645
 11
32.500000000000028
 21
157.25285016286645
  0
LINE
  8
_0-1_作画層１
  6
CONTINUOUS
 62
    7
 10
32.418005145751948
 20
154.25128951136088
 11
32.49966229747794
 21
154.33294666308686
  0
LINE
  8
_0-1_作画層１
  6
CONTINUOUS
 62
    7
 10
32.27658378951466
 20
154.25128951136088
 11
32.49966229747794
 21
154.47436801932417
  0
LINE
  8
_0-1_作画層１
  6
CONTINUOUS
 62
    7
 10
32.135162433277344
 20
154.25128951136088
 11
32.49966229747794
 21
154.61578937556146
  0
LINE
  8
_0-1_作画層１
  6
CONTINUOUS
 62
    7
 10
31.993741077040042
 20
154.25128951136088
 11
32.49966229747794
 21
154.75721073179878
  0
LINE
  8
_0-1_作画層１
  6
CONTINUOUS
 62
    7
 10
31.85231972080274
 20
154.25128951136088
 11
32.49966229747794
 21
154.89863208803609
  0
LINE
  8
_0-1_作画層１
  6
CONTINUOUS
 62
    7
 10
31.710898364565423
 20
154.25128951136088
 11
32.49966229747794
 21
155.04005344427338
  0
LINE
  8
_0-1_作画層１
  6
CONTINUOUS
 62
    7
 10
31.569477008328136
 20
154.25128951136088
 11
32.49966229747794
 21
155.18147480051067
  0
LINE
  8
_0-1_作画層１
  6
CONTINUOUS
 62
    7
 10
31.428055652090833
 20
154.25128951136088
 11
32.49966229747794
 21
155.32289615674799
  0
LINE
  8
_0-1_作画層１
  6
CONTINUOUS
 62
    7
 10
31.286634295853531
 20
154.25128951136088
 11
32.49966229747794
 21
155.4643175129853
  0
LINE
  8
_0-1_作画層１
  6
CONTINUOUS
 62
    7
 10
31.145212939616229
 20
154.25128951136088
 11
32.49966229747794
 21
155.60573886922259
  0
LINE
  8
_0-1_作画層１
  6
CONTINUOUS
 62
    7
 10
31.003791583378927
 20
154.25128951136088
 11
32.49966229747794
 21
155.74716022545988
  0
LINE
  8
_0-1_作画層１
  6
CONTINUOUS
 62
    7
 10
30.862370227141639
 20
154.25128951136088
 11
32.49966229747794
 21
155.88858158169717
  0
LINE
  8
_0-1_作画層１
  6
CONTINUOUS
 62
    7
 10
30.720948870904323
 20
154.25128951136088
 11
32.49966229747794
 21
156.03000293793451
  0
LINE
  8
_0-1_作画層１
  6
CONTINUOUS
 62
    7
 10
30.579527514667035
 20
154.25128951136088
 11
32.49966229747794
 21
156.1714242941718
  0
LINE
  8
_0-1_作画層１
  6
CONTINUOUS
 62
    7
 10
30.438106158429719
 20
154.25128951136088
 11
32.49966229747794
 21
156.31284565040909
  0
LINE
  8
_0-1_作画層１
  6
CONTINUOUS
 62
    7
 10
30.296684802192416
 20
154.25128951136088
 11
32.49966229747794
 21
156.4542670066464
  0
LINE
  8
_0-1_作画層１
  6
CONTINUOUS
 62
    7
 10
30.155263445955114
 20
154.25128951136088
 11
32.49966229747794
 21
156.59568836288372
  0
LINE
  8
_0-1_作画層１
  6
CONTINUOUS
 62
    7
 10
30.013842089717798
 20
154.25128951136088
 11
32.49966229747794
 21
156.73710971912101
  0
LINE
  8
_0-1_作画層１
  6
CONTINUOUS
 62
    7
 10
29.87242073348051
 20
154.25128951136088
 11
32.49966229747794
 21
156.8785310753583
  0
LINE
  8
_0-1_作画層１
  6
CONTINUOUS
 62
    7
 10
29.730999377243208
 20
154.25128951136088
 11
32.49966229747794
 21
157.01995243159561
  0
LINE
  8
_0-1_作画層１
  6
CONTINUOUS
 62
    7
 10
29.589578021005906
 20
154.25128951136088
 11
32.49966229747794
 21
157.16137378783293
  0
LINE
  8
_0-1_作画層１
  6
CONTINUOUS
 62
    7
 10
29.448156664768604
 20
154.25128951136088
 11
32.447038367094322
 21
157.2501712136866
  0
LINE
  8
_0-1_作画層１
  6
CONTINUOUS
 62
    7
 10
29.306735308531302
 20
154.25128951136088
 11
32.30561701085702
 21
157.2501712136866
  0
LINE
  8
_0-1_作画層１
  6
CONTINUOUS
 62
    7
 10
29.165313952293985
 20
154.25128951136088
 11
32.164195654619718
 21
157.2501712136866
  0
LINE
  8
_0-1_作画層１
  6
CONTINUOUS
 62
    7
 10
29.023892596056697
 20
154.25128951136088
 11
32.022774298382416
 21
157.2501712136866
  0
LINE
  8
_0-1_作画層１
  6
CONTINUOUS
 62
    7
 10
29.000966978097921
 20
154.36978524963939
 11
31.881352942145114
 21
157.2501712136866
  0
LINE
  8
_0-1_作画層１
  6
CONTINUOUS
 62
    7
 10
29.000966978097921
 20
154.51120660587668
 11
31.739931585907811
 21
157.2501712136866
  0
LINE
  8
_0-1_作画層１
  6
CONTINUOUS
 62
    7
 10
29.000966978097921
 20
154.652627962114
 11
31.598510229670509
 21
157.2501712136866
  0
LINE
  8
_0-1_作画層１
  6
CONTINUOUS
 62
    7
 10
29.000966978097921
 20
154.79404931835131
 11
31.457088873433207
 21
157.2501712136866
  0
LINE
  8
_0-1_作画層１
  6
CONTINUOUS
 62
    7
 10
29.000966978097921
 20
154.9354706745886
 11
31.315667517195905
 21
157.2501712136866
  0
LINE
  8
_0-1_作画層１
  6
CONTINUOUS
 62
    7
 10
29.000966978097921
 20
155.07689203082592
 11
31.174246160958603
 21
157.2501712136866
  0
LINE
  8
_0-1_作画層１
  6
CONTINUOUS
 62
    7
 10
29.000966978097921
 20
155.21831338706323
 11
31.032824804721287
 21
157.2501712136866
  0
LINE
  8
_0-1_作画層１
  6
CONTINUOUS
 62
    7
 10
29.000966978097921
 20
155.35973474330052
 11
30.891403448483999
 21
157.2501712136866
  0
LINE
  8
_0-1_作画層１
  6
CONTINUOUS
 62
    7
 10
29.000966978097921
 20
155.50115609953781
 11
30.749982092246682
 21
157.2501712136866
  0
LINE
  8
_0-1_作画層１
  6
CONTINUOUS
 62
    7
 10
29.000966978097921
 20
155.64257745577513
 11
30.608560736009395
 21
157.2501712136866
  0
LINE
  8
_0-1_作画層１
  6
CONTINUOUS
 62
    7
 10
29.000966978097921
 20
155.78399881201244
 11
30.467139379772078
 21
157.2501712136866
  0
LINE
  8
_0-1_作画層１
  6
CONTINUOUS
 62
    7
 10
29.000966978097921
 20
155.92542016824973
 11
30.32571802353479
 21
157.2501712136866
  0
LINE
  8
_0-1_作画層１
  6
CONTINUOUS
 62
    7
 10
29.000966978097921
 20
156.06684152448702
 11
30.184296667297474
 21
157.2501712136866
  0
LINE
  8
_0-1_作画層１
  6
CONTINUOUS
 62
    7
 10
29.000966978097921
 20
156.20826288072433
 11
30.042875311060186
 21
157.2501712136866
  0
LINE
  8
_0-1_作画層１
  6
CONTINUOUS
 62
    7
 10
29.000966978097921
 20
156.34968423696165
 11
29.90145395482287
 21
157.2501712136866
  0
LINE
  8
_0-1_作画層１
  6
CONTINUOUS
 62
    7
 10
29.000966978097921
 20
156.49110559319894
 11
29.760032598585568
 21
157.2501712136866
  0
LINE
  8
_0-1_作画層１
  6
CONTINUOUS
 62
    7
 10
29.000966978097921
 20
156.63252694943623
 11
29.61861124234828
 21
157.2501712136866
  0
LINE
  8
_0-1_作画層１
  6
CONTINUOUS
 62
    7
 10
29.000966978097921
 20
156.77394830567354
 11
29.477189886110978
 21
157.2501712136866
  0
LINE
  8
_0-1_作画層１
  6
CONTINUOUS
 62
    7
 10
29.000966978097921
 20
156.91536966191086
 11
29.335768529873661
 21
157.2501712136866
  0
LINE
  8
_0-1_作画層１
  6
CONTINUOUS
 62
    7
 10
29.000966978097921
 20
157.05679101814815
 11
29.194347173636359
 21
157.2501712136866
  0
LINE
  8
_0-1_作画層１
  6
CONTINUOUS
 62
    7
 10
29.000966978097921
 20
157.19821237438543
 11
29.052925817399057
 21
157.2501712136866
  0
LINE
  8
_0-1_作画層１
  6
CONTINUOUS
 62
    7
 10
12.5
 20
154.25285016286645
 11
12.5
 21
160.25285016286645
  0
LINE
  8
_0-1_作画層１
  6
CONTINUOUS
 62
    7
 10
12.5
 20
160.25285016286645
 11
9
 21
160.25285016286645
  0
LINE
  8
_0-1_作画層１
  6
CONTINUOUS
 62
    7
 10
9
 20
154.25285016286645
 11
12.5
 21
154.25285016286645
  0
LINE
  8
_0-1_作画層１
  6
CONTINUOUS
 62
    7
 10
9
 20
160.25285016286645
 11
9
 21
154.25285016286645
  0
LINE
  8
_0-1_作画層１
  6
CONTINUOUS
 62
    7
 10
12.499999999999972
 20
157.25285016286645
 11
8.9999999999999716
 21
157.25285016286645
  0
LINE
  8
_0-1_作画層１
  6
CONTINUOUS
 62
    7
 10
9.0819948542480518
 20
154.25128951136088
 11
9.0003377025220743
 21
154.33294666308686
  0
LINE
  8
_0-1_作画層１
  6
CONTINUOUS
 62
    7
 10
9.2234162104853397
 20
154.25128951136088
 11
9.0003377025220743
 21
154.47436801932417
  0
LINE
  8
_0-1_作画層１
  6
CONTINUOUS
 62
    7
 10
9.364837566722656
 20
154.25128951136088
 11
9.0003377025220743
 21
154.61578937556146
  0
LINE
  8
_0-1_作画層１
  6
CONTINUOUS
 62
    7
 10
9.5062589229599439
 20
154.25128951136088
 11
9.0003377025220743
 21
154.75721073179878
  0
LINE
  8
_0-1_作画層１
  6
CONTINUOUS
 62
    7
 10
9.6476802791972602
 20
154.25128951136088
 11
9.0003377025220743
 21
154.89863208803609
  0
LINE
  8
_0-1_作画層１
  6
CONTINUOUS
 62
    7
 10
9.7891016354345766
 20
154.25128951136088
 11
9.0003377025220743
 21
155.04005344427338
  0
LINE
  8
_0-1_作画層１
  6
CONTINUOUS
 62
    7
 10
9.9305229916718645
 20
154.25128951136088
 11
9.0003377025220743
 21
155.18147480051067
  0
LINE
  8
_0-1_作画層１
  6
CONTINUOUS
 62
    7
 10
10.071944347909152
 20
154.25128951136088
 11
9.0003377025220743
 21
155.32289615674799
  0
LINE
  8
_0-1_作画層１
  6
CONTINUOUS
 62
    7
 10
10.213365704146469
 20
154.25128951136088
 11
9.0003377025220743
 21
155.4643175129853
  0
LINE
  8
_0-1_作画層１
  6
CONTINUOUS
 62
    7
 10
10.354787060383785
 20
154.25128951136088
 11
9.0003377025220743
 21
155.60573886922259
  0
LINE
  8
_0-1_作画層１
  6
CONTINUOUS
 62
    7
 10
10.496208416621073
 20
154.25128951136088
 11
9.0003377025220743
 21
155.74716022545988
  0
LINE
  8
_0-1_作画層１
  6
CONTINUOUS
 62
    7
 10
10.637629772858361
 20
154.25128951136088
 11
9.0003377025220743
 21
155.88858158169717
  0
LINE
  8
_0-1_作画層１
  6
CONTINUOUS
 62
    7
 10
10.779051129095677
 20
154.25128951136088
 11
9.0003377025220743
 21
156.03000293793451
  0
LINE
  8
_0-1_作画層１
  6
CONTINUOUS
 62
    7
 10
10.920472485332965
 20
154.25128951136088
 11
9.0003377025220743
 21
156.1714242941718
  0
LINE
  8
_0-1_作画層１
  6
CONTINUOUS
 62
    7
 10
11.061893841570281
 20
154.25128951136088
 11
9.0003377025220743
 21
156.31284565040909
  0
LINE
  8
_0-1_作画層１
  6
CONTINUOUS
 62
    7
 10
11.203315197807569
 20
154.25128951136088
 11
9.0003377025220743
 21
156.4542670066464
  0
LINE
  8
_0-1_作画層１
  6
CONTINUOUS
 62
    7
 10
11.344736554044886
 20
154.25128951136088
 11
9.0003377025220743
 21
156.59568836288372
  0
LINE
  8
_0-1_作画層１
  6
CONTINUOUS
 62
    7
 10
11.486157910282202
 20
154.25128951136088
 11
9.0003377025220743
 21
156.73710971912101
  0
LINE
  8
_0-1_作画層１
  6
CONTINUOUS
 62
    7
 10
11.62757926651949
 20
154.25128951136088
 11
9.0003377025220743
 21
156.8785310753583
  0
LINE
  8
_0-1_作画層１
  6
CONTINUOUS
 62
    7
 10
11.769000622756778
 20
154.25128951136088
 11
9.0003377025220743
 21
157.01995243159561
  0
LINE
  8
_0-1_作画層１
  6
CONTINUOUS
 62
    7
 10
11.910421978994094
 20
154.25128951136088
 11
9.0003377025220743
 21
157.16137378783293
  0
LINE
  8
_0-1_作画層１
  6
CONTINUOUS
 62
    7
 10
12.05184333523141
 20
154.25128951136088
 11
9.0529616329056921
 21
157.2501712136866
  0
LINE
  8
_0-1_作画層１
  6
CONTINUOUS
 62
    7
 10
12.193264691468698
 20
154.25128951136088
 11
9.19438298914298
 21
157.2501712136866
  0
LINE
  8
_0-1_作画層１
  6
CONTINUOUS
 62
    7
 10
12.334686047706015
 20
154.25128951136088
 11
9.3358043453802679
 21
157.2501712136866
  0
LINE
  8
_0-1_作画層１
  6
CONTINUOUS
 62
    7
 10
12.476107403943303
 20
154.25128951136088
 11
9.4772257016175843
 21
157.2501712136866
  0
LINE
  8
_0-1_作画層１
  6
CONTINUOUS
 62
    7
 10
12.499033021902079
 20
154.36978524963939
 11
9.6186470578549006
 21
157.2501712136866
  0
LINE
  8
_0-1_作画層１
  6
CONTINUOUS
 62
    7
 10
12.499033021902079
 20
154.51120660587668
 11
9.7600684140921885
 21
157.2501712136866
  0
LINE
  8
_0-1_作画層１
  6
CONTINUOUS
 62
    7
 10
12.499033021902079
 20
154.652627962114
 11
9.9014897703294764
 21
157.2501712136866
  0
LINE
  8
_0-1_作画層１
  6
CONTINUOUS
 62
    7
 10
12.499033021902079
 20
154.79404931835131
 11
10.042911126566793
 21
157.2501712136866
  0
LINE
  8
_0-1_作画層１
  6
CONTINUOUS
 62
    7
 10
12.499033021902079
 20
154.9354706745886
 11
10.184332482804109
 21
157.2501712136866
  0
LINE
  8
_0-1_作画層１
  6
CONTINUOUS
 62
    7
 10
12.499033021902079
 20
155.07689203082592
 11
10.325753839041397
 21
157.2501712136866
  0
LINE
  8
_0-1_作画層１
  6
CONTINUOUS
 62
    7
 10
12.499033021902079
 20
155.21831338706323
 11
10.467175195278713
 21
157.2501712136866
  0
LINE
  8
_0-1_作画層１
  6
CONTINUOUS
 62
    7
 10
12.499033021902079
 20
155.35973474330052
 11
10.608596551516001
 21
157.2501712136866
  0
LINE
  8
_0-1_作画層１
  6
CONTINUOUS
 62
    7
 10
12.499033021902079
 20
155.50115609953781
 11
10.750017907753318
 21
157.2501712136866
  0
LINE
  8
_0-1_作画層１
  6
CONTINUOUS
 62
    7
 10
12.499033021902079
 20
155.64257745577513
 11
10.891439263990605
 21
157.2501712136866
  0
LINE
  8
_0-1_作画層１
  6
CONTINUOUS
 62
    7
 10
12.499033021902079
 20
155.78399881201244
 11
11.032860620227922
 21
157.2501712136866
  0
LINE
  8
_0-1_作画層１
  6
CONTINUOUS
 62
    7
 10
12.499033021902079
 20
155.92542016824973
 11
11.17428197646521
 21
157.2501712136866
  0
LINE
  8
_0-1_作画層１
  6
CONTINUOUS
 62
    7
 10
12.499033021902079
 20
156.06684152448702
 11
11.315703332702526
 21
157.2501712136866
  0
LINE
  8
_0-1_作画層１
  6
CONTINUOUS
 62
    7
 10
12.499033021902079
 20
156.20826288072433
 11
11.457124688939814
 21
157.2501712136866
  0
LINE
  8
_0-1_作画層１
  6
CONTINUOUS
 62
    7
 10
12.499033021902079
 20
156.34968423696165
 11
11.59854604517713
 21
157.2501712136866
  0
LINE
  8
_0-1_作画層１
  6
CONTINUOUS
 62
    7
 10
12.499033021902079
 20
156.49110559319894
 11
11.739967401414447
 21
157.2501712136866
  0
LINE
  8
_0-1_作画層１
  6
CONTINUOUS
 62
    7
 10
12.499033021902079
 20
156.63252694943623
 11
11.881388757651735
 21
157.2501712136866
  0
LINE
  8
_0-1_作画層１
  6
CONTINUOUS
 62
    7
 10
12.499033021902079
 20
156.77394830567354
 11
12.022810113889022
 21
157.2501712136866
  0
LINE
  8
_0-1_作画層１
  6
CONTINUOUS
 62
    7
 10
12.499033021902079
 20
156.91536966191086
 11
12.164231470126339
 21
157.2501712136866
  0
LINE
  8
_0-1_作画層１
  6
CONTINUOUS
 62
    7
 10
12.499033021902079
 20
157.05679101814815
 11
12.305652826363655
 21
157.2501712136866
  0
LINE
  8
_0-1_作画層１
  6
CONTINUOUS
 62
    7
 10
12.499033021902079
 20
157.19821237438543
 11
12.447074182600943
 21
157.2501712136866
  0
LINE
  8
_0-1_作画層１
  6
CONTINUOUS
 62
    7
 10
7.5
 20
154.25285016286645
 11
7.5
 21
160.25285016286645
  0
LINE
  8
_0-1_作画層１
  6
CONTINUOUS
 62
    7
 10
7.5
 20
160.25285016286645
 11
4
 21
160.25285016286645
  0
LINE
  8
_0-1_作画層１
  6
CONTINUOUS
 62
    7
 10
4
 20
154.25285016286645
 11
7.5
 21
154.25285016286645
  0
LINE
  8
_0-1_作画層１
  6
CONTINUOUS
 62
    7
 10
4
 20
160.25285016286645
 11
4
 21
154.25285016286645
  0
LINE
  8
_0-1_作画層１
  6
CONTINUOUS
 62
    7
 10
7.4999999999999716
 20
157.25285016286645
 11
3.9999999999999716
 21
157.25285016286645
  0
LINE
  8
_0-1_作画層１
  6
CONTINUOUS
 62
    7
 10
4.0819948542480518
 20
154.25128951136088
 11
4.0003377025220743
 21
154.33294666308686
  0
LINE
  8
_0-1_作画層１
  6
CONTINUOUS
 62
    7
 10
4.2234162104853397
 20
154.25128951136088
 11
4.0003377025220743
 21
154.47436801932417
  0
LINE
  8
_0-1_作画層１
  6
CONTINUOUS
 62
    7
 10
4.364837566722656
 20
154.25128951136088
 11
4.0003377025220743
 21
154.61578937556146
  0
LINE
  8
_0-1_作画層１
  6
CONTINUOUS
 62
    7
 10
4.5062589229599439
 20
154.25128951136088
 11
4.0003377025220743
 21
154.75721073179878
  0
LINE
  8
_0-1_作画層１
  6
CONTINUOUS
 62
    7
 10
4.6476802791972602
 20
154.25128951136088
 11
4.0003377025220743
 21
154.89863208803609
  0
LINE
  8
_0-1_作画層１
  6
CONTINUOUS
 62
    7
 10
4.7891016354345766
 20
154.25128951136088
 11
4.0003377025220743
 21
155.04005344427338
  0
LINE
  8
_0-1_作画層１
  6
CONTINUOUS
 62
    7
 10
4.9305229916718645
 20
154.25128951136088
 11
4.0003377025220743
 21
155.18147480051067
  0
LINE
  8
_0-1_作画層１
  6
CONTINUOUS
 62
    7
 10
5.0719443479091524
 20
154.25128951136088
 11
4.0003377025220743
 21
155.32289615674799
  0
LINE
  8
_0-1_作画層１
  6
CONTINUOUS
 62
    7
 10
5.2133657041464687
 20
154.25128951136088
 11
4.0003377025220743
 21
155.4643175129853
  0
LINE
  8
_0-1_作画層１
  6
CONTINUOUS
 62
    7
 10
5.354787060383785
 20
154.25128951136088
 11
4.0003377025220743
 21
155.60573886922259
  0
LINE
  8
_0-1_作画層１
  6
CONTINUOUS
 62
    7
 10
5.496208416621073
 20
154.25128951136088
 11
4.0003377025220743
 21
155.74716022545988
  0
LINE
  8
_0-1_作画層１
  6
CONTINUOUS
 62
    7
 10
5.6376297728583609
 20
154.25128951136088
 11
4.0003377025220743
 21
155.88858158169717
  0
LINE
  8
_0-1_作画層１
  6
CONTINUOUS
 62
    7
 10
5.7790511290956772
 20
154.25128951136088
 11
4.0003377025220743
 21
156.03000293793451
  0
LINE
  8
_0-1_作画層１
  6
CONTINUOUS
 62
    7
 10
5.9204724853329651
 20
154.25128951136088
 11
4.0003377025220743
 21
156.1714242941718
  0
LINE
  8
_0-1_作画層１
  6
CONTINUOUS
 62
    7
 10
6.0618938415702814
 20
154.25128951136088
 11
4.0003377025220743
 21
156.31284565040909
  0
LINE
  8
_0-1_作画層１
  6
CONTINUOUS
 62
    7
 10
6.2033151978075693
 20
154.25128951136088
 11
4.0003377025220743
 21
156.4542670066464
  0
LINE
  8
_0-1_作画層１
  6
CONTINUOUS
 62
    7
 10
6.3447365540448857
 20
154.25128951136088
 11
4.0003377025220743
 21
156.59568836288372
  0
LINE
  8
_0-1_作画層１
  6
CONTINUOUS
 62
    7
 10
6.486157910282202
 20
154.25128951136088
 11
4.0003377025220743
 21
156.73710971912101
  0
LINE
  8
_0-1_作画層１
  6
CONTINUOUS
 62
    7
 10
6.6275792665194899
 20
154.25128951136088
 11
4.0003377025220743
 21
156.8785310753583
  0
LINE
  8
_0-1_作画層１
  6
CONTINUOUS
 62
    7
 10
6.7690006227567778
 20
154.25128951136088
 11
4.0003377025220743
 21
157.01995243159561
  0
LINE
  8
_0-1_作画層１
  6
CONTINUOUS
 62
    7
 10
6.9104219789940942
 20
154.25128951136088
 11
4.0003377025220743
 21
157.16137378783293
  0
LINE
  8
_0-1_作画層１
  6
CONTINUOUS
 62
    7
 10
7.0518433352314105
 20
154.25128951136088
 11
4.0529616329056921
 21
157.2501712136866
  0
LINE
  8
_0-1_作画層１
  6
CONTINUOUS
 62
    7
 10
7.1932646914686984
 20
154.25128951136088
 11
4.19438298914298
 21
157.2501712136866
  0
LINE
  8
_0-1_作画層１
  6
CONTINUOUS
 62
    7
 10
7.3346860477060147
 20
154.25128951136088
 11
4.3358043453802679
 21
157.2501712136866
  0
LINE
  8
_0-1_作画層１
  6
CONTINUOUS
 62
    7
 10
7.4761074039433026
 20
154.25128951136088
 11
4.4772257016175843
 21
157.2501712136866
  0
LINE
  8
_0-1_作画層１
  6
CONTINUOUS
 62
    7
 10
7.4990330219020791
 20
154.36978524963939
 11
4.6186470578549006
 21
157.2501712136866
  0
LINE
  8
_0-1_作画層１
  6
CONTINUOUS
 62
    7
 10
7.4990330219020791
 20
154.51120660587668
 11
4.7600684140921885
 21
157.2501712136866
  0
LINE
  8
_0-1_作画層１
  6
CONTINUOUS
 62
    7
 10
7.4990330219020791
 20
154.652627962114
 11
4.9014897703294764
 21
157.2501712136866
  0
LINE
  8
_0-1_作画層１
  6
CONTINUOUS
 62
    7
 10
7.4990330219020791
 20
154.79404931835131
 11
5.0429111265667927
 21
157.2501712136866
  0
LINE
  8
_0-1_作画層１
  6
CONTINUOUS
 62
    7
 10
7.4990330219020791
 20
154.9354706745886
 11
5.1843324828041091
 21
157.2501712136866
  0
LINE
  8
_0-1_作画層１
  6
CONTINUOUS
 62
    7
 10
7.4990330219020791
 20
155.07689203082592
 11
5.325753839041397
 21
157.2501712136866
  0
LINE
  8
_0-1_作画層１
  6
CONTINUOUS
 62
    7
 10
7.4990330219020791
 20
155.21831338706323
 11
5.4671751952787133
 21
157.2501712136866
  0
LINE
  8
_0-1_作画層１
  6
CONTINUOUS
 62
    7
 10
7.4990330219020791
 20
155.35973474330052
 11
5.6085965515160012
 21
157.2501712136866
  0
LINE
  8
_0-1_作画層１
  6
CONTINUOUS
 62
    7
 10
7.4990330219020791
 20
155.50115609953781
 11
5.7500179077533176
 21
157.2501712136866
  0
LINE
  8
_0-1_作画層１
  6
CONTINUOUS
 62
    7
 10
7.4990330219020791
 20
155.64257745577513
 11
5.8914392639906055
 21
157.2501712136866
  0
LINE
  8
_0-1_作画層１
  6
CONTINUOUS
 62
    7
 10
7.4990330219020791
 20
155.78399881201244
 11
6.0328606202279218
 21
157.2501712136866
  0
LINE
  8
_0-1_作画層１
  6
CONTINUOUS
 62
    7
 10
7.4990330219020791
 20
155.92542016824973
 11
6.1742819764652097
 21
157.2501712136866
  0
LINE
  8
_0-1_作画層１
  6
CONTINUOUS
 62
    7
 10
7.4990330219020791
 20
156.06684152448702
 11
6.315703332702526
 21
157.2501712136866
  0
LINE
  8
_0-1_作画層１
  6
CONTINUOUS
 62
    7
 10
7.4990330219020791
 20
156.20826288072433
 11
6.457124688939814
 21
157.2501712136866
  0
LINE
  8
_0-1_作画層１
  6
CONTINUOUS
 62
    7
 10
7.4990330219020791
 20
156.34968423696165
 11
6.5985460451771303
 21
157.2501712136866
  0
LINE
  8
_0-1_作画層１
  6
CONTINUOUS
 62
    7
 10
7.4990330219020791
 20
156.49110559319894
 11
6.7399674014144466
 21
157.2501712136866
  0
LINE
  8
_0-1_作画層１
  6
CONTINUOUS
 62
    7
 10
7.4990330219020791
 20
156.63252694943623
 11
6.8813887576517345
 21
157.2501712136866
  0
LINE
  8
_0-1_作画層１
  6
CONTINUOUS
 62
    7
 10
7.4990330219020791
 20
156.77394830567354
 11
7.0228101138890224
 21
157.2501712136866
  0
LINE
  8
_0-1_作画層１
  6
CONTINUOUS
 62
    7
 10
7.4990330219020791
 20
156.91536966191086
 11
7.1642314701263388
 21
157.2501712136866
  0
LINE
  8
_0-1_作画層１
  6
CONTINUOUS
 62
    7
 10
7.4990330219020791
 20
157.05679101814815
 11
7.3056528263636551
 21
157.2501712136866
  0
LINE
  8
_0-1_作画層１
  6
CONTINUOUS
 62
    7
 10
7.4990330219020791
 20
157.19821237438543
 11
7.447074182600943
 21
157.2501712136866
  0
LINE
  8
_0-1_作画層１
  6
CONTINUOUS
 62
    7
 10
2.5
 20
154.25285016286645
 11
2.5
 21
160.25285016286645
  0
LINE
  8
_0-1_作画層１
  6
CONTINUOUS
 62
    7
 10
2.5
 20
160.25285016286645
 11
-1
 21
160.25285016286645
  0
LINE
  8
_0-1_作画層１
  6
CONTINUOUS
 62
    7
 10
-1
 20
154.25285016286645
 11
2.5
 21
154.25285016286645
  0
LINE
  8
_0-1_作画層１
  6
CONTINUOUS
 62
    7
 10
-1
 20
160.25285016286645
 11
-1
 21
154.25285016286645
  0
LINE
  8
_0-1_作画層１
  6
CONTINUOUS
 62
    7
 10
2.4999999999999716
 20
157.25285016286645
 11
-1.0000000000000284
 21
157.25285016286645
  0
LINE
  8
_0-1_作画層１
  6
CONTINUOUS
 62
    7
 10
-0.9180051457519482
 20
154.25128951136088
 11
-0.9996622974779256
 21
154.33294666308686
  0
LINE
  8
_0-1_作画層１
  6
CONTINUOUS
 62
    7
 10
-0.7765837895146603
 20
154.25128951136088
 11
-0.9996622974779256
 21
154.47436801932417
  0
LINE
  8
_0-1_作画層１
  6
CONTINUOUS
 62
    7
 10
-0.635162433277344
 20
154.25128951136088
 11
-0.9996622974779256
 21
154.61578937556146
  0
LINE
  8
_0-1_作画層１
  6
CONTINUOUS
 62
    7
 10
-0.4937410770400561
 20
154.25128951136088
 11
-0.9996622974779256
 21
154.75721073179878
  0
LINE
  8
_0-1_作画層１
  6
CONTINUOUS
 62
    7
 10
-0.3523197208027397
 20
154.25128951136088
 11
-0.9996622974779256
 21
154.89863208803609
  0
LINE
  8
_0-1_作画層１
  6
CONTINUOUS
 62
    7
 10
-0.2108983645654234
 20
154.25128951136088
 11
-0.9996622974779256
 21
155.04005344427338
  0
LINE
  8
_0-1_作画層１
  6
CONTINUOUS
 62
    7
 10
-0.0694770083281355
 20
154.25128951136088
 11
-0.9996622974779256
 21
155.18147480051067
  0
LINE
  8
_0-1_作画層１
  6
CONTINUOUS
 62
    7
 10
0.0719443479091523
 20
154.25128951136088
 11
-0.9996622974779256
 21
155.32289615674799
  0
LINE
  8
_0-1_作画層１
  6
CONTINUOUS
 62
    7
 10
0.2133657041464687
 20
154.25128951136088
 11
-0.9996622974779256
 21
155.4643175129853
  0
LINE
  8
_0-1_作画層１
  6
CONTINUOUS
 62
    7
 10
0.354787060383785
 20
154.25128951136088
 11
-0.9996622974779256
 21
155.60573886922259
  0
LINE
  8
_0-1_作画層１
  6
CONTINUOUS
 62
    7
 10
0.4962084166210729
 20
154.25128951136088
 11
-0.9996622974779256
 21
155.74716022545988
  0
LINE
  8
_0-1_作画層１
  6
CONTINUOUS
 62
    7
 10
0.6376297728583608
 20
154.25128951136088
 11
-0.9996622974779256
 21
155.88858158169717
  0
LINE
  8
_0-1_作画層１
  6
CONTINUOUS
 62
    7
 10
0.7790511290956772
 20
154.25128951136088
 11
-0.9996622974779256
 21
156.03000293793451
  0
LINE
  8
_0-1_作画層１
  6
CONTINUOUS
 62
    7
 10
0.9204724853329651
 20
154.25128951136088
 11
-0.9996622974779256
 21
156.1714242941718
  0
LINE
  8
_0-1_作画層１
  6
CONTINUOUS
 62
    7
 10
1.0618938415702814
 20
154.25128951136088
 11
-0.9996622974779256
 21
156.31284565040909
  0
LINE
  8
_0-1_作画層１
  6
CONTINUOUS
 62
    7
 10
1.2033151978075693
 20
154.25128951136088
 11
-0.9996622974779256
 21
156.4542670066464
  0
LINE
  8
_0-1_作画層１
  6
CONTINUOUS
 62
    7
 10
1.3447365540448857
 20
154.25128951136088
 11
-0.9996622974779256
 21
156.59568836288372
  0
LINE
  8
_0-1_作画層１
  6
CONTINUOUS
 62
    7
 10
1.486157910282202
 20
154.25128951136088
 11
-0.9996622974779256
 21
156.73710971912101
  0
LINE
  8
_0-1_作画層１
  6
CONTINUOUS
 62
    7
 10
1.6275792665194899
 20
154.25128951136088
 11
-0.9996622974779256
 21
156.8785310753583
  0
LINE
  8
_0-1_作画層１
  6
CONTINUOUS
 62
    7
 10
1.7690006227567778
 20
154.25128951136088
 11
-0.9996622974779256
 21
157.01995243159561
  0
LINE
  8
_0-1_作画層１
  6
CONTINUOUS
 62
    7
 10
1.9104219789940942
 20
154.25128951136088
 11
-0.9996622974779256
 21
157.16137378783293
  0
LINE
  8
_0-1_作画層１
  6
CONTINUOUS
 62
    7
 10
2.0518433352314105
 20
154.25128951136088
 11
-0.9470383670943078
 21
157.2501712136866
  0
LINE
  8
_0-1_作画層１
  6
CONTINUOUS
 62
    7
 10
2.1932646914686984
 20
154.25128951136088
 11
-0.8056170108570199
 21
157.2501712136866
  0
LINE
  8
_0-1_作画層１
  6
CONTINUOUS
 62
    7
 10
2.3346860477060147
 20
154.25128951136088
 11
-0.664195654619732
 21
157.2501712136866
  0
LINE
  8
_0-1_作画層１
  6
CONTINUOUS
 62
    7
 10
2.4761074039433026
 20
154.25128951136088
 11
-0.5227742983824157
 21
157.2501712136866
  0
LINE
  8
_0-1_作画層１
  6
CONTINUOUS
 62
    7
 10
2.4990330219020791
 20
154.36978524963939
 11
-0.3813529421450994
 21
157.2501712136866
  0
LINE
  8
_0-1_作画層１
  6
CONTINUOUS
 62
    7
 10
2.4990330219020791
 20
154.51120660587668
 11
-0.2399315859078115
 21
157.2501712136866
  0
LINE
  8
_0-1_作画層１
  6
CONTINUOUS
 62
    7
 10
2.4990330219020791
 20
154.652627962114
 11
-0.0985102296705235
 21
157.2501712136866
  0
LINE
  8
_0-1_作画層１
  6
CONTINUOUS
 62
    7
 10
2.4990330219020791
 20
154.79404931835131
 11
0.0429111265667927
 21
157.2501712136866
  0
LINE
  8
_0-1_作画層１
  6
CONTINUOUS
 62
    7
 10
2.4990330219020791
 20
154.9354706745886
 11
0.184332482804109
 21
157.2501712136866
  0
LINE
  8
_0-1_作画層１
  6
CONTINUOUS
 62
    7
 10
2.4990330219020791
 20
155.07689203082592
 11
0.3257538390413969
 21
157.2501712136866
  0
LINE
  8
_0-1_作画層１
  6
CONTINUOUS
 62
    7
 10
2.4990330219020791
 20
155.21831338706323
 11
0.4671751952787133
 21
157.2501712136866
  0
LINE
  8
_0-1_作画層１
  6
CONTINUOUS
 62
    7
 10
2.4990330219020791
 20
155.35973474330052
 11
0.6085965515160012
 21
157.2501712136866
  0
LINE
  8
_0-1_作画層１
  6
CONTINUOUS
 62
    7
 10
2.4990330219020791
 20
155.50115609953781
 11
0.7500179077533175
 21
157.2501712136866
  0
LINE
  8
_0-1_作画層１
  6
CONTINUOUS
 62
    7
 10
2.4990330219020791
 20
155.64257745577513
 11
0.8914392639906054
 21
157.2501712136866
  0
LINE
  8
_0-1_作画層１
  6
CONTINUOUS
 62
    7
 10
2.4990330219020791
 20
155.78399881201244
 11
1.0328606202279218
 21
157.2501712136866
  0
LINE
  8
_0-1_作画層１
  6
CONTINUOUS
 62
    7
 10
2.4990330219020791
 20
155.92542016824973
 11
1.1742819764652097
 21
157.2501712136866
  0
LINE
  8
_0-1_作画層１
  6
CONTINUOUS
 62
    7
 10
2.4990330219020791
 20
156.06684152448702
 11
1.315703332702526
 21
157.2501712136866
  0
LINE
  8
_0-1_作画層１
  6
CONTINUOUS
 62
    7
 10
2.4990330219020791
 20
156.20826288072433
 11
1.457124688939814
 21
157.2501712136866
  0
LINE
  8
_0-1_作画層１
  6
CONTINUOUS
 62
    7
 10
2.4990330219020791
 20
156.34968423696165
 11
1.5985460451771303
 21
157.2501712136866
  0
LINE
  8
_0-1_作画層１
  6
CONTINUOUS
 62
    7
 10
2.4990330219020791
 20
156.49110559319894
 11
1.7399674014144466
 21
157.2501712136866
  0
LINE
  8
_0-1_作画層１
  6
CONTINUOUS
 62
    7
 10
2.4990330219020791
 20
156.63252694943623
 11
1.8813887576517345
 21
157.2501712136866
  0
LINE
  8
_0-1_作画層１
  6
CONTINUOUS
 62
    7
 10
2.4990330219020791
 20
156.77394830567354
 11
2.0228101138890224
 21
157.2501712136866
  0
LINE
  8
_0-1_作画層１
  6
CONTINUOUS
 62
    7
 10
2.4990330219020791
 20
156.91536966191086
 11
2.1642314701263388
 21
157.2501712136866
  0
LINE
  8
_0-1_作画層１
  6
CONTINUOUS
 62
    7
 10
2.4990330219020791
 20
157.05679101814815
 11
2.3056528263636551
 21
157.2501712136866
  0
LINE
  8
_0-1_作画層１
  6
CONTINUOUS
 62
    7
 10
2.4990330219020791
 20
157.19821237438543
 11
2.447074182600943
 21
157.2501712136866
  0
LINE
  8
_0-1_作画層１
  6
CONTINUOUS
 62
    7
 10
-16.25
 20
126.25
 11
47.75
 21
126.25
  0
CIRCLE
  8
_0-1_作画層１
  6
CONTINUOUS
 62
    7
 10
34.75
 20
145.25
 40
1.25
  0
LINE
  8
_0-1_作画層１
  6
CONTINUOUS
 62
    7
 10
-6.25
 20
129.25
 11
37.749999999999986
 21
129.25
  0
LINE
  8
_0-1_作画層１
  6
CONTINUOUS
 62
    7
 10
-6.25
 20
195.25
 11
-6.25
 21
129.25
  0
LINE
  8
_0-1_作画層１
  6
CONTINUOUS
 62
    7
 10
37.75
 20
195.25
 11
-6.25
 21
195.25
  0
ARC
  8
_0-1_作画層１
  6
CONTINUOUS
 62
    7
 10
-6.75
 20
195.25
 40
0.9999999999999853
 50
89.99999999999919
 51
180
  0
LINE
  8
_0-1_作画層１
  6
CONTINUOUS
 62
    7
 10
-6.75
 20
196.25
 11
38.25
 21
196.25
  0
ARC
  8
_0-1_作画層１
  6
CONTINUOUS
 62
    7
 10
38.250000000000014
 20
195.25000000000003
 40
0.9999999999999712
 50
359.99999999999835
 51
90.00000000000081
  0
LINE
  8
_0-1_作画層１
  6
CONTINUOUS
 62
    7
 10
39.25
 20
195.25
 11
39.25
 21
129.25
  0
ARC
  8
_0-1_作画層１
  6
CONTINUOUS
 62
    7
 10
38.250000000000014
 20
129.24999999999997
 40
0.9999999999999853
 50
269.9999999999992
 51
0.0000000000016284
  0
LINE
  8
_0-1_作画層１
  6
CONTINUOUS
 62
    7
 10
38.25
 20
128.25
 11
-6.75
 21
128.25
  0
LINE
  8
_0-1_作画層１
  6
CONTINUOUS
 62
    7
 10
-7.75
 20
195.25
 11
-7.75
 21
129.25
  0
ARC
  8
_0-1_作画層１
  6
CONTINUOUS
 62
    7
 10
-6.7500000000000284
 20
129.25
 40
1
 50
180
 51
270.0000000000008
  0
TEXT
  8
_0-7_注記層１
 62
    7
 10
-2.1999999999999886
 20
165
 40
2.6000000000000001
 41
1
 50
0
  1
SUN
  0
TEXT
  8
_0-7_注記層１
 62
    7
 10
3.3000000000000114
 20
165
 40
2.6000000000000001
 41
1
 50
0
  1
MON
  0
TEXT
  8
_0-7_注記層１
 62
    7
 10
8.8000000000000114
 20
165
 40
2.6000000000000001
 41
1
 50
0
  1
TUE
  0
TEXT
  8
_0-7_注記層１
 62
    7
 10
14.050000000000011
 20
165
 40
2.6000000000000001
 41
1
 50
0
  1
WED
  0
TEXT
  8
_0-7_注記層１
 62
    7
 10
19.300000000000011
 20
165
 40
2.6000000000000001
 41
1
 50
0
  1
THU
  0
TEXT
  8
_0-7_注記層１
 62
    7
 10
24.299999999999997
 20
165
 40
2.6000000000000001
 41
1
 50
0
  1
FRI
  0
TEXT
  8
_0-7_注記層１
 62
    7
 10
29.549999999999997
 20
165
 40
2.6000000000000001
 41
1
 50
0
  1
SAT
  0
TEXT
  8
_0-7_注記層１
 62
    7
 10
-5.25
 20
137.5
 40
2.5
 41
1
 50
0
  1
AUTO
  0
TEXT
  8
_0-7_注記層１
 62
    7
 10
-5.25
 20
134.5
 40
2.5
 41
1
 50
0
  1
PROG
  0
TEXT
  8
_0-7_注記層１
 62
    7
 10
-5.25
 20
140.5
 40
2.5
 41
1
 50
0
  1
TIME
  0
TEXT
  8
_0-7_注記層１
 62
    7
 10
-4.625
 20
148.75
 40
2.5
 41
1
 50
0
  1
SUNAO
  0
TEXT
  8
_0-7_注記層１
 62
    7
 10
-4.5
 20
145
 40
2.5
 41
1
 50
0
  1
SSC-502P
  0
TEXT
  8
_0-7_注記層１
 62
    7
 10
7.8499999999999943
 20
147.5
 40
2.6000000000000001
 41
1
 50
0
  1
H
  0
TEXT
  8
_0-7_注記層１
 62
    7
 10
15.349999999999994
 20
147.5
 40
2.6000000000000001
 41
1
 50
0
  1
M
  0
TEXT
  8
_0-7_注記層１
 62
    7
 10
21.049999999999997
 20
147.5
 40
2.6000000000000001
 41
1
 50
0
  1
SET
  0
TEXT
  8
_0-7_注記層１
 62
    7
 10
32.25
 20
137.25
 40
2.5
 41
1
 50
0
  1
AUTO
  0
TEXT
  8
_0-7_注記層１
 62
    7
 10
32.09375
 20
134.25
 40
2.5
 41
0.8499999999999998
 50
0
  1
O F F
  0
TEXT
  8
_0-7_注記層１
 62
    7
 10
32.25
 20
140.25
 40
2.5
 41
1
 50
0
  1
O  N
  0
TEXT
  8
_0-7_注記層１
 62
    7
 10
34.4375
 20
147.5
 40
2.5
 41
1
 50
0
  1
R
  0
TEXT
  8
_0-7_注記層１
 62
    7
 10
5.9000000000000057
 20
132.5
 40
2.6000000000000001
 41
1
 50
0
  1
WEEK
  0
TEXT
  8
_0-7_注記層１
 62
    7
 10
14.699999999999989
 20
132.5
 40
2.6000000000000001
 41
1
 50
0
  1
MV
  0
TEXT
  8
_0-7_注記層１
 62
    7
 10
22.349999999999994
 20
132.5
 40
2.6000000000000001
 41
1
 50
0
  1
C
  0
TEXT
  8
_0-7_注記層１
 62
    7
 10
-17.75
 20
221.25
 40
5
 41
1
 50
0
  1
外形寸法
  0
LINE
  8
_0-1_作画層１
  6
CONTINUOUS
 62
    7
 10
-20.25
 20
221.25
 11
4.75
 21
221.25
  0
LINE
  8
_0-1_作画層１
  6
CONTINUOUS
 62
    7
 10
272.25
 20
8.75
 11
340.25
 21
8.75
  0
LINE
  8
_0-1_作画層１
  6
CONTINUOUS
 62
    7
 10
340.25
 20
8.75
 11
340.25
 21
76.75
  0
LINE
  8
_0-1_作画層１
  6
CONTINUOUS
 62
    7
 10
340.25
 20
76.75
 11
272.25
 21
76.75
  0
LINE
  8
_0-1_作画層１
  6
CONTINUOUS
 62
    7
 10
272.25
 20
76.75
 11
272.25
 21
8.75
  0
LINE
  8
_0-1_作画層１
  6
CONTINUOUS
 62
    7
 10
340.25
 20
71.963203435596427
 11
335.46320343559643
 21
76.75
  0
LINE
  8
_0-1_作画層１
  6
CONTINUOUS
 62
    7
 10
340.25
 20
64.892135623730894
 11
328.39213562373089
 21
76.75
  0
LINE
  8
_0-1_作画層１
  6
CONTINUOUS
 62
    7
 10
340.25
 20
57.821067811865419
 11
321.32106781186542
 21
76.75
  0
LINE
  8
_0-1_作画層１
  6
CONTINUOUS
 62
    7
 10
340.25
 20
50.749999999999886
 11
314.24999999999989
 21
76.75
  0
LINE
  8
_0-1_作画層１
  6
CONTINUOUS
 62
    7
 10
340.25
 20
43.678932188134354
 11
307.17893218813441
 21
76.75
  0
LINE
  8
_0-1_作画層１
  6
CONTINUOUS
 62
    7
 10
340.25
 20
36.607864376268878
 11
300.10786437626888
 21
76.75
  0
LINE
  8
_0-1_作画層１
  6
CONTINUOUS
 62
    7
 10
340.25
 20
29.536796564403346
 11
293.0367965644034
 21
76.75
  0
LINE
  8
_0-1_作画層１
  6
CONTINUOUS
 62
    7
 10
340.25
 20
22.465728752537871
 11
285.96572875253787
 21
76.75
  0
LINE
  8
_0-1_作画層１
  6
CONTINUOUS
 62
    7
 10
340.25
 20
15.394660940672338
 11
278.8946609406724
 21
76.75
  0
LINE
  8
_0-1_作画層１
  6
CONTINUOUS
 62
    7
 10
339.82359312880686
 20
8.75
 11
272.25
 21
76.323593128806863
  0
LINE
  8
_0-1_作画層１
  6
CONTINUOUS
 62
    7
 10
332.75252531694133
 20
8.75
 11
272.25
 21
69.252525316941387
  0
LINE
  8
_0-1_作画層１
  6
CONTINUOUS
 62
    7
 10
325.68145750507585
 20
8.75
 11
272.25
 21
62.181457505075855
  0
LINE
  8
_0-1_作画層１
  6
CONTINUOUS
 62
    7
 10
318.61038969321038
 20
8.75
 11
272.25
 21
55.110389693210379
  0
LINE
  8
_0-1_作画層１
  6
CONTINUOUS
 62
    7
 10
311.53932188134485
 20
8.75
 11
272.25
 21
48.039321881344847
  0
LINE
  8
_0-1_作画層１
  6
CONTINUOUS
 62
    7
 10
304.46825406947937
 20
8.75
 11
272.25
 21
40.968254069479372
  0
LINE
  8
_0-1_作画層１
  6
CONTINUOUS
 62
    7
 10
297.39718625761384
 20
8.75
 11
272.25
 21
33.897186257613839
  0
LINE
  8
_0-1_作画層１
  6
CONTINUOUS
 62
    7
 10
290.32611844574836
 20
8.75
 11
272.25
 21
26.826118445748364
  0
LINE
  8
_0-1_作画層１
  6
CONTINUOUS
 62
    7
 10
283.25505063388283
 20
8.75
 11
272.25
 21
19.755050633882831
  0
LINE
  8
_0-1_作画層１
  6
CONTINUOUS
 62
    7
 10
272.25
 20
12.683982822017299
 11
276.1839828220173
 21
8.75
  0
TEXT
  8
_0-7_注記層１
 62
    7
 10
284.75
 20
-1.25
 40
5
 41
1
 50
0
  1
パネルカット寸法
  0
LINE
  8
_0-1_作画層１
  6
CONTINUOUS
 62
    7
 10
282.25
 20
-1.25
 11
327.25
 21
-1.25
  0
TEXT
  8
_0-7_注記層１
 62
    7
 10
209.75
 20
219.5
 40
3.5
 41
1
 50
0
  1
型　　 　番
  0
TEXT
  8
_0-7_注記層１
 62
    7
 10
209.75
 20
209.5
 40
3.5
 41
1
 50
0
  1
許容電圧変動範囲
  0
TEXT
  8
_0-7_注記層１
 62
    7
 10
209.75
 20
204.5
 40
3.5
 41
1
 50
0
  1
周　　波　　数
  0
TEXT
  8
_0-7_注記層１
 62
    7
 10
209.75
 20
199.5
 40
3.5
 41
1
 50
0
  1
停　電　補　償
  0
TEXT
  8
_0-7_注記層１
 62
    7
 10
209.75
 20
214.5
 40
3.5
 41
1
 50
0
  1
電  源  電  圧
  0
TEXT
  8
_0-7_注記層１
 62
    7
 10
244.75
 20
219.5
 40
3.5
 41
1
 50
0
  1
SSC-502P
  0
TEXT
  8
_0-7_注記層１
 62
    7
 10
244.75
 20
209.5
 40
3.5
 41
1
 50
0
  1
AC85V-AC230V
  0
TEXT
  8
_0-7_注記層１
 62
    7
 10
244.75
 20
199.5
 40
3.5
 41
1
 50
0
  1
累積5年間（リチウム電池使用）
  0
TEXT
  8
_0-7_注記層１
 62
    7
 10
207.25
 20
228.75
 40
5
 41
1
 50
0
  1
規　格
  0
LINE
  8
_0-1_作画層１
  6
CONTINUOUS
 62
    7
 10
204.75
 20
228.75
 11
224.75
 21
228.75
  0
ARC
  8
_0-1_作画層１
  6
CONTINUOUS
 62
    7
 10
239.75
 20
77.250000000000014
 40
0.9999999999999853
 50
359.9999999999992
 51
89.999999999999986
  0
ARC
  8
_0-1_作画層１
  6
CONTINUOUS
 62
    7
 10
250.75
 20
66.250000000000014
 40
0.9999999999999853
 50
359.9999999999992
 51
89.999999999999986
  0
LINE
  8
_0-1_作画層１
  6
CONTINUOUS
 62
    7
 10
240.75
 20
77.25
 11
240.75
 21
70.25
  0
LINE
  8
_0-1_作画層１
  6
CONTINUOUS
 62
    7
 10
250.75
 20
67.25
 11
243.75
 21
67.25
  0
ARC
  8
_0-1_作画層１
  6
CONTINUOUS
 62
    7
 10
243.75
 20
70.249999999999986
 40
3
 50
179.99999999999974
 51
270
  0
CIRCLE
  8
_0-1_作画層１
  6
CONTINUOUS
 62
    7
 10
244.74999999999994
 20
71.249999999999986
 40
2.8929999999999998
  0
LINE
  8
_0-1_作画層１
  6
CONTINUOUS
 62
    7
 10
244.06249999999994
 20
73.656249999999986
 11
245.43749999999994
 21
73.656249999999986
  0
LINE
  8
_0-1_作画層１
  6
CONTINUOUS
 62
    7
 10
245.43749999999994
 20
68.843749999999986
 11
244.06249999999994
 21
68.843749999999986
  0
LINE
  8
_0-1_作画層１
  6
CONTINUOUS
 62
    7
 10
247.15624999999994
 20
71.937499999999986
 11
247.15624999999994
 21
70.562499999999986
  0
LINE
  8
_0-1_作画層１
  6
CONTINUOUS
 62
    7
 10
242.34374999999994
 20
70.562499999999986
 11
242.34374999999994
 21
71.937499999999986
  0
ARC
  8
_0-1_作画層１
  6
CONTINUOUS
 62
    7
 10
243.51249999999999
 20
72.487499999999912
 40
0.5499999999999545
 50
270
 51
0.0000000000073916
  0
LINE
  8
_0-1_作画層１
  6
CONTINUOUS
 62
    7
 10
242.34374999999994
 20
70.562499999999986
 11
243.51249999999999
 21
70.562499999999986
  0
ARC
  8
_0-1_作画層１
  6
CONTINUOUS
 62
    7
 10
243.51249999999999
 20
70.01250000000006
 40
0.5499999999999261
 50
359.99999999999261
 51
90.000000000000014
  0
LINE
  8
_0-1_作画層１
  6
CONTINUOUS
 62
    7
 10
247.15624999999994
 20
71.937499999999986
 11
245.98749999999995
 21
71.937499999999986
  0
ARC
  8
_0-1_作画層１
  6
CONTINUOUS
 62
    7
 10
245.98749999999995
 20
72.487499999999997
 40
0.5500000000000111
 50
180.00000000000148
 51
270
  0
LINE
  8
_0-1_作画層１
  6
CONTINUOUS
 62
    7
 10
243.5125000699361
 20
71.937499999999986
 11
242.34374999999994
 21
71.937499999999986
  0
LINE
  8
_0-1_作画層１
  6
CONTINUOUS
 62
    7
 10
247.15624999999994
 20
70.562499999999986
 11
245.98749999999995
 21
70.562499999999986
  0
LINE
  8
_0-1_作画層１
  6
CONTINUOUS
 62
    7
 10
245.43749999999994
 20
68.843749999999986
 11
245.43749999999994
 21
70.012499999999989
  0
ARC
  8
_0-1_作画層１
  6
CONTINUOUS
 62
    7
 10
245.98749999999995
 20
70.012499999999974
 40
0.5500000000000111
 50
90
 51
179.99999999999852
  0
LINE
  8
_0-1_作画層１
  6
CONTINUOUS
 62
    7
 10
244.06249999999994
 20
72.487499999999983
 11
244.06249999999994
 21
73.656249999999986
  0
LINE
  8
_0-1_作画層１
  6
CONTINUOUS
 62
    7
 10
244.06249999999994
 20
70.012499999999989
 11
244.06249999999994
 21
68.843749999999986
  0
LINE
  8
_0-1_作画層１
  6
CONTINUOUS
 62
    7
 10
245.43749999999994
 20
72.487499999999983
 11
245.43749999999994
 21
73.656249999999986
  0
CIRCLE
  8
_0-1_作画層１
  6
CONTINUOUS
 62
    7
 10
190.74999999999994
 20
17.249999999999986
 40
2.8929999999999998
  0
LINE
  8
_0-1_作画層１
  6
CONTINUOUS
 62
    7
 10
190.06249999999994
 20
19.656249999999986
 11
191.43749999999994
 21
19.656249999999986
  0
LINE
  8
_0-1_作画層１
  6
CONTINUOUS
 62
    7
 10
191.43749999999994
 20
14.843749999999986
 11
190.06249999999994
 21
14.843749999999986
  0
LINE
  8
_0-1_作画層１
  6
CONTINUOUS
 62
    7
 10
193.15624999999994
 20
17.937499999999986
 11
193.15624999999994
 21
16.562499999999986
  0
LINE
  8
_0-1_作画層１
  6
CONTINUOUS
 62
    7
 10
188.34374999999994
 20
16.562499999999986
 11
188.34374999999994
 21
17.937499999999986
  0
ARC
  8
_0-1_作画層１
  6
CONTINUOUS
 62
    7
 10
189.51250000000002
 20
18.487499999999912
 40
0.5499999999999261
 50
269.99999999999704
 51
0.0000000000074043
  0
LINE
  8
_0-1_作画層１
  6
CONTINUOUS
 62
    7
 10
188.34374999999994
 20
16.562499999999986
 11
189.51249999999999
 21
16.562499999999986
  0
ARC
  8
_0-1_作画層１
  6
CONTINUOUS
 62
    7
 10
189.51250000000002
 20
16.01250000000006
 40
0.5499999999999261
 50
359.99999999999261
 51
90.00000000000297
  0
LINE
  8
_0-1_作画層１
  6
CONTINUOUS
 62
    7
 10
193.15624999999994
 20
17.937499999999986
 11
191.98749999999995
 21
17.937499999999986
  0
ARC
  8
_0-1_作画層１
  6
CONTINUOUS
 62
    7
 10
191.98749999999995
 20
18.487500000000011
 40
0.5500000000000252
 50
180.00000000000293
 51
270
  0
LINE
  8
_0-1_作画層１
  6
CONTINUOUS
 62
    7
 10
189.5125000699361
 20
17.937499999999986
 11
188.34374999999994
 21
17.937499999999986
  0
LINE
  8
_0-1_作画層１
  6
CONTINUOUS
 62
    7
 10
193.15624999999994
 20
16.562499999999986
 11
191.98749999999995
 21
16.562499999999986
  0
LINE
  8
_0-1_作画層１
  6
CONTINUOUS
 62
    7
 10
191.43749999999994
 20
14.843749999999986
 11
191.43749999999994
 21
16.012499999999989
  0
ARC
  8
_0-1_作画層１
  6
CONTINUOUS
 62
    7
 10
191.98749999999995
 20
16.01249999999996
 40
0.5500000000000252
 50
90
 51
179.99999999999704
  0
LINE
  8
_0-1_作画層１
  6
CONTINUOUS
 62
    7
 10
190.06249999999994
 20
18.487499999999983
 11
190.06249999999994
 21
19.656249999999986
  0
LINE
  8
_0-1_作画層１
  6
CONTINUOUS
 62
    7
 10
190.06249999999994
 20
16.012499999999989
 11
190.06249999999994
 21
14.843749999999986
  0
LINE
  8
_0-1_作画層１
  6
CONTINUOUS
 62
    7
 10
191.43749999999994
 20
18.487499999999983
 11
191.43749999999994
 21
19.656249999999986
  0
ARC
  8
_0-1_作画層１
  6
CONTINUOUS
 62
    7
 10
185.94999999999999
 20
77.049999999999997
 40
1.2000000000000028
 50
90
 51
180
  0
ARC
  8
_0-1_作画層１
  6
CONTINUOUS
 62
    7
 10
250.55000000000007
 20
12.44999999999996
 40
1.1999999999999318
 50
269.99999999999721
 51
0.000000000001692
  0
LINE
  8
_0-1_作画層１
  6
CONTINUOUS
 62
    7
 10
184.75
 20
77.049999999999997
 11
184.75
 21
12.450000000000003
  0
LINE
  8
_0-1_作画層１
  6
CONTINUOUS
 62
    7
 10
250.55000000000001
 20
11.25
 11
185.94999999999999
 21
11.25
  0
ARC
  8
_0-1_作画層１
  6
CONTINUOUS
 62
    7
 10
185.95000000000002
 20
12.450000000000003
 40
1.2000000000000171
 50
180
 51
269.99999999999864
  0
LINE
  8
_0-1_作画層１
  6
CONTINUOUS
 62
    7
 10
185.94999999999999
 20
78.25
 11
250.55000000000001
 21
78.25
  0
LINE
  8
_0-1_作画層１
  6
CONTINUOUS
 62
    7
 10
251.75
 20
12.449999999999989
 11
251.75
 21
77.049999999999997
  0
ARC
  8
_0-1_作画層１
  6
CONTINUOUS
 62
    7
 10
250.55000000000001
 20
77.05000000000004
 40
1.1999999999999602
 50
359.99999999999801
 51
90.000000000000014
  0
LINE
  8
_0-1_作画層１
  6
CONTINUOUS
 62
    7
 10
184.75
 20
21.25
 11
191.75
 21
21.25
  0
LINE
  8
_0-1_作画層１
  6
CONTINUOUS
 62
    7
 10
194.75
 20
11.25
 11
194.75
 21
18.25
  0
ARC
  8
_0-1_作画層１
  6
CONTINUOUS
 62
    7
 10
191.75
 20
18.249999999999986
 40
3.0000000000000142
 50
0.0000000000002714
 51
90
  0
CIRCLE
  8
_0-1_作画層１
  6
CONTINUOUS
 62
    7
 10
203.8125
 20
18.75
 40
3.5
  0
LINE
  8
_0-1_作画層１
  6
CONTINUOUS
 62
    7
 10
202.9375
 20
21.8125
 11
204.6875
 21
21.8125
  0
LINE
  8
_0-1_作画層１
  6
CONTINUOUS
 62
    7
 10
204.6875
 20
15.6875
 11
202.9375
 21
15.6875
  0
LINE
  8
_0-1_作画層１
  6
CONTINUOUS
 62
    7
 10
206.875
 20
19.625
 11
206.875
 21
17.875
  0
LINE
  8
_0-1_作画層１
  6
CONTINUOUS
 62
    7
 10
200.75
 20
17.875
 11
200.75
 21
19.625
  0
ARC
  8
_0-1_作画層１
  6
CONTINUOUS
 62
    7
 10
202.23750000000001
 20
20.325000000000003
 40
0.6999999999999886
 50
270
 51
359.99999999999943
  0
LINE
  8
_0-1_作画層１
  6
CONTINUOUS
 62
    7
 10
200.75
 20
17.875
 11
202.23750000000001
 21
17.875
  0
ARC
  8
_0-1_作画層１
  6
CONTINUOUS
 62
    7
 10
202.23749999999995
 20
17.174999999999983
 40
0.700000000000017
 50
0.0000000000011632
 51
89.999999999995325
  0
LINE
  8
_0-1_作画層１
  6
CONTINUOUS
 62
    7
 10
206.875
 20
19.625
 11
205.38749999999999
 21
19.625
  0
ARC
  8
_0-1_作画層１
  6
CONTINUOUS
 62
    7
 10
205.38750000000005
 20
20.325000000000003
 40
0.7000000000000028
 50
180.00000000000063
 51
269.99999999999534
  0
LINE
  8
_0-1_作画層１
  6
CONTINUOUS
 62
    7
 10
202.23750008900964
 20
19.625
 11
200.75
 21
19.625
  0
LINE
  8
_0-1_作画層１
  6
CONTINUOUS
 62
    7
 10
206.875
 20
17.875
 11
205.38749999999999
 21
17.875
  0
LINE
  8
_0-1_作画層１
  6
CONTINUOUS
 62
    7
 10
204.6875
 20
15.6875
 11
204.6875
 21
17.174999999999997
  0
ARC
  8
_0-1_作画層１
  6
CONTINUOUS
 62
    7
 10
205.38750000000005
 20
17.174999999999983
 40
0.700000000000017
 50
90.000000000004661
 51
179.99999999999883
  0
LINE
  8
_0-1_作画層１
  6
CONTINUOUS
 62
    7
 10
202.9375
 20
20.324999999999989
 11
202.9375
 21
21.8125
  0
LINE
  8
_0-1_作画層１
  6
CONTINUOUS
 62
    7
 10
202.9375
 20
17.175000000000011
 11
202.9375
 21
15.6875
  0
LINE
  8
_0-1_作画層１
  6
CONTINUOUS
 62
    7
 10
204.6875
 20
20.324999999999989
 11
204.6875
 21
21.8125
  0
CIRCLE
  8
_0-1_作画層１
  6
CONTINUOUS
 62
    7
 10
213.39999999999998
 20
18.75
 40
3.5
  0
LINE
  8
_0-1_作画層１
  6
CONTINUOUS
 62
    7
 10
212.52499999999998
 20
21.8125
 11
214.27499999999998
 21
21.8125
  0
LINE
  8
_0-1_作画層１
  6
CONTINUOUS
 62
    7
 10
214.27499999999998
 20
15.6875
 11
212.52499999999998
 21
15.6875
  0
LINE
  8
_0-1_作画層１
  6
CONTINUOUS
 62
    7
 10
216.46249999999998
 20
19.625
 11
216.46249999999998
 21
17.875
  0
LINE
  8
_0-1_作画層１
  6
CONTINUOUS
 62
    7
 10
210.33749999999998
 20
17.875
 11
210.33749999999998
 21
19.625
  0
ARC
  8
_0-1_作画層１
  6
CONTINUOUS
 62
    7
 10
211.82499999999999
 20
20.325000000000003
 40
0.6999999999999886
 50
270
 51
359.99999999999943
  0
LINE
  8
_0-1_作画層１
  6
CONTINUOUS
 62
    7
 10
210.33749999999998
 20
17.875
 11
211.82499999999999
 21
17.875
  0
ARC
  8
_0-1_作画層１
  6
CONTINUOUS
 62
    7
 10
211.82499999999993
 20
17.174999999999983
 40
0.700000000000017
 50
0.0000000000011632
 51
89.999999999995325
  0
LINE
  8
_0-1_作画層１
  6
CONTINUOUS
 62
    7
 10
216.46249999999998
 20
19.625
 11
214.97499999999997
 21
19.625
  0
ARC
  8
_0-1_作画層１
  6
CONTINUOUS
 62
    7
 10
214.97500000000002
 20
20.325000000000003
 40
0.7000000000000028
 50
180.00000000000063
 51
269.99999999999534
  0
LINE
  8
_0-1_作画層１
  6
CONTINUOUS
 62
    7
 10
211.82500008900962
 20
19.625
 11
210.33749999999998
 21
19.625
  0
LINE
  8
_0-1_作画層１
  6
CONTINUOUS
 62
    7
 10
216.46249999999998
 20
17.875
 11
214.97499999999997
 21
17.875
  0
LINE
  8
_0-1_作画層１
  6
CONTINUOUS
 62
    7
 10
214.27499999999998
 20
15.6875
 11
214.27499999999998
 21
17.174999999999997
  0
ARC
  8
_0-1_作画層１
  6
CONTINUOUS
 62
    7
 10
214.97500000000002
 20
17.174999999999983
 40
0.700000000000017
 50
90.000000000004661
 51
179.99999999999883
  0
LINE
  8
_0-1_作画層１
  6
CONTINUOUS
 62
    7
 10
212.52499999999998
 20
20.324999999999989
 11
212.52499999999998
 21
21.8125
  0
LINE
  8
_0-1_作画層１
  6
CONTINUOUS
 62
    7
 10
212.52499999999998
 20
17.175000000000011
 11
212.52499999999998
 21
15.6875
  0
LINE
  8
_0-1_作画層１
  6
CONTINUOUS
 62
    7
 10
214.27499999999998
 20
20.324999999999989
 11
214.27499999999998
 21
21.8125
  0
CIRCLE
  8
_0-1_作画層１
  6
CONTINUOUS
 62
    7
 10
222.98749999999995
 20
18.75
 40
3.5
  0
LINE
  8
_0-1_作画層１
  6
CONTINUOUS
 62
    7
 10
222.11249999999995
 20
21.8125
 11
223.86249999999995
 21
21.8125
  0
LINE
  8
_0-1_作画層１
  6
CONTINUOUS
 62
    7
 10
223.86249999999995
 20
15.6875
 11
222.11249999999995
 21
15.6875
  0
LINE
  8
_0-1_作画層１
  6
CONTINUOUS
 62
    7
 10
226.04999999999995
 20
19.625
 11
226.04999999999995
 21
17.875
  0
LINE
  8
_0-1_作画層１
  6
CONTINUOUS
 62
    7
 10
219.92499999999995
 20
17.875
 11
219.92499999999995
 21
19.625
  0
ARC
  8
_0-1_作画層１
  6
CONTINUOUS
 62
    7
 10
221.41249999999997
 20
20.325000000000003
 40
0.6999999999999886
 50
270
 51
359.99999999999943
  0
LINE
  8
_0-1_作画層１
  6
CONTINUOUS
 62
    7
 10
219.92499999999995
 20
17.875
 11
221.41249999999997
 21
17.875
  0
ARC
  8
_0-1_作画層１
  6
CONTINUOUS
 62
    7
 10
221.41249999999991
 20
17.174999999999983
 40
0.700000000000017
 50
0.0000000000011632
 51
89.999999999995325
  0
LINE
  8
_0-1_作画層１
  6
CONTINUOUS
 62
    7
 10
226.04999999999995
 20
19.625
 11
224.56249999999994
 21
19.625
  0
ARC
  8
_0-1_作画層１
  6
CONTINUOUS
 62
    7
 10
224.5625
 20
20.325000000000003
 40
0.7000000000000028
 50
180.00000000000063
 51
269.99999999999534
  0
LINE
  8
_0-1_作画層１
  6
CONTINUOUS
 62
    7
 10
221.4125000890096
 20
19.625
 11
219.92499999999995
 21
19.625
  0
LINE
  8
_0-1_作画層１
  6
CONTINUOUS
 62
    7
 10
226.04999999999995
 20
17.875
 11
224.56249999999994
 21
17.875
  0
LINE
  8
_0-1_作画層１
  6
CONTINUOUS
 62
    7
 10
223.86249999999995
 20
15.6875
 11
223.86249999999995
 21
17.174999999999997
  0
ARC
  8
_0-1_作画層１
  6
CONTINUOUS
 62
    7
 10
224.5625
 20
17.174999999999983
 40
0.700000000000017
 50
90.000000000004661
 51
179.99999999999883
  0
LINE
  8
_0-1_作画層１
  6
CONTINUOUS
 62
    7
 10
222.11249999999995
 20
20.324999999999989
 11
222.11249999999995
 21
21.8125
  0
LINE
  8
_0-1_作画層１
  6
CONTINUOUS
 62
    7
 10
222.11249999999995
 20
17.175000000000011
 11
222.11249999999995
 21
15.6875
  0
LINE
  8
_0-1_作画層１
  6
CONTINUOUS
 62
    7
 10
223.86249999999995
 20
20.324999999999989
 11
223.86249999999995
 21
21.8125
  0
CIRCLE
  8
_0-1_作画層１
  6
CONTINUOUS
 62
    7
 10
232.57499999999993
 20
18.75
 40
3.5
  0
LINE
  8
_0-1_作画層１
  6
CONTINUOUS
 62
    7
 10
231.69999999999993
 20
21.8125
 11
233.44999999999993
 21
21.8125
  0
LINE
  8
_0-1_作画層１
  6
CONTINUOUS
 62
    7
 10
233.44999999999993
 20
15.6875
 11
231.69999999999993
 21
15.6875
  0
LINE
  8
_0-1_作画層１
  6
CONTINUOUS
 62
    7
 10
235.63749999999993
 20
19.625
 11
235.63749999999993
 21
17.875
  0
LINE
  8
_0-1_作画層１
  6
CONTINUOUS
 62
    7
 10
229.51249999999993
 20
17.875
 11
229.51249999999993
 21
19.625
  0
ARC
  8
_0-1_作画層１
  6
CONTINUOUS
 62
    7
 10
230.99999999999994
 20
20.325000000000003
 40
0.6999999999999886
 50
270
 51
359.99999999999943
  0
LINE
  8
_0-1_作画層１
  6
CONTINUOUS
 62
    7
 10
229.51249999999993
 20
17.875
 11
230.99999999999994
 21
17.875
  0
ARC
  8
_0-1_作画層１
  6
CONTINUOUS
 62
    7
 10
230.99999999999989
 20
17.174999999999983
 40
0.700000000000017
 50
0.0000000000011632
 51
89.999999999995325
  0
LINE
  8
_0-1_作画層１
  6
CONTINUOUS
 62
    7
 10
235.63749999999993
 20
19.625
 11
234.14999999999992
 21
19.625
  0
ARC
  8
_0-1_作画層１
  6
CONTINUOUS
 62
    7
 10
234.14999999999998
 20
20.325000000000003
 40
0.7000000000000028
 50
180.00000000000063
 51
269.99999999999534
  0
LINE
  8
_0-1_作画層１
  6
CONTINUOUS
 62
    7
 10
231.00000008900957
 20
19.625
 11
229.51249999999993
 21
19.625
  0
LINE
  8
_0-1_作画層１
  6
CONTINUOUS
 62
    7
 10
235.63749999999993
 20
17.875
 11
234.14999999999992
 21
17.875
  0
LINE
  8
_0-1_作画層１
  6
CONTINUOUS
 62
    7
 10
233.44999999999993
 20
15.6875
 11
233.44999999999993
 21
17.174999999999997
  0
ARC
  8
_0-1_作画層１
  6
CONTINUOUS
 62
    7
 10
234.14999999999998
 20
17.174999999999983
 40
0.700000000000017
 50
90.000000000004661
 51
179.99999999999883
  0
LINE
  8
_0-1_作画層１
  6
CONTINUOUS
 62
    7
 10
231.69999999999993
 20
20.324999999999989
 11
231.69999999999993
 21
21.8125
  0
LINE
  8
_0-1_作画層１
  6
CONTINUOUS
 62
    7
 10
231.69999999999993
 20
17.175000000000011
 11
231.69999999999993
 21
15.6875
  0
LINE
  8
_0-1_作画層１
  6
CONTINUOUS
 62
    7
 10
233.44999999999993
 20
20.324999999999989
 11
233.44999999999993
 21
21.8125
  0
LINE
  8
_0-1_作画層１
  6
CONTINUOUS
 62
    7
 10
207.52499999999998
 20
12.5
 11
207.52499999999998
 21
26.25
  0
LINE
  8
_0-1_作画層１
  6
CONTINUOUS
 62
    7
 10
209.27499999999998
 20
12.5
 11
209.27499999999998
 21
26.25
  0
LINE
  8
_0-1_作画層１
  6
CONTINUOUS
 62
    7
 10
217.34194173824159
 20
12.5
 11
217.34194173824159
 21
26.25
  0
LINE
  8
_0-1_作画層１
  6
CONTINUOUS
 62
    7
 10
227.52499999999998
 20
12.5
 11
227.52499999999998
 21
26.25
  0
LINE
  8
_0-1_作画層１
  6
CONTINUOUS
 62
    7
 10
229.27499999999998
 20
12.5
 11
229.27499999999998
 21
26.25
  0
LINE
  8
_0-1_作画層１
  6
CONTINUOUS
 62
    7
 10
219.34098300562505
 20
12.5
 11
219.34098300562505
 21
26.25
  0
LINE
  8
_0-1_作画層１
  6
CONTINUOUS
 62
    7
 10
199.89999999999998
 20
11.25
 11
199.89999999999998
 21
26.25
  0
LINE
  8
_0-1_作画層１
  6
CONTINUOUS
 62
    7
 10
236.89999999999998
 20
11.25
 11
236.89999999999998
 21
26.25
  0
LINE
  8
_0-1_作画層１
  6
CONTINUOUS
 62
    7
 10
236.89999999999998
 20
26.25
 11
199.89999999999998
 21
26.25
  0
LINE
  8
_0-1_作画層１
  6
CONTINUOUS
 62
    7
 10
199.89999999999998
 20
12.5
 11
236.89999999999998
 21
12.5
  0
LINE
  8
_0-1_作画層１
  6
CONTINUOUS
 62
    7
 10
194.75
 20
28.75
 11
239.75
 21
28.75
  0
LINE
  8
_0-1_作画層１
  6
CONTINUOUS
 62
    7
 10
239.75
 20
28.75
 11
239.75
 21
63.75
  0
LINE
  8
_0-1_作画層１
  6
CONTINUOUS
 62
    7
 10
239.75
 20
63.75
 11
194.75
 21
63.75
  0
LINE
  8
_0-1_作画層１
  6
CONTINUOUS
 62
    7
 10
194.75
 20
63.75
 11
194.75
 21
28.75
  0
LINE
  8
_0-1_作画層１
  6
CONTINUOUS
 62
    7
 10
196
 20
55
 11
238.5
 21
55
  0
LINE
  8
_0-1_作画層１
  6
CONTINUOUS
 62
    7
 10
238.5
 20
55
 11
238.5
 21
46.25
  0
LINE
  8
_0-1_作画層１
  6
CONTINUOUS
 62
    7
 10
238.5
 20
46.25
 11
196
 21
46.25
  0
LINE
  8
_0-1_作画層１
  6
CONTINUOUS
 62
    7
 10
196
 20
46.25
 11
196
 21
55
  0
LINE
  8
_0-1_作画層１
  6
CONTINUOUS
 62
    7
 10
200.22334957055045
 20
50.625
 11
202.875
 21
53.276650429449546
  0
LINE
  8
_0-1_作画層１
  6
CONTINUOUS
 62
    7
 10
202.875
 20
53.276650429449546
 11
205.52665042944955
 21
50.625
  0
LINE
  8
_0-1_作画層１
  6
CONTINUOUS
 62
    7
 10
205.52665042944955
 20
50.625
 11
202.875
 21
47.973349570550454
  0
LINE
  8
_0-1_作画層１
  6
CONTINUOUS
 62
    7
 10
202.875
 20
47.973349570550454
 11
200.22334957055045
 21
50.625
  0
TEXT
  8
_0-7_注記層１
 62
    7
 10
201.92500000000001
 20
50.299999999999997
 40
1.8999999999999999
 41
1
 50
0
  1
PS
  0
TEXT
  8
_0-7_注記層１
 62
    7
 10
202.39999999999998
 20
48.399999999999991
 40
1.8999999999999999
 41
1
 50
0
  1
E
  0
TEXT
  8
_0-7_注記層１
 62
    7
 10
204.5
 20
47.125
 40
2
 41
1
 50
0
  1
JET
  0
CIRCLE
  8
_0-1_作画層１
  6
CONTINUOUS
 62
    7
 10
209.125
 20
35
 40
2.5
  0
ARC
  8
_0-1_作画層１
  6
CONTINUOUS
 62
    7
 10
208.34375
 20
34.920012766585543
 40
0.7853340181154121
 50
5.8457823547347809
 51
174.15421764526525
  0
ARC
  8
_0-1_作画層１
  6
CONTINUOUS
 62
    7
 10
209.90625
 20
35.079987233414485
 40
0.7853340181154151
 50
185.84578235473683
 51
354.1542176452632
  0
LINE
  8
_0-1_作画層１
  6
CONTINUOUS
 62
    7
 10
206.625
 20
35
 11
204.75
 21
35
  0
LINE
  8
_0-1_作画層１
  6
CONTINUOUS
 62
    7
 10
213.5
 20
35
 11
211.625
 21
35
  0
CIRCLE
  8
_0-1_作画層１
  6
CONTINUOUS
 62
    7
 10
204.75
 20
30.625
 40
0.8838834764831844
  0
CIRCLE
  8
_0-1_作画層１
  6
CONTINUOUS
 62
    7
 10
213.5
 20
30.625
 40
0.8838834764831844
  0
LINE
  8
_0-1_作画層１
  6
CONTINUOUS
 62
    7
 10
204.75
 20
31.508883476483192
 11
204.75
 21
35
  0
LINE
  8
_0-1_作画層１
  6
CONTINUOUS
 62
    7
 10
213.5
 20
31.508883476483192
 11
213.5
 21
35
  0
CIRCLE
  8
_0-1_作画層１
  6
CONTINUOUS
 62
    7
 10
225.375
 20
35
 40
0.625
  0
CIRCLE
  8
_0-1_作画層１
  6
CONTINUOUS
 62
    7
 10
230.375
 20
35
 40
0.625
  0
LINE
  8
_0-1_作画層１
  6
CONTINUOUS
 62
    7
 10
224.75
 20
35
 11
223.5
 21
35
  0
LINE
  8
_0-1_作画層１
  6
CONTINUOUS
 62
    7
 10
231
 20
35
 11
232.25
 21
35
  0
CIRCLE
  8
_0-1_作画層１
  6
CONTINUOUS
 62
    7
 10
223.5
 20
30.625
 40
0.8838834764831844
  0
CIRCLE
  8
_0-1_作画層１
  6
CONTINUOUS
 62
    7
 10
232.25
 20
30.625
 40
0.8838834764831844
  0
LINE
  8
_0-1_作画層１
  6
CONTINUOUS
 62
    7
 10
223.5
 20
31.508883476483192
 11
223.5
 21
35
  0
LINE
  8
_0-1_作画層１
  6
CONTINUOUS
 62
    7
 10
232.25
 20
31.508883476483192
 11
232.25
 21
35
  0
TEXT
  8
_0-7_注記層１
 62
    7
 10
225.875
 20
38.375
 40
2
 41
1
 50
0
  1
負荷
  0
ARC
  8
_0-1_作画層１
  6
CONTINUOUS
 62
    7
 10
-3.1500000000000341
 20
191.25000000000003
 40
0.9999999999999712
 50
89.999999999998778
 51
180.00000000000162
  0
LINE
  8
_0-1_作画層１
  6
CONTINUOUS
 62
    7
 10
-4.1500000000000057
 20
191.25
 11
-4.1500000000000057
 21
171.25
  0
ARC
  8
_0-1_作画層１
  6
CONTINUOUS
 62
    7
 10
-3.1500000000000341
 20
171.25
 40
0.9999999999999853
 50
180
 51
270.00000000000119
  0
LINE
  8
_0-1_作画層１
  6
CONTINUOUS
 62
    7
 10
-3.1500000000000057
 20
192.25
 11
35.100000000000009
 21
192.25
  0
LINE
  8
_0-1_作画層１
  6
CONTINUOUS
 62
    7
 10
35.100000000000009
 20
170.25
 11
-3.1500000000000057
 21
170.25
  0
ARC
  8
_0-1_作画層１
  6
CONTINUOUS
 62
    7
 10
35.100000000000037
 20
191.25000000000006
 40
0.9999999999999571
 50
359.99999999999676
 51
90.000000000001634
  0
ARC
  8
_0-1_作画層１
  6
CONTINUOUS
 62
    7
 10
35.100000000000023
 20
171.24999999999997
 40
0.9999999999999712
 50
269.9999999999992
 51
0.0000000000016284
  0
LINE
  8
_0-1_作画層１
  6
CONTINUOUS
 62
    7
 10
37.75
 20
195.25
 11
37.749999999999986
 21
129.25
  0
LINE
  8
_0-1_作画層１
  6
CONTINUOUS
 62
    7
 10
36.100000000000009
 20
191.25
 11
36.100000000000009
 21
171.25
  0
TEXT
  8
_0-7_注記層１
 62
    7
 10
239.625
 20
-15.5
 40
3.5
 41
1
 50
0
  1
1/1
  0
TEXT
  8
_0-7_注記層１
 62
    7
 10
273.75
 20
-13
 40
3.5
 41
1
 50
0
  1
承認
  0
TEXT
  8
_0-7_注記層１
 62
    7
 10
212.25
 20
-26.25
 40
5
 41
1
 50
0
  1
スナオ電気株式会社
  0
LINE
  8
_0-1_作画層１
  6
CONTINUOUS
 62
    7
 10
207.25
 20
-8.75
 11
207.25
 21
-28.75
  0
LINE
  8
_0-1_作画層１
  6
CONTINUOUS
 62
    7
 10
232.25
 20
-8.75
 11
232.25
 21
-18.75
  0
LINE
  8
_0-1_作画層１
  6
CONTINUOUS
 62
    7
 10
252.25
 20
-8.75
 11
252.25
 21
-18.75
  0
LINE
  8
_0-1_作画層１
  6
CONTINUOUS
 62
    7
 10
272.25
 20
-8.75
 11
272.25
 21
-18.75
  0
LINE
  8
_0-1_作画層１
  6
CONTINUOUS
 62
    7
 10
297.25
 20
-28.75
 11
297.25
 21
-8.75
  0
LINE
  8
_0-1_作画層１
  6
CONTINUOUS
 62
    7
 10
352.25
 20
248.75
 11
-45.25
 21
248.75
  0
LINE
  8
_0-1_作画層１
  6
CONTINUOUS
 62
    7
 10
-45.25
 20
-28.75
 11
-45.25
 21
248.75
  0
LINE
  8
_0-1_作画層１
  6
CONTINUOUS
 62
    7
 10
352.25
 20
-28.75
 11
-45.25
 21
-28.75
  0
LINE
  8
_0-1_作画層１
  6
CONTINUOUS
 62
    7
 10
352.25
 20
-8.75
 11
207.25
 21
-8.75
  0
LINE
  8
_0-1_作画層１
  6
CONTINUOUS
 62
    7
 10
352.25
 20
-18.75
 11
207.25
 21
-18.75
  0
LINE
  8
_0-1_作画層１
  6
CONTINUOUS
 62
    7
 10
352.25
 20
-28.75
 11
352.25
 21
248.75
  0
TEXT
  8
_0-7_注記層１
 62
    7
 10
302.25
 20
-15.5
 40
3.5
 41
1
 50
0
  1
カレンダータイマー
  0
TEXT
  8
_0-7_注記層１
 62
    7
 10
257
 20
-15.5
 40
3.5
 41
1
 50
0
  1
ゴトウ
  0
TEXT
  8
_0-7_注記層１
 62
    7
 10
196
 20
60.099999999999994
 40
2.2999999999999998
 41
1
 50
0
  1
カレンダータイマー　　　SSC-502P
  0
TEXT
  8
_0-7_注記層１
 62
    7
 10
196
 20
57.799999999999997
 40
2.2999999999999998
 41
1
 50
0
  1
操作電圧　　AC100～200V  50/60Hz共用
  0
TEXT
  8
_0-7_注記層１
 62
    7
 10
196.625
 20
42.599999999999994
 40
2.2999999999999998
 41
1
 50
0
  1
製造年月
  0
TEXT
  8
_0-7_注記層１
 62
    7
 10
206.82499999999999
 20
38.224999999999994
 40
2.2999999999999998
 41
1
 50
0
  1
電源
  0
TEXT
  8
_0-7_注記層１
 62
    7
 10
209.75
 20
194.5
 40
3.5
 41
1
 50
0
  1
使 用 周 囲 温 度
  0
TEXT
  8
_0-7_注記層１
 62
    7
 10
209.75
 20
189.5
 40
3.5
 41
1
 50
0
  1
使 用 周 囲 湿 度
  0
TEXT
  8
_0-7_注記層１
 62
    7
 10
209.75
 20
184.5
 40
3.5
 41
1
 50
0
  1
接　点　定　格
  0
TEXT
  8
_0-7_注記層１
 62
    7
 10
209.75
 20
179.5
 40
3.5
 41
1
 50
0
  1
出　　　　　力
  0
TEXT
  8
_0-7_注記層１
 62
    7
 10
209.75
 20
174.5
 40
3.5
 41
1
 50
0
  1
設　定　回　数
  0
TEXT
  8
_0-7_注記層１
 62
    7
 10
209.75
 20
169.5
 40
3.5
 41
1
 50
0
  1
最 小 設 定 時 間
  0
TEXT
  8
_0-7_注記層１
 62
    7
 10
209.75
 20
164.5
 40
3.5
 41
1
 50
0
  1
時　間　精　度
  0
TEXT
  8
_0-7_注記層１
 62
    7
 10
209.75
 20
159.5
 40
3.5
 41
1
 50
0
  1
消　費　電　力　
  0
TEXT
  8
_0-7_注記層１
 62
    7
 10
209.75
 20
154.5
 40
3.5
 41
1
 50
0
  1
重　　　  　量
  0
TEXT
  8
_0-7_注記層１
 62
    7
 10
209.75
 20
149.5
 40
3.5
 41
1
 50
0
  1
外　形　寸　法
  0
TEXT
  8
_0-7_注記層１
 62
    7
 10
209.75
 20
144.5
 40
3.5
 41
1
 50
0
  1
パ　ル　ス　幅
  0
TEXT
  8
_0-7_注記層１
 62
    7
 10
244.75
 20
194.5
 40
3.5
 41
1
 50
0
  1
-10℃～50℃
  0
TEXT
  8
_0-7_注記層１
 62
    7
 10
244.75
 20
179.5
 40
3.5
 41
1
 50
0
  1
接点出力（1a）
  0
TEXT
  8
_0-7_注記層１
 62
    7
 10
244.75
 20
169.5
 40
3.5
 41
1
 50
0
  1
1分又は、1秒
  0
TEXT
  8
_0-7_注記層１
 62
    7
 10
244.75
 20
164.5
 40
3.5
 41
1
 50
0
  1
±15秒／月（25℃）
  0
TEXT
  8
_0-7_注記層１
 62
    7
 10
244.75
 20
144.5
 40
3.5
 41
1
 50
0
  1
1～239秒
  0
INSERT
  2
-001-_D1
  8
_0-9_寸法線層１
 10
-55.25
 20
-38.75
 41
1
 42
1
 50
0
  0
LINE
  8
_0-1_作画層１
  6
CONTINUOUS
 62
    7
 10
90.75
 20
198.25
 11
90.75
 21
126.25
  0
LINE
  8
_0-1_作画層１
  6
CONTINUOUS
 62
    7
 10
90.75
 20
128.5
 11
137.25
 21
128.5
  0
LINE
  8
_0-1_作画層１
  6
CONTINUOUS
 62
    7
 10
90.750000000000028
 20
196
 11
137.25
 21
196
  0
LINE
  8
_0-1_作画層１
  6
CONTINUOUS
 62
    7
 10
87.75
 20
195.75
 11
80.25
 21
195.75
  0
ARC
  8
_0-1_作画層１
  6
CONTINUOUS
 62
    7
 10
80.249999999999972
 20
194.75000000000003
 40
0.9999999999999712
 50
89.99999999999838
 51
180.00000000000162
  0
LINE
  8
_0-1_作画層１
  6
CONTINUOUS
 62
    7
 10
87.75
 20
194.75
 11
80.25
 21
194.75
  0
LINE
  8
_0-1_作画層１
  6
CONTINUOUS
 62
    7
 10
87.75
 20
128.75
 11
80.25
 21
128.75
  0
ARC
  8
_0-1_作画層１
  6
CONTINUOUS
 62
    7
 10
80.249999999999972
 20
129.74999999999997
 40
0.9999999999999712
 50
179.99999999999838
 51
270.00000000000159
  0
LINE
  8
_0-1_作画層１
  6
CONTINUOUS
 62
    7
 10
87.75
 20
129.75
 11
80.25
 21
129.75
  0
LINE
  8
_0-1_作画層１
  6
CONTINUOUS
 62
    7
 10
79.25
 20
129.75
 11
79.25
 21
194.75
  0
LINE
  8
_0-1_作画層１
  6
CONTINUOUS
 62
    7
 10
80.25
 20
129.75
 11
80.25
 21
194.75
  0
LINE
  8
_0-1_作画層１
  6
CONTINUOUS
 62
    7
 10
90.75
 20
198.25
 11
88.75
 21
198.25
  0
ARC
  8
_0-1_作画層１
  6
CONTINUOUS
 62
    7
 10
88.749999999999972
 20
197.25000000000003
 40
0.9999999999999712
 50
89.99999999999838
 51
180.00000000000162
  0
LINE
  8
_0-1_作画層１
  6
CONTINUOUS
 62
    7
 10
87.75
 20
197.25
 11
87.75
 21
127.25
  0
LINE
  8
_0-1_作画層１
  6
CONTINUOUS
 62
    7
 10
90.75
 20
126.25
 11
88.75
 21
126.25
  0
ARC
  8
_0-1_作画層１
  6
CONTINUOUS
 62
    7
 10
88.749999999999972
 20
127.24999999999997
 40
0.9999999999999712
 50
179.99999999999838
 51
270.00000000000159
  0
ARC
  8
_0-1_作画層１
  6
CONTINUOUS
 62
    7
 10
136.75000000000003
 20
130.49999999999997
 40
1.9999999999999716
 50
269.9999999999992
 51
0.0000000000007887
  0
ARC
  8
_0-1_作画層１
  6
CONTINUOUS
 62
    7
 10
136.75000000000003
 20
194.00000000000003
 40
1.9999999999999716
 50
359.9999999999992
 51
90.000000000000782
  0
LINE
  8
_0-1_作画層１
  6
CONTINUOUS
 62
    7
 10
138.75
 20
194.00000000000003
 11
138.75
 21
130.5
  0
LINE
  8
_0-1_作画層１
  6
CONTINUOUS
 62
    7
 10
110.25
 20
172.25
 11
138.75
 21
172.25
  0
LINE
  8
_0-1_作画層１
  6
CONTINUOUS
 62
    7
 10
110.25
 20
152.25
 11
110.25
 21
172.25
  0
LINE
  8
_0-1_作画層１
  6
CONTINUOUS
 62
    7
 10
110.25
 20
152.25
 11
138.75
 21
152.25
  0
LINE
  8
_0-1_作画層１
  6
CONTINUOUS
 62
    7
 10
125.75
 20
172.25
 11
125.75
 21
152.25
  0
LINE
  8
_0-1_作画層１
  6
CONTINUOUS
 62
    7
 10
126.75
 20
172.25
 11
126.75
 21
152.25
  0
LINE
  8
_0-1_作画層１
  6
CONTINUOUS
 62
    7
 10
127.75
 20
172.25
 11
127.75
 21
152.25
  0
LINE
  8
_0-1_作画層１
  6
CONTINUOUS
 62
    7
 10
128.75
 20
172.25
 11
128.75
 21
152.25
  0
LINE
  8
_0-1_作画層１
  6
CONTINUOUS
 62
    7
 10
129.75
 20
172.25
 11
129.75
 21
152.25
  0
LINE
  8
_0-1_作画層１
  6
CONTINUOUS
 62
    7
 10
130.75
 20
172.25
 11
130.75
 21
152.25
  0
LINE
  8
_0-1_作画層１
  6
CONTINUOUS
 62
    7
 10
131.75
 20
172.25
 11
131.75
 21
152.25
  0
LINE
  8
_0-1_作画層１
  6
CONTINUOUS
 62
    7
 10
132.75
 20
172.25
 11
132.75
 21
152.25
  0
LINE
  8
_0-1_作画層１
  6
CONTINUOUS
 62
    7
 10
133.75
 20
172.25
 11
133.75
 21
152.25
  0
LINE
  8
_0-1_作画層１
  6
CONTINUOUS
 62
    7
 10
134.75
 20
172.25
 11
134.75
 21
152.25
  0
LINE
  8
_0-1_作画層１
  6
CONTINUOUS
 62
    7
 10
135.75
 20
172.25
 11
135.75
 21
152.25
  0
LINE
  8
_0-1_作画層１
  6
CONTINUOUS
 62
    7
 10
136.75
 20
172.25
 11
136.75
 21
152.25
  0
LINE
  8
_0-1_作画層１
  6
CONTINUOUS
 62
    7
 10
137.75
 20
172.25
 11
137.75
 21
152.25
  0
LINE
  8
_0-1_作画層１
  6
CONTINUOUS
 62
    7
 10
138.75
 20
172.25
 11
138.75
 21
152.25
  0
INSERT
  2
-002-_D2
  8
_0-9_寸法線層１
 10
-55.25
 20
-38.75
 41
1
 42
1
 50
0
  0
INSERT
  2
-003-_D3
  8
_0-9_寸法線層１
 10
-55.25
 20
-38.75
 41
1
 42
1
 50
0
  0
LINE
  8
_0-1_作画層１
  6
CONTINUOUS
 62
    7
 10
122.25
 20
135.125
 11
122.69999999999999
 21
135.125
  0
LINE
  8
_0-1_作画層１
  6
CONTINUOUS
 62
    7
 10
122.25
 20
135.125
 11
122.25
 21
131.375
  0
ARC
  8
_0-1_作画層１
  6
CONTINUOUS
 62
    7
 10
122.70000000000005
 20
134.32500000000005
 40
0.7999999999999545
 50
359.99999999999596
 51
90.000000000004107
  0
LINE
  8
_0-1_作画層１
  6
CONTINUOUS
 62
    7
 10
123.5
 20
134.32499999999999
 11
123.5
 21
132.17500000000001
  0
LINE
  8
_0-1_作画層１
  6
CONTINUOUS
 62
    7
 10
122.25
 20
131.375
 11
122.69999999999999
 21
131.375
  0
ARC
  8
_0-1_作画層１
  6
CONTINUOUS
 62
    7
 10
122.70000000000005
 20
132.17499999999995
 40
0.7999999999999545
 50
269.99999999999591
 51
0.0000000000041601
  0
LINE
  8
_0-1_作画層１
  6
CONTINUOUS
 62
    7
 10
122.25
 20
128.5
 11
122.25
 21
135.75
  0
LINE
  8
_0-1_作画層１
  6
CONTINUOUS
 62
    7
 10
122.25
 20
135.75
 11
138.75
 21
135.75
  0
LINE
  8
_0-1_作画層１
  6
CONTINUOUS
 62
    7
 10
122.25
 20
135.75
 11
122.25
 21
128.5
  0
INSERT
  2
-004-_D4
  8
_0-9_寸法線層１
 10
-55.25
 20
-38.75
 41
1
 42
1
 50
0
  0
LINE
  8
_0-1_作画層１
  6
CONTINUOUS
 62
    7
 10
41.749999999999886
 20
90.75
 11
-10.25
 21
90.75
  0
LINE
  8
_0-1_作画層１
  6
CONTINUOUS
 62
    7
 10
-7.75
 20
90.75
 11
-7.75
 21
98.25
  0
ARC
  8
_0-1_作画層１
  6
CONTINUOUS
 62
    7
 10
-6.75
 20
98.25
 40
1
 50
89.999999999999588
 51
180
  0
LINE
  8
_0-1_作画層１
  6
CONTINUOUS
 62
    7
 10
-6.75
 20
99.25
 11
38.25
 21
99.25
  0
LINE
  8
_0-1_作画層１
  6
CONTINUOUS
 62
    7
 10
39.25
 20
90.75
 11
39.25
 21
98.25
  0
ARC
  8
_0-1_作画層１
  6
CONTINUOUS
 62
    7
 10
38.250000000000014
 20
98.250000000000028
 40
0.9999999999999712
 50
359.99999999999835
 51
90.00000000000081
  0
LINE
  8
_0-1_作画層１
  6
CONTINUOUS
 62
    7
 10
38.25
 20
90.75
 11
38.25
 21
98.25
  0
LINE
  8
_0-1_作画層１
  6
CONTINUOUS
 62
    7
 10
-6.75
 20
90.75
 11
-6.75
 21
98.25
  0
LINE
  8
_0-1_作画層１
  6
CONTINUOUS
 62
    7
 10
38.25
 20
98.25
 11
-6.75
 21
98.25
  0
LINE
  8
_0-1_作画層１
  6
CONTINUOUS
 62
    7
 10
51.75
 20
87.75
 11
51.75
 21
88.75
  0
LINE
  8
_0-1_作画層１
  6
CONTINUOUS
 62
    7
 10
-10.25
 20
90.75
 11
-19.349503719021016
 21
89.840049628097916
  0
LINE
  8
_0-1_作画層１
  6
CONTINUOUS
 62
    7
 10
-20.25
 20
87.75
 11
-20.25
 21
88.845012437887902
  0
ARC
  8
_0-1_作画層１
  6
CONTINUOUS
 62
    7
 10
-19.249999999999943
 20
88.845012437887874
 40
1.000000000000058
 50
95.710593137502727
 51
179.99999999999838
  0
LINE
  8
_0-1_作画層１
  6
CONTINUOUS
 62
    7
 10
41.75
 20
90.75
 11
50.849503719021001
 21
89.840049628097887
  0
LINE
  8
_0-1_作画層１
  6
CONTINUOUS
 62
    7
 10
51.75
 20
87.75
 11
51.75
 21
88.845012437887902
  0
ARC
  8
_0-1_作画層１
  6
CONTINUOUS
 62
    7
 10
50.75
 20
88.845012437887931
 40
0.9999999999999813
 50
359.9999999999992
 51
84.289406862500115
  0
LINE
  8
_0-1_作画層１
  6
CONTINUOUS
 62
    7
 10
51.75
 20
87.75
 11
-20.25
 21
87.75
  0
LINE
  8
_0-1_作画層１
  6
CONTINUOUS
 62
    7
 10
-18
 20
87.75
 11
-18
 21
41.25
  0
ARC
  8
_0-1_作画層１
  6
CONTINUOUS
 62
    7
 10
-16
 20
41.25
 40
2.0000000000000071
 50
180
 51
269.99999999999983
  0
LINE
  8
_0-1_作画層１
  6
CONTINUOUS
 62
    7
 10
49.5
 20
87.749999999999972
 11
49.5
 21
41.25
  0
ARC
  8
_0-1_作画層１
  6
CONTINUOUS
 62
    7
 10
47.5
 20
41.25
 40
2
 50
270
 51
0
  0
LINE
  8
_0-1_作画層１
  6
CONTINUOUS
 62
    7
 10
-4.25
 20
39.25
 11
-16
 21
39.25
  0
LINE
  8
_0-1_作画層１
  6
CONTINUOUS
 62
    7
 10
-4.25
 20
55.75
 11
-4.25
 21
39.25
  0
LINE
  8
_0-1_作画層１
  6
CONTINUOUS
 62
    7
 10
35.75
 20
48.75
 11
-4.25
 21
48.75
  0
LINE
  8
_0-1_作画層１
  6
CONTINUOUS
 62
    7
 10
35.75
 20
55.75
 11
-4.25
 21
55.75
  0
LINE
  8
_0-1_作画層１
  6
CONTINUOUS
 62
    7
 10
35.75
 20
39.25
 11
47.5
 21
39.25
  0
LINE
  8
_0-1_作画層１
  6
CONTINUOUS
 62
    7
 10
35.75
 20
39.25
 11
35.75
 21
55.75
  0
LINE
  8
_0-1_作画層１
  6
CONTINUOUS
 62
    7
 10
27.875
 20
48.75
 11
34.125
 21
48.75
  0
ARC
  8
_0-1_作画層１
  6
CONTINUOUS
 62
    7
 10
29.375000000000014
 20
46.772000000000006
 40
1.5000000000000142
 50
180.00000000000057
 51
269.99999999999943
  0
LINE
  8
_0-1_作画層１
  6
CONTINUOUS
 62
    7
 10
29.375
 20
45.271999999999991
 11
32.625
 21
45.271999999999991
  0
ARC
  8
_0-1_作画層１
  6
CONTINUOUS
 62
    7
 10
32.624999999999986
 20
46.772000000000006
 40
1.5000000000000142
 50
270.00000000000051
 51
359.99999999999943
  0
LINE
  8
_0-1_作画層１
  6
CONTINUOUS
 62
    7
 10
27.875
 20
46.771999999999991
 11
27.875
 21
47.271999999999991
  0
ARC
  8
_0-1_作画層１
  6
CONTINUOUS
 62
    7
 10
28.374999999999986
 20
47.272000000000006
 40
0.4999999999999856
 50
89.99999999999838
 51
180.00000000000162
  0
LINE
  8
_0-1_作画層１
  6
CONTINUOUS
 62
    7
 10
28.375
 20
47.771999999999991
 11
33.625
 21
47.771999999999991
  0
LINE
  8
_0-1_作画層１
  6
CONTINUOUS
 62
    7
 10
34.125
 20
46.771999999999991
 11
34.125
 21
47.271999999999991
  0
ARC
  8
_0-1_作画層１
  6
CONTINUOUS
 62
    7
 10
33.625000000000014
 20
47.272000000000006
 40
0.4999999999999856
 50
359.99999999999835
 51
90.000000000001663
  0
LINE
  8
_0-1_作画層１
  6
CONTINUOUS
 62
    7
 10
27.400000000000006
 20
48.124400000000009
 11
28.069364676220516
 21
48.124400000000009
  0
ARC
  8
_0-1_作画層１
  6
CONTINUOUS
 62
    7
 10
28.069364676220474
 20
47.624399999999866
 40
0.5000000000001421
 50
63.412951468164792
 51
89.999999999995111
  0
LINE
  8
_0-1_作画層１
  6
CONTINUOUS
 62
    7
 10
27.400000000000006
 20
48.75
 11
28.418787279233385
 21
48.75
  0
ARC
  8
_0-1_作画層１
  6
CONTINUOUS
 62
    7
 10
28.418787279233541
 20
48.250000000001208
 40
0.499999999998792
 50
71.5485515769697
 51
90.00000000001792
  0
LINE
  8
_0-1_作画層１
  6
CONTINUOUS
 62
    7
 10
28.577037752961672
 20
48.724296096931823
 11
29.360462247038356
 21
48.462903903068167
  0
ARC
  8
_0-1_作画層１
  6
CONTINUOUS
 62
    7
 10
29.5187127207667
 20
48.937200000000388
 40
0.5000000000003842
 50
251.54855157700476
 51
269.99999999999511
  0
LINE
  8
_0-1_作画層１
  6
CONTINUOUS
 62
    7
 10
28.293143154532927
 20
48.071527714019368
 11
28.706856845467073
 21
47.864472285980639
  0
ARC
  8
_0-1_作画層１
  6
CONTINUOUS
 62
    7
 10
28.930635323779526
 20
48.311600000000141
 40
0.5000000000001423
 50
243.41295146816481
 51
269.99999999999511
  0
LINE
  8
_0-1_作画層１
  6
CONTINUOUS
 62
    7
 10
29.518712720766658
 20
48.437200000000004
 11
32.481287279233385
 21
48.437200000000004
  0
ARC
  8
_0-1_作画層１
  6
CONTINUOUS
 62
    7
 10
32.481287279233328
 20
48.937200000000388
 40
0.5000000000003832
 50
270.00000000000648
 51
288.45144842299521
  0
LINE
  8
_0-1_作画層１
  6
CONTINUOUS
 62
    7
 10
32.639537752961672
 20
48.462903903068167
 11
33.422962247038356
 21
48.724296096931837
  0
LINE
  8
_0-1_作画層１
  6
CONTINUOUS
 62
    7
 10
34.4375
 20
48.75
 11
33.581212720766644
 21
48.75
  0
ARC
  8
_0-1_作画層１
  6
CONTINUOUS
 62
    7
 10
33.58121272076653
 20
48.250000000000682
 40
0.4999999999993193
 50
89.999999999986969
 51
108.45144842301534
  0
ARC
  8
_0-1_作画層１
  6
CONTINUOUS
 62
    7
 10
33.618135323779526
 20
47.624399999999866
 40
0.5000000000001421
 50
90.000000000004903
 51
116.58704853183521
  0
LINE
  8
_0-1_作画層１
  6
CONTINUOUS
 62
    7
 10
33.394356845467073
 20
48.071527714019368
 11
32.980643154532913
 21
47.864472285980639
  0
LINE
  8
_0-1_作画層１
  6
CONTINUOUS
 62
    7
 10
28.930635323779484
 20
47.811599999999999
 11
32.756864676220502
 21
47.811599999999999
  0
ARC
  8
_0-1_作画層１
  6
CONTINUOUS
 62
    7
 10
32.756864676220488
 20
48.311600000000027
 40
0.5000000000000276
 50
270.00000000000159
 51
296.58704853183809
  0
LINE
  8
_0-1_作画層１
  6
CONTINUOUS
 62
    7
 10
34.400000000000006
 20
48.124400000000009
 11
33.618135323779484
 21
48.124400000000009
  0
LINE
  8
_0-1_作画層１
  6
CONTINUOUS
 62
    7
 10
17.875
 20
48.75
 11
24.125
 21
48.75
  0
ARC
  8
_0-1_作画層１
  6
CONTINUOUS
 62
    7
 10
19.375
 20
46.772000000000006
 40
1.5000000000000142
 50
180.00000000000057
 51
269.99999999999943
  0
LINE
  8
_0-1_作画層１
  6
CONTINUOUS
 62
    7
 10
19.375
 20
45.271999999999991
 11
22.625
 21
45.271999999999991
  0
ARC
  8
_0-1_作画層１
  6
CONTINUOUS
 62
    7
 10
22.624999999999986
 20
46.772000000000006
 40
1.5000000000000142
 50
270.00000000000051
 51
359.99999999999943
  0
LINE
  8
_0-1_作画層１
  6
CONTINUOUS
 62
    7
 10
17.875
 20
46.771999999999991
 11
17.875
 21
47.271999999999991
  0
ARC
  8
_0-1_作画層１
  6
CONTINUOUS
 62
    7
 10
18.375
 20
47.272000000000006
 40
0.4999999999999856
 50
89.99999999999838
 51
180.00000000000162
  0
LINE
  8
_0-1_作画層１
  6
CONTINUOUS
 62
    7
 10
18.375
 20
47.771999999999991
 11
23.625
 21
47.771999999999991
  0
LINE
  8
_0-1_作画層１
  6
CONTINUOUS
 62
    7
 10
24.125
 20
46.771999999999991
 11
24.125
 21
47.271999999999991
  0
ARC
  8
_0-1_作画層１
  6
CONTINUOUS
 62
    7
 10
23.625000000000014
 20
47.272000000000006
 40
0.4999999999999856
 50
359.99999999999835
 51
90.000000000001663
  0
LINE
  8
_0-1_作画層１
  6
CONTINUOUS
 62
    7
 10
17.400000000000006
 20
48.124400000000009
 11
18.069364676220516
 21
48.124400000000009
  0
ARC
  8
_0-1_作画層１
  6
CONTINUOUS
 62
    7
 10
18.069364676220459
 20
47.624399999999866
 40
0.5000000000001421
 50
63.412951468164792
 51
89.999999999995111
  0
LINE
  8
_0-1_作画層１
  6
CONTINUOUS
 62
    7
 10
17.400000000000006
 20
48.75
 11
18.418787279233385
 21
48.75
  0
ARC
  8
_0-1_作画層１
  6
CONTINUOUS
 62
    7
 10
18.418787279233527
 20
48.250000000001208
 40
0.499999999998792
 50
71.5485515769697
 51
90.00000000001792
  0
LINE
  8
_0-1_作画層１
  6
CONTINUOUS
 62
    7
 10
18.577037752961672
 20
48.724296096931823
 11
19.360462247038356
 21
48.462903903068167
  0
ARC
  8
_0-1_作画層１
  6
CONTINUOUS
 62
    7
 10
19.5187127207667
 20
48.937200000000388
 40
0.5000000000003842
 50
251.54855157700476
 51
269.99999999999511
  0
LINE
  8
_0-1_作画層１
  6
CONTINUOUS
 62
    7
 10
18.293143154532913
 20
48.071527714019368
 11
18.706856845467087
 21
47.864472285980639
  0
ARC
  8
_0-1_作画層１
  6
CONTINUOUS
 62
    7
 10
18.930635323779541
 20
48.311600000000141
 40
0.5000000000001423
 50
243.41295146816481
 51
269.99999999999511
  0
LINE
  8
_0-1_作画層１
  6
CONTINUOUS
 62
    7
 10
19.518712720766644
 20
48.437200000000004
 11
22.481287279233385
 21
48.437200000000004
  0
ARC
  8
_0-1_作画層１
  6
CONTINUOUS
 62
    7
 10
22.481287279233328
 20
48.937200000000388
 40
0.5000000000003832
 50
270.00000000000648
 51
288.45144842299521
  0
LINE
  8
_0-1_作画層１
  6
CONTINUOUS
 62
    7
 10
22.639537752961672
 20
48.462903903068167
 11
23.422962247038356
 21
48.724296096931837
  0
LINE
  8
_0-1_作画層１
  6
CONTINUOUS
 62
    7
 10
24.4375
 20
48.75
 11
23.581212720766644
 21
48.75
  0
ARC
  8
_0-1_作画層１
  6
CONTINUOUS
 62
    7
 10
23.58121272076653
 20
48.250000000000682
 40
0.4999999999993193
 50
89.999999999986969
 51
108.45144842301534
  0
ARC
  8
_0-1_作画層１
  6
CONTINUOUS
 62
    7
 10
23.618135323779526
 20
47.624399999999866
 40
0.5000000000001421
 50
90.000000000004903
 51
116.58704853183521
  0
LINE
  8
_0-1_作画層１
  6
CONTINUOUS
 62
    7
 10
23.394356845467073
 20
48.071527714019368
 11
22.980643154532913
 21
47.864472285980639
  0
LINE
  8
_0-1_作画層１
  6
CONTINUOUS
 62
    7
 10
18.930635323779484
 20
47.811599999999999
 11
22.756864676220502
 21
47.811599999999999
  0
ARC
  8
_0-1_作画層１
  6
CONTINUOUS
 62
    7
 10
22.756864676220488
 20
48.311600000000027
 40
0.5000000000000276
 50
270.00000000000159
 51
296.58704853183809
  0
LINE
  8
_0-1_作画層１
  6
CONTINUOUS
 62
    7
 10
24.400000000000006
 20
48.124400000000009
 11
23.618135323779484
 21
48.124400000000009
  0
LINE
  8
_0-1_作画層１
  6
CONTINUOUS
 62
    7
 10
7.875
 20
48.75
 11
14.125
 21
48.75
  0
ARC
  8
_0-1_作画層１
  6
CONTINUOUS
 62
    7
 10
9.375
 20
46.772000000000006
 40
1.5000000000000142
 50
180.00000000000057
 51
269.99999999999943
  0
LINE
  8
_0-1_作画層１
  6
CONTINUOUS
 62
    7
 10
9.375
 20
45.271999999999991
 11
12.625
 21
45.271999999999991
  0
ARC
  8
_0-1_作画層１
  6
CONTINUOUS
 62
    7
 10
12.625
 20
46.772000000000006
 40
1.5000000000000142
 50
270.00000000000051
 51
359.99999999999943
  0
LINE
  8
_0-1_作画層１
  6
CONTINUOUS
 62
    7
 10
7.875
 20
46.771999999999991
 11
7.875
 21
47.271999999999991
  0
ARC
  8
_0-1_作画層１
  6
CONTINUOUS
 62
    7
 10
8.375
 20
47.272000000000006
 40
0.4999999999999926
 50
89.99999999999919
 51
180.00000000000162
  0
LINE
  8
_0-1_作画層１
  6
CONTINUOUS
 62
    7
 10
8.375
 20
47.771999999999991
 11
13.625
 21
47.771999999999991
  0
LINE
  8
_0-1_作画層１
  6
CONTINUOUS
 62
    7
 10
14.125
 20
46.771999999999991
 11
14.125
 21
47.271999999999991
  0
ARC
  8
_0-1_作画層１
  6
CONTINUOUS
 62
    7
 10
13.625
 20
47.272000000000006
 40
0.4999999999999856
 50
359.99999999999835
 51
90.000000000001663
  0
LINE
  8
_0-1_作画層１
  6
CONTINUOUS
 62
    7
 10
7.4000000000000057
 20
48.124400000000009
 11
8.0693646762205162
 21
48.124400000000009
  0
ARC
  8
_0-1_作画層１
  6
CONTINUOUS
 62
    7
 10
8.0693646762204594
 20
47.624399999999866
 40
0.5000000000001421
 50
63.412951468164792
 51
89.999999999995111
  0
LINE
  8
_0-1_作画層１
  6
CONTINUOUS
 62
    7
 10
7.4000000000000057
 20
48.75
 11
8.4187872792333849
 21
48.75
  0
ARC
  8
_0-1_作画層１
  6
CONTINUOUS
 62
    7
 10
8.4187872792335554
 20
48.250000000001208
 40
0.499999999998792
 50
71.548551576970482
 51
90.00000000001873
  0
LINE
  8
_0-1_作画層１
  6
CONTINUOUS
 62
    7
 10
8.5770377529616724
 20
48.724296096931823
 11
9.3604622470383561
 21
48.462903903068167
  0
ARC
  8
_0-1_作画層１
  6
CONTINUOUS
 62
    7
 10
9.5187127207667004
 20
48.937200000000388
 40
0.5000000000003842
 50
251.54855157700476
 51
269.99999999999511
  0
LINE
  8
_0-1_作画層１
  6
CONTINUOUS
 62
    7
 10
8.2931431545329133
 20
48.071527714019368
 11
8.7068568454670867
 21
47.864472285980639
  0
ARC
  8
_0-1_作画層１
  6
CONTINUOUS
 62
    7
 10
8.9306353237795406
 20
48.311600000000141
 40
0.5000000000001423
 50
243.41295146816481
 51
269.99999999999511
  0
LINE
  8
_0-1_作画層１
  6
CONTINUOUS
 62
    7
 10
9.5187127207666435
 20
48.437200000000004
 11
12.481287279233385
 21
48.437200000000004
  0
ARC
  8
_0-1_作画層１
  6
CONTINUOUS
 62
    7
 10
12.481287279233328
 20
48.937200000000388
 40
0.5000000000003832
 50
270.00000000000648
 51
288.45144842299521
  0
LINE
  8
_0-1_作画層１
  6
CONTINUOUS
 62
    7
 10
12.639537752961672
 20
48.462903903068167
 11
13.422962247038356
 21
48.724296096931837
  0
LINE
  8
_0-1_作画層１
  6
CONTINUOUS
 62
    7
 10
14.4375
 20
48.75
 11
13.581212720766644
 21
48.75
  0
ARC
  8
_0-1_作画層１
  6
CONTINUOUS
 62
    7
 10
13.58121272076653
 20
48.250000000000682
 40
0.4999999999993193
 50
89.999999999986969
 51
108.45144842301534
  0
ARC
  8
_0-1_作画層１
  6
CONTINUOUS
 62
    7
 10
13.618135323779541
 20
47.624399999999866
 40
0.5000000000001421
 50
90.000000000004903
 51
116.58704853183521
  0
LINE
  8
_0-1_作画層１
  6
CONTINUOUS
 62
    7
 10
13.394356845467087
 20
48.071527714019368
 11
12.980643154532913
 21
47.864472285980639
  0
LINE
  8
_0-1_作画層１
  6
CONTINUOUS
 62
    7
 10
8.9306353237794838
 20
47.811599999999999
 11
12.756864676220516
 21
47.811599999999999
  0
ARC
  8
_0-1_作画層１
  6
CONTINUOUS
 62
    7
 10
12.756864676220488
 20
48.311600000000027
 40
0.5000000000000276
 50
270.00000000000159
 51
296.58704853183809
  0
LINE
  8
_0-1_作画層１
  6
CONTINUOUS
 62
    7
 10
14.400000000000006
 20
48.124400000000009
 11
13.618135323779484
 21
48.124400000000009
  0
LINE
  8
_0-1_作画層１
  6
CONTINUOUS
 62
    7
 10
-2.125
 20
48.75
 11
4.125
 21
48.75
  0
ARC
  8
_0-1_作画層１
  6
CONTINUOUS
 62
    7
 10
-0.6249999999999715
 20
46.772000000000006
 40
1.5000000000000213
 50
180.00000000000057
 51
269.9999999999992
  0
LINE
  8
_0-1_作画層１
  6
CONTINUOUS
 62
    7
 10
-0.625
 20
45.271999999999991
 11
2.625
 21
45.271999999999991
  0
ARC
  8
_0-1_作画層１
  6
CONTINUOUS
 62
    7
 10
2.6249999999999716
 20
46.772000000000006
 40
1.5000000000000142
 50
270.0000000000008
 51
359.99999999999943
  0
LINE
  8
_0-1_作画層１
  6
CONTINUOUS
 62
    7
 10
-2.125
 20
46.771999999999991
 11
-2.125
 21
47.271999999999991
  0
ARC
  8
_0-1_作画層１
  6
CONTINUOUS
 62
    7
 10
-1.625
 20
47.272000000000006
 40
0.4999999999999926
 50
89.99999999999919
 51
180.00000000000162
  0
LINE
  8
_0-1_作画層１
  6
CONTINUOUS
 62
    7
 10
-1.625
 20
47.771999999999991
 11
3.625
 21
47.771999999999991
  0
LINE
  8
_0-1_作画層１
  6
CONTINUOUS
 62
    7
 10
4.125
 20
46.771999999999991
 11
4.125
 21
47.271999999999991
  0
ARC
  8
_0-1_作画層１
  6
CONTINUOUS
 62
    7
 10
3.625
 20
47.272000000000006
 40
0.4999999999999856
 50
359.99999999999835
 51
90.00000000000081
  0
LINE
  8
_0-1_作画層１
  6
CONTINUOUS
 62
    7
 10
-2.5999999999999943
 20
48.124400000000009
 11
-1.9306353237794838
 21
48.124400000000009
  0
ARC
  8
_0-1_作画層１
  6
CONTINUOUS
 62
    7
 10
-1.9306353237795406
 20
47.624399999999866
 40
0.5000000000001421
 50
63.412951468164792
 51
89.999999999995111
  0
LINE
  8
_0-1_作画層１
  6
CONTINUOUS
 62
    7
 10
-2.5999999999999943
 20
48.75
 11
-1.5812127207666151
 21
48.75
  0
ARC
  8
_0-1_作画層１
  6
CONTINUOUS
 62
    7
 10
-1.5812127207664446
 20
48.250000000001208
 40
0.499999999998792
 50
71.548551576970482
 51
90.00000000001873
  0
LINE
  8
_0-1_作画層１
  6
CONTINUOUS
 62
    7
 10
-1.4229622470383276
 20
48.724296096931823
 11
-0.6395377529616439
 21
48.462903903068167
  0
ARC
  8
_0-1_作画層１
  6
CONTINUOUS
 62
    7
 10
-0.4812872792332996
 20
48.937200000000388
 40
0.5000000000003842
 50
251.54855157700476
 51
269.99999999999511
  0
LINE
  8
_0-1_作画層１
  6
CONTINUOUS
 62
    7
 10
-1.7068568454670867
 20
48.071527714019368
 11
-1.2931431545329133
 21
47.864472285980639
  0
ARC
  8
_0-1_作画層１
  6
CONTINUOUS
 62
    7
 10
-1.0693646762204594
 20
48.311600000000141
 40
0.5000000000001423
 50
243.41295146816481
 51
269.99999999999511
  0
LINE
  8
_0-1_作画層１
  6
CONTINUOUS
 62
    7
 10
-0.4812872792333564
 20
48.437200000000004
 11
2.4812872792333849
 21
48.437200000000004
  0
ARC
  8
_0-1_作画層１
  6
CONTINUOUS
 62
    7
 10
2.481287279233328
 20
48.937200000000388
 40
0.5000000000003832
 50
270.00000000000648
 51
288.45144842299521
  0
LINE
  8
_0-1_作画層１
  6
CONTINUOUS
 62
    7
 10
2.6395377529616724
 20
48.462903903068167
 11
3.4229622470383561
 21
48.724296096931837
  0
LINE
  8
_0-1_作画層１
  6
CONTINUOUS
 62
    7
 10
4.4375
 20
48.75
 11
3.5812127207666435
 21
48.75
  0
ARC
  8
_0-1_作画層１
  6
CONTINUOUS
 62
    7
 10
3.5812127207665299
 20
48.250000000000682
 40
0.4999999999993171
 50
89.999999999986159
 51
108.45144842301457
  0
ARC
  8
_0-1_作画層１
  6
CONTINUOUS
 62
    7
 10
3.6181353237795406
 20
47.624399999999866
 40
0.5000000000001421
 50
90.000000000004903
 51
116.58704853183521
  0
LINE
  8
_0-1_作画層１
  6
CONTINUOUS
 62
    7
 10
3.3943568454670867
 20
48.071527714019368
 11
2.9806431545329133
 21
47.864472285980639
  0
LINE
  8
_0-1_作画層１
  6
CONTINUOUS
 62
    7
 10
-1.0693646762205162
 20
47.811599999999999
 11
2.7568646762205162
 21
47.811599999999999
  0
ARC
  8
_0-1_作画層１
  6
CONTINUOUS
 62
    7
 10
2.7568646762204878
 20
48.311600000000027
 40
0.5000000000000276
 50
270.00000000000159
 51
296.58704853183809
  0
LINE
  8
_0-1_作画層１
  6
CONTINUOUS
 62
    7
 10
4.4000000000000057
 20
48.124400000000009
 11
3.6181353237794838
 21
48.124400000000009
  0
LINE
  8
_0-1_作画層１
  6
CONTINUOUS
 62
    7
 10
-4.25
 20
40.75
 11
-2.5999999999999943
 21
40.75
  0
LINE
  8
_0-1_作画層１
  6
CONTINUOUS
 62
    7
 10
-2.5999999999999943
 20
40.75
 11
-2.5999999999999943
 21
48.75
  0
LINE
  8
_0-1_作画層１
  6
CONTINUOUS
 62
    7
 10
7.4000000000000057
 20
40.75
 11
7.4000000000000057
 21
48.75
  0
LINE
  8
_0-1_作画層１
  6
CONTINUOUS
 62
    7
 10
4.4000000000000057
 20
40.75
 11
4.4000000000000057
 21
48.75
  0
LINE
  8
_0-1_作画層１
  6
CONTINUOUS
 62
    7
 10
14.400000000000006
 20
40.75
 11
14.400000000000006
 21
48.75
  0
LINE
  8
_0-1_作画層１
  6
CONTINUOUS
 62
    7
 10
17.400000000000006
 20
40.75
 11
17.400000000000006
 21
48.75
  0
LINE
  8
_0-1_作画層１
  6
CONTINUOUS
 62
    7
 10
24.400000000000006
 20
40.75
 11
24.400000000000006
 21
48.75
  0
LINE
  8
_0-1_作画層１
  6
CONTINUOUS
 62
    7
 10
27.400000000000006
 20
40.75
 11
27.400000000000006
 21
48.75
  0
LINE
  8
_0-1_作画層１
  6
CONTINUOUS
 62
    7
 10
14.400000000000006
 20
40.75
 11
17.400000000000006
 21
40.75
  0
LINE
  8
_0-1_作画層１
  6
CONTINUOUS
 62
    7
 10
4.4000000000000057
 20
40.75
 11
7.4000000000000057
 21
40.75
  0
LINE
  8
_0-1_作画層１
  6
CONTINUOUS
 62
    7
 10
34.400000000000006
 20
40.75
 11
34.400000000000006
 21
48.75
  0
LINE
  8
_0-1_作画層１
  6
CONTINUOUS
 62
    7
 10
27.400000000000006
 20
40.75
 11
24.400000000000006
 21
40.75
  0
LINE
  8
_0-1_作画層１
  6
CONTINUOUS
 62
    7
 10
34.400000000000006
 20
40.75
 11
35.75
 21
40.75
  0
LINE
  8
_0-1_作画層１
  6
CONTINUOUS
 62
    7
 10
35.75
 20
39.75
 11
-4.25
 21
39.75
  0
LINE
  8
_0-1_作画層１
  6
CONTINUOUS
 62
    7
 10
35.75
 20
40.375
 11
-4.25
 21
40.375
  0
LINE
  8
_0-1_作画層１
  6
CONTINUOUS
 62
    7
 10
42.25
 20
39.25
 11
42.25
 21
56.25
  0
LINE
  8
_0-1_作画層１
  6
CONTINUOUS
 62
    7
 10
42.875
 20
56.25
 11
42.875
 21
55.799999999999997
  0
LINE
  8
_0-1_作画層１
  6
CONTINUOUS
 62
    7
 10
42.875
 20
56.25
 11
46.625
 21
56.25
  0
ARC
  8
_0-1_作画層１
  6
CONTINUOUS
 62
    7
 10
43.674999999999969
 20
55.799999999999983
 40
0.7999999999999687
 50
179.99999999999901
 51
270.00000000000205
  0
LINE
  8
_0-1_作画層１
  6
CONTINUOUS
 62
    7
 10
43.674999999999997
 20
55
 11
45.825000000000003
 21
55
  0
LINE
  8
_0-1_作画層１
  6
CONTINUOUS
 62
    7
 10
46.625
 20
56.25
 11
46.625
 21
55.799999999999997
  0
ARC
  8
_0-1_作画層１
  6
CONTINUOUS
 62
    7
 10
45.825000000000031
 20
55.799999999999969
 40
0.7999999999999687
 50
269.99999999999795
 51
0.0000000000020609
  0
LINE
  8
_0-1_作画層１
  6
CONTINUOUS
 62
    7
 10
49.5
 20
56.25
 11
42.25
 21
56.25
  0
CIRCLE
  8
_0-1_作画層１
  6
CONTINUOUS
 62
    7
 10
94.75
 20
38.75
 40
5
  0
LINE
  8
_0-1_作画層１
  6
CONTINUOUS
 62
    7
 10
93.5
 20
43.125
 11
96
 21
43.125
  0
LINE
  8
_0-1_作画層１
  6
CONTINUOUS
 62
    7
 10
96
 20
34.375
 11
93.5
 21
34.375
  0
LINE
  8
_0-1_作画層１
  6
CONTINUOUS
 62
    7
 10
99.125
 20
40
 11
99.125
 21
37.5
  0
LINE
  8
_0-1_作画層１
  6
CONTINUOUS
 62
    7
 10
90.375
 20
37.5
 11
90.375
 21
40
  0
ARC
  8
_0-1_作画層１
  6
CONTINUOUS
 62
    7
 10
92.500000000000028
 20
40.999999999999986
 40
0.9999999999999712
 50
269.99999999999835
 51
0.0000000000008142
  0
LINE
  8
_0-1_作画層１
  6
CONTINUOUS
 62
    7
 10
90.375
 20
37.5
 11
92.5
 21
37.5
  0
ARC
  8
_0-1_作画層１
  6
CONTINUOUS
 62
    7
 10
92.500000000000028
 20
36.500000000000014
 40
0.9999999999999853
 50
359.9999999999992
 51
90.000000000001634
  0
LINE
  8
_0-1_作画層１
  6
CONTINUOUS
 62
    7
 10
99.125
 20
40
 11
97
 21
40
  0
ARC
  8
_0-1_作画層１
  6
CONTINUOUS
 62
    7
 10
96.999999999999972
 20
40.999999999999986
 40
0.9999999999999853
 50
179.99999999999918
 51
270.00000000000171
  0
LINE
  8
_0-1_作画層１
  6
CONTINUOUS
 62
    7
 10
92.500000127156596
 20
40
 11
90.375
 21
40
  0
LINE
  8
_0-1_作画層１
  6
CONTINUOUS
 62
    7
 10
99.125
 20
37.5
 11
97
 21
37.5
  0
LINE
  8
_0-1_作画層１
  6
CONTINUOUS
 62
    7
 10
96
 20
34.375
 11
96
 21
36.5
  0
ARC
  8
_0-1_作画層１
  6
CONTINUOUS
 62
    7
 10
96.999999999999972
 20
36.500000000000014
 40
0.9999999999999853
 50
89.99999999999838
 51
180.00000000000082
  0
LINE
  8
_0-1_作画層１
  6
CONTINUOUS
 62
    7
 10
93.5
 20
40.999999999999986
 11
93.5
 21
43.125
  0
LINE
  8
_0-1_作画層１
  6
CONTINUOUS
 62
    7
 10
93.5
 20
36.500000000000014
 11
93.5
 21
34.375
  0
LINE
  8
_0-1_作画層１
  6
CONTINUOUS
 62
    7
 10
96
 20
40.999999999999986
 11
96
 21
43.125
  0
CIRCLE
  8
_0-1_作画層１
  6
CONTINUOUS
 62
    7
 10
112.25
 20
38.75
 40
5
  0
LINE
  8
_0-1_作画層１
  6
CONTINUOUS
 62
    7
 10
111
 20
43.125
 11
113.5
 21
43.125
  0
LINE
  8
_0-1_作画層１
  6
CONTINUOUS
 62
    7
 10
113.5
 20
34.375
 11
111
 21
34.375
  0
LINE
  8
_0-1_作画層１
  6
CONTINUOUS
 62
    7
 10
116.625
 20
40
 11
116.625
 21
37.5
  0
LINE
  8
_0-1_作画層１
  6
CONTINUOUS
 62
    7
 10
107.875
 20
37.5
 11
107.875
 21
40
  0
ARC
  8
_0-1_作画層１
  6
CONTINUOUS
 62
    7
 10
110.00000000000003
 20
40.999999999999986
 40
0.9999999999999712
 50
269.99999999999835
 51
0.0000000000008142
  0
LINE
  8
_0-1_作画層１
  6
CONTINUOUS
 62
    7
 10
107.875
 20
37.5
 11
110
 21
37.5
  0
ARC
  8
_0-1_作画層１
  6
CONTINUOUS
 62
    7
 10
110.00000000000003
 20
36.500000000000014
 40
0.9999999999999853
 50
359.9999999999992
 51
90.000000000001634
  0
LINE
  8
_0-1_作画層１
  6
CONTINUOUS
 62
    7
 10
116.625
 20
40
 11
114.5
 21
40
  0
ARC
  8
_0-1_作画層１
  6
CONTINUOUS
 62
    7
 10
114.49999999999997
 20
40.999999999999986
 40
0.9999999999999853
 50
179.99999999999918
 51
270.00000000000171
  0
LINE
  8
_0-1_作画層１
  6
CONTINUOUS
 62
    7
 10
110.0000001271566
 20
40
 11
107.875
 21
40
  0
LINE
  8
_0-1_作画層１
  6
CONTINUOUS
 62
    7
 10
116.625
 20
37.5
 11
114.5
 21
37.5
  0
LINE
  8
_0-1_作画層１
  6
CONTINUOUS
 62
    7
 10
113.5
 20
34.375
 11
113.5
 21
36.5
  0
ARC
  8
_0-1_作画層１
  6
CONTINUOUS
 62
    7
 10
114.49999999999997
 20
36.500000000000014
 40
0.9999999999999853
 50
89.99999999999838
 51
180.00000000000082
  0
LINE
  8
_0-1_作画層１
  6
CONTINUOUS
 62
    7
 10
111
 20
40.999999999999986
 11
111
 21
43.125
  0
LINE
  8
_0-1_作画層１
  6
CONTINUOUS
 62
    7
 10
111
 20
36.500000000000014
 11
111
 21
34.375
  0
LINE
  8
_0-1_作画層１
  6
CONTINUOUS
 62
    7
 10
113.5
 20
40.999999999999986
 11
113.5
 21
43.125
  0
CIRCLE
  8
_0-1_作画層１
  6
CONTINUOUS
 62
    7
 10
129.75
 20
38.75
 40
5
  0
LINE
  8
_0-1_作画層１
  6
CONTINUOUS
 62
    7
 10
128.5
 20
43.125
 11
131
 21
43.125
  0
LINE
  8
_0-1_作画層１
  6
CONTINUOUS
 62
    7
 10
131
 20
34.375
 11
128.5
 21
34.375
  0
LINE
  8
_0-1_作画層１
  6
CONTINUOUS
 62
    7
 10
134.125
 20
40
 11
134.125
 21
37.5
  0
LINE
  8
_0-1_作画層１
  6
CONTINUOUS
 62
    7
 10
125.375
 20
37.5
 11
125.375
 21
40
  0
ARC
  8
_0-1_作画層１
  6
CONTINUOUS
 62
    7
 10
127.50000000000003
 20
40.999999999999986
 40
0.9999999999999712
 50
269.99999999999835
 51
0.0000000000008142
  0
LINE
  8
_0-1_作画層１
  6
CONTINUOUS
 62
    7
 10
125.375
 20
37.5
 11
127.5
 21
37.5
  0
ARC
  8
_0-1_作画層１
  6
CONTINUOUS
 62
    7
 10
127.50000000000003
 20
36.500000000000014
 40
0.9999999999999853
 50
359.9999999999992
 51
90.000000000001634
  0
LINE
  8
_0-1_作画層１
  6
CONTINUOUS
 62
    7
 10
134.125
 20
40
 11
132
 21
40
  0
ARC
  8
_0-1_作画層１
  6
CONTINUOUS
 62
    7
 10
131.99999999999997
 20
40.999999999999986
 40
0.9999999999999853
 50
179.99999999999918
 51
270.00000000000171
  0
LINE
  8
_0-1_作画層１
  6
CONTINUOUS
 62
    7
 10
127.5000001271566
 20
40
 11
125.375
 21
40
  0
LINE
  8
_0-1_作画層１
  6
CONTINUOUS
 62
    7
 10
134.125
 20
37.5
 11
132
 21
37.5
  0
LINE
  8
_0-1_作画層１
  6
CONTINUOUS
 62
    7
 10
131
 20
34.375
 11
131
 21
36.5
  0
ARC
  8
_0-1_作画層１
  6
CONTINUOUS
 62
    7
 10
131.99999999999997
 20
36.500000000000014
 40
0.9999999999999853
 50
89.99999999999838
 51
180.00000000000082
  0
LINE
  8
_0-1_作画層１
  6
CONTINUOUS
 62
    7
 10
128.5
 20
40.999999999999986
 11
128.5
 21
43.125
  0
LINE
  8
_0-1_作画層１
  6
CONTINUOUS
 62
    7
 10
128.5
 20
36.500000000000014
 11
128.5
 21
34.375
  0
LINE
  8
_0-1_作画層１
  6
CONTINUOUS
 62
    7
 10
131
 20
40.999999999999986
 11
131
 21
43.125
  0
CIRCLE
  8
_0-1_作画層１
  6
CONTINUOUS
 62
    7
 10
147.25
 20
38.75
 40
5
  0
LINE
  8
_0-1_作画層１
  6
CONTINUOUS
 62
    7
 10
146
 20
43.125
 11
148.5
 21
43.125
  0
LINE
  8
_0-1_作画層１
  6
CONTINUOUS
 62
    7
 10
148.5
 20
34.375
 11
146
 21
34.375
  0
LINE
  8
_0-1_作画層１
  6
CONTINUOUS
 62
    7
 10
151.625
 20
40
 11
151.625
 21
37.5
  0
LINE
  8
_0-1_作画層１
  6
CONTINUOUS
 62
    7
 10
142.875
 20
37.5
 11
142.875
 21
40
  0
ARC
  8
_0-1_作画層１
  6
CONTINUOUS
 62
    7
 10
145.00000000000003
 20
40.999999999999986
 40
0.9999999999999712
 50
269.99999999999835
 51
0.0000000000008142
  0
LINE
  8
_0-1_作画層１
  6
CONTINUOUS
 62
    7
 10
142.875
 20
37.5
 11
145
 21
37.5
  0
ARC
  8
_0-1_作画層１
  6
CONTINUOUS
 62
    7
 10
145.00000000000003
 20
36.500000000000014
 40
0.9999999999999853
 50
359.9999999999992
 51
90.000000000001634
  0
LINE
  8
_0-1_作画層１
  6
CONTINUOUS
 62
    7
 10
151.625
 20
40
 11
149.5
 21
40
  0
ARC
  8
_0-1_作画層１
  6
CONTINUOUS
 62
    7
 10
149.49999999999997
 20
40.999999999999986
 40
0.9999999999999853
 50
179.99999999999918
 51
270.00000000000171
  0
LINE
  8
_0-1_作画層１
  6
CONTINUOUS
 62
    7
 10
145.0000001271566
 20
40
 11
142.875
 21
40
  0
LINE
  8
_0-1_作画層１
  6
CONTINUOUS
 62
    7
 10
151.625
 20
37.5
 11
149.5
 21
37.5
  0
LINE
  8
_0-1_作画層１
  6
CONTINUOUS
 62
    7
 10
148.5
 20
34.375
 11
148.5
 21
36.5
  0
ARC
  8
_0-1_作画層１
  6
CONTINUOUS
 62
    7
 10
149.49999999999997
 20
36.500000000000014
 40
0.9999999999999853
 50
89.99999999999838
 51
180.00000000000082
  0
LINE
  8
_0-1_作画層１
  6
CONTINUOUS
 62
    7
 10
146
 20
40.999999999999986
 11
146
 21
43.125
  0
LINE
  8
_0-1_作画層１
  6
CONTINUOUS
 62
    7
 10
146
 20
36.500000000000014
 11
146
 21
34.375
  0
LINE
  8
_0-1_作画層１
  6
CONTINUOUS
 62
    7
 10
148.5
 20
40.999999999999986
 11
148.5
 21
43.125
  0
LINE
  8
_0-1_作画層１
  6
CONTINUOUS
 62
    7
 10
87.25
 20
46.25
 11
154.75
 21
46.25
  0
LINE
  8
_0-1_作画層１
  6
CONTINUOUS
 62
    7
 10
154.75
 20
46.25
 11
154.75
 21
31.25
  0
LINE
  8
_0-1_作画層１
  6
CONTINUOUS
 62
    7
 10
154.75
 20
31.25
 11
87.25
 21
31.25
  0
LINE
  8
_0-1_作画層１
  6
CONTINUOUS
 62
    7
 10
87.25
 20
31.25
 11
87.25
 21
46.25
  0
LINE
  8
_0-1_作画層１
  6
CONTINUOUS
 62
    7
 10
147.25
 20
23.75
 11
159.75
 21
23.75
  0
CIRCLE
  8
_0-1_作画層１
  6
CONTINUOUS
 62
    7
 10
103.5
 20
16.25
 40
5
  0
ARC
  8
_0-1_作画層１
  6
CONTINUOUS
 62
    7
 10
101.9375
 20
16.409974466828913
 40
1.5706680362308238
 50
185.84578235473452
 51
354.15421764526542
  0
ARC
  8
_0-1_作画層１
  6
CONTINUOUS
 62
    7
 10
105.0625
 20
16.090025533171058
 40
1.5706680362308283
 50
5.8457823547360706
 51
174.15421764526394
  0
LINE
  8
_0-1_作画層１
  6
CONTINUOUS
 62
    7
 10
98.5
 20
16.25
 11
94.75
 21
16.25
  0
LINE
  8
_0-1_作画層１
  6
CONTINUOUS
 62
    7
 10
112.25
 20
16.25
 11
108.5
 21
16.25
  0
LINE
  8
_0-1_作画層１
  6
CONTINUOUS
 62
    7
 10
132.25
 20
16.25
 11
129.75
 21
16.25
  0
TEXT
  8
_0-7_注記層１
 62
    7
 10
98.75
 20
7
 40
3.5
 41
1
 50
0
  1
電源
  0
TEXT
  8
_0-7_注記層１
 62
    7
 10
92.625
 20
3.5
 40
3.5
 41
1
 50
0
  1
AC100V-200V
  0
TEXT
  8
_0-7_注記層１
 62
    7
 10
133.75
 20
14.5
 40
3.5
 41
1
 50
0
  1
負荷
  0
LINE
  8
_0-1_作画層１
  6
CONTINUOUS
 62
    7
 10
132.25
 20
13.75
 11
142.25
 21
13.75
  0
LINE
  8
_0-1_作画層１
  6
CONTINUOUS
 62
    7
 10
142.25
 20
13.75
 11
142.25
 21
18.75
  0
LINE
  8
_0-1_作画層１
  6
CONTINUOUS
 62
    7
 10
142.25
 20
18.75
 11
132.25
 21
18.75
  0
LINE
  8
_0-1_作画層１
  6
CONTINUOUS
 62
    7
 10
132.25
 20
18.75
 11
132.25
 21
13.75
  0
LINE
  8
_0-1_作画層１
  6
CONTINUOUS
 62
    7
 10
142.25
 20
16.25
 11
159.75
 21
16.25
  0
CIRCLE
  8
_0-1_作画層１
  6
CONTINUOUS
 62
    7
 10
133.5
 20
61.25
 40
1.25
  0
CIRCLE
  8
_0-1_作画層１
  6
CONTINUOUS
 62
    7
 10
143.5
 20
61.25
 40
1.25
  0
LINE
  8
_0-1_作画層１
  6
CONTINUOUS
 62
    7
 10
132.25
 20
61.25
 11
129.75
 21
61.25
  0
LINE
  8
_0-1_作画層１
  6
CONTINUOUS
 62
    7
 10
144.75
 20
61.25
 11
147.25
 21
61.25
  0
TEXT
  8
_0-7_注記層１
 62
    7
 10
96.5
 20
59.5
 40
3.5
 41
1
 50
0
  1
内部回路
  0
LINE
  8
_0-1_作画層１
  6
CONTINUOUS
 62
    7
 10
92.25
 20
58.75
 11
114.75
 21
58.75
  0
LINE
  8
_0-1_作画層１
  6
CONTINUOUS
 62
    7
 10
114.75
 20
58.75
 11
114.75
 21
63.75
  0
LINE
  8
_0-1_作画層１
  6
CONTINUOUS
 62
    7
 10
114.75
 20
63.75
 11
92.25
 21
63.75
  0
LINE
  8
_0-1_作画層１
  6
CONTINUOUS
 62
    7
 10
92.25
 20
63.75
 11
92.25
 21
58.75
  0
LINE
  8
_0-1_作画層１
  6
CONTINUOUS
 62
    7
 10
129.75
 20
46.25
 11
129.75
 21
61.25
  0
LINE
  8
_0-1_作画層１
  6
CONTINUOUS
 62
    7
 10
147.25
 20
46.25
 11
147.25
 21
61.25
  0
LINE
  8
_0-1_作画層１
  6
CONTINUOUS
 62
    7
 10
94.75
 20
46.25
 11
94.75
 21
58.75
  0
LINE
  8
_0-1_作画層１
  6
CONTINUOUS
 62
    7
 10
112.25
 20
46.25
 11
112.25
 21
58.75
  0
LINE
  8
_0-1_作画層１
  6
CONTINUOUS
 62
    7
 10
94.75
 20
31.25
 11
94.75
 21
16.25
  0
LINE
  8
_0-1_作画層１
  6
CONTINUOUS
 62
    7
 10
112.25
 20
31.25
 11
112.25
 21
16.25
  0
LINE
  8
_0-1_作画層１
  6
CONTINUOUS
 62
    7
 10
147.25
 20
31.25
 11
147.25
 21
23.75
  0
LINE
  8
_0-1_作画層１
  6
CONTINUOUS
 62
    7
 10
129.75
 20
31.25
 11
129.75
 21
16.25
  0
TEXT
  8
_0-7_注記層１
 62
    7
 10
161
 20
18.75
 40
3.5
 41
1
 50
0
  1
負荷用電源
  0
LINE
  8
_0-1_作画層１
  6
CONTINUOUS
 62
    7
 10
134.25
 20
62.25
 11
142.25
 21
66.25
  0
TEXT
  8
_0-7_注記層１
 62
    7
 10
132.75
 20
69.5
 40
3.5
 41
1
 50
0
  1
接点出力
  0
LINE
  8
_0-1_作画層１
  6
CONTINUOUS
 62
    7
 10
94.75
 20
78.75
 11
119.75
 21
78.75
  0
TEXT
  8
_0-7_注記層１
 62
    7
 10
97.25
 20
78.75
 40
5
 41
1
 50
0
  1
端子接続
  0
TEXT
  8
_0-7_注記層１
 62
    7
 10
209.75
 20
139.5
 40
3.5
 41
1
 50
0
  1
付　　属　　品
  0
LINE
  8
_0-1_作画層１
  6
CONTINUOUS
 62
    7
 10
207.25
 20
135
 11
207.25
 21
223.75
  0
LINE
  8
_0-1_作画層１
  6
CONTINUOUS
 62
    7
 10
242.25
 20
135
 11
242.25
 21
223.75
  0
INSERT
  2
-005-_D5
  8
_0-9_寸法線層１
 10
-55.25
 20
-38.75
 41
1
 42
1
 50
0
  0
INSERT
  2
-006-_D6
  8
_0-9_寸法線層１
 10
-55.25
 20
-38.75
 41
1
 42
1
 50
0
  0
LINE
  8
_0-1_作画層１
  6
DASHED
 62
    7
 10
167.25
 20
71.25
 11
167.25
 21
38.75
  0
LINE
  8
_0-1_作画層１
  6
DASHED
 62
    7
 10
167.25
 20
38.75
 11
154.75
 21
38.75
  0
LINE
  8
_0-1_作画層１
  6
DASHED
 62
    7
 10
74.75
 20
71.25
 11
74.75
 21
38.75
  0
LINE
  8
_0-1_作画層１
  6
DASHED
 62
    7
 10
74.75
 20
38.75
 11
87.25
 21
38.75
  0
LINE
  8
_0-1_作画層１
  6
CENTER
 62
    7
 10
154.75
 20
162.25
 11
72.25
 21
162.25
  0
LINE
  8
_0-1_作画層１
  6
CENTER
 62
    7
 10
15.75
 20
121.25
 11
15.75
 21
203.25
  0
LINE
  8
_0-1_作画層１
  6
CENTER
 62
    7
 10
-25.25
 20
162.25
 11
56.75
 21
162.25
  0
LINE
  8
_0-1_作画層１
  6
CENTER
 62
    7
 10
15.75
 20
108.75
 11
15.75
 21
28.75
  0
LINE
  8
_0-1_作画層１
  6
CENTER
 62
    7
 10
218.25
 20
3.75
 11
218.25
 21
85.75
  0
LINE
  8
_0-1_作画層１
  6
CENTER
 62
    7
 10
177.25
 20
44.75
 11
259.25
 21
44.75
  0
LINE
  8
_0-1_作画層１
  6
CONTINUOUS
 62
    7
 10
7.1200000000000045
 20
184.51999999999998
 11
7.1200000000000045
 21
181.21999999999997
  0
LINE
  8
_0-1_作画層１
  6
CONTINUOUS
 62
    7
 10
7.1200000000000045
 20
184.51999999999998
 11
7.4499999999999886
 21
184.84999999999997
  0
LINE
  8
_0-1_作画層１
  6
CONTINUOUS
 62
    7
 10
7.4499999999999886
 20
184.84999999999997
 11
7.7800000000000011
 21
184.51999999999998
  0
LINE
  8
_0-1_作画層１
  6
CONTINUOUS
 62
    7
 10
7.7800000000000011
 20
184.51999999999998
 11
7.7800000000000011
 21
181.21999999999997
  0
LINE
  8
_0-1_作画層１
  6
CONTINUOUS
 62
    7
 10
7.1200000000000045
 20
181.21999999999997
 11
7.4499999999999886
 21
180.88999999999996
  0
LINE
  8
_0-1_作画層１
  6
CONTINUOUS
 62
    7
 10
7.7800000000000011
 20
181.21999999999997
 11
7.4499999999999886
 21
180.88999999999996
  0
LINE
  8
_0-1_作画層１
  6
CONTINUOUS
 62
    7
 10
7.4216904755831479
 20
180.91830952441683
 11
7.7800000000000011
 21
181.27661904883365
  0
LINE
  8
_0-1_作画層１
  6
CONTINUOUS
 62
    7
 10
7.3283523804665265
 20
181.01164761953342
 11
7.7800000000000011
 21
181.46329523906689
  0
LINE
  8
_0-1_作画層１
  6
CONTINUOUS
 62
    7
 10
7.2350142853499335
 20
181.10498571465004
 11
7.7800000000000011
 21
181.64997142930011
  0
LINE
  8
_0-1_作画層１
  6
CONTINUOUS
 62
    7
 10
7.1416761902332837
 20
181.19832380976669
 11
7.7800000000000011
 21
181.83664761953341
  0
LINE
  8
_0-1_作画層１
  6
CONTINUOUS
 62
    7
 10
7.1200000000000045
 20
181.36332380976665
 11
7.7800000000000011
 21
182.02332380976659
  0
LINE
  8
_0-1_作画層１
  6
CONTINUOUS
 62
    7
 10
7.1200000000000045
 20
181.54999999999987
 11
7.7800000000000011
 21
182.20999999999987
  0
LINE
  8
_0-1_作画層１
  6
CONTINUOUS
 62
    7
 10
7.1200000000000045
 20
181.73667619023308
 11
7.7800000000000011
 21
182.39667619023311
  0
LINE
  8
_0-1_作画層１
  6
CONTINUOUS
 62
    7
 10
7.1200000000000045
 20
181.92335238046635
 11
7.7800000000000011
 21
182.58335238046629
  0
LINE
  8
_0-1_作画層１
  6
CONTINUOUS
 62
    7
 10
7.1200000000000045
 20
182.11002857069951
 11
7.7800000000000011
 21
182.77002857069957
  0
LINE
  8
_0-1_作画層１
  6
CONTINUOUS
 62
    7
 10
7.1200000000000045
 20
182.29670476093278
 11
7.7800000000000011
 21
182.95670476093272
  0
LINE
  8
_0-1_作画層１
  6
CONTINUOUS
 62
    7
 10
7.1200000000000045
 20
182.48338095116605
 11
7.7800000000000011
 21
183.14338095116605
  0
LINE
  8
_0-1_作画層１
  6
CONTINUOUS
 62
    7
 10
7.1200000000000045
 20
182.67005714139927
 11
7.7800000000000011
 21
183.33005714139927
  0
LINE
  8
_0-1_作画層１
  6
CONTINUOUS
 62
    7
 10
7.1200000000000045
 20
182.85673333163254
 11
7.7800000000000011
 21
183.51673333163254
  0
LINE
  8
_0-1_作画層１
  6
CONTINUOUS
 62
    7
 10
7.1200000000000045
 20
183.04340952186575
 11
7.7800000000000011
 21
183.70340952186581
  0
LINE
  8
_0-1_作画層１
  6
CONTINUOUS
 62
    7
 10
7.1200000000000045
 20
183.23008571209903
 11
7.7800000000000011
 21
183.89008571209902
  0
LINE
  8
_0-1_作画層１
  6
CONTINUOUS
 62
    7
 10
7.1200000000000045
 20
183.4167619023323
 11
7.7800000000000011
 21
184.07676190233229
  0
LINE
  8
_0-1_作画層１
  6
CONTINUOUS
 62
    7
 10
7.1200000000000045
 20
183.60343809256545
 11
7.7800000000000011
 21
184.26343809256545
  0
LINE
  8
_0-1_作画層１
  6
CONTINUOUS
 62
    7
 10
7.1200000000000045
 20
183.79011428279873
 11
7.7800000000000011
 21
184.45011428279872
  0
LINE
  8
_0-1_作画層１
  6
CONTINUOUS
 62
    7
 10
7.1200000000000045
 20
183.97679047303194
 11
7.7216047634839811
 21
184.578395236516
  0
LINE
  8
_0-1_作画層１
  6
CONTINUOUS
 62
    7
 10
7.1200000000000045
 20
184.16346666326518
 11
7.6282666683673597
 21
184.67173333163259
  0
LINE
  8
_0-1_作画層１
  6
CONTINUOUS
 62
    7
 10
7.1200000000000045
 20
184.35014285349843
 11
7.5349285732507383
 21
184.76507142674919
  0
LINE
  8
_0-1_作画層１
  6
CONTINUOUS
 62
    7
 10
7.1200000000000045
 20
180.55999999999995
 11
7.1200000000000045
 21
177.25999999999993
  0
LINE
  8
_0-1_作画層１
  6
CONTINUOUS
 62
    7
 10
7.1200000000000045
 20
180.55999999999995
 11
7.4499999999999886
 21
180.88999999999996
  0
LINE
  8
_0-1_作画層１
  6
CONTINUOUS
 62
    7
 10
7.4499999999999886
 20
180.88999999999996
 11
7.7800000000000011
 21
180.55999999999995
  0
LINE
  8
_0-1_作画層１
  6
CONTINUOUS
 62
    7
 10
7.7800000000000011
 20
180.55999999999995
 11
7.7800000000000011
 21
177.25999999999993
  0
LINE
  8
_0-1_作画層１
  6
CONTINUOUS
 62
    7
 10
7.1200000000000045
 20
177.25999999999993
 11
7.4499999999999886
 21
176.92999999999998
  0
LINE
  8
_0-1_作画層１
  6
CONTINUOUS
 62
    7
 10
7.7800000000000011
 20
177.25999999999993
 11
7.4499999999999886
 21
176.92999999999998
  0
LINE
  8
_0-1_作画層１
  6
CONTINUOUS
 62
    7
 10
7.4216904755831479
 20
176.95830952441685
 11
7.7800000000000011
 21
177.31661904883367
  0
LINE
  8
_0-1_作画層１
  6
CONTINUOUS
 62
    7
 10
7.3283523804665265
 20
177.05164761953341
 11
7.7800000000000011
 21
177.50329523906694
  0
LINE
  8
_0-1_作画層１
  6
CONTINUOUS
 62
    7
 10
7.2350142853499335
 20
177.14498571465006
 11
7.7800000000000011
 21
177.6899714293001
  0
LINE
  8
_0-1_作画層１
  6
CONTINUOUS
 62
    7
 10
7.1416761902332837
 20
177.23832380976665
 11
7.7800000000000011
 21
177.87664761953343
  0
LINE
  8
_0-1_作画層１
  6
CONTINUOUS
 62
    7
 10
7.1200000000000045
 20
177.40332380976662
 11
7.7800000000000011
 21
178.06332380976664
  0
LINE
  8
_0-1_作画層１
  6
CONTINUOUS
 62
    7
 10
7.1200000000000045
 20
177.58999999999986
 11
7.7800000000000011
 21
178.24999999999986
  0
LINE
  8
_0-1_作画層１
  6
CONTINUOUS
 62
    7
 10
7.1200000000000045
 20
177.7766761902331
 11
7.7800000000000011
 21
178.43667619023307
  0
LINE
  8
_0-1_作画層１
  6
CONTINUOUS
 62
    7
 10
7.1200000000000045
 20
177.96335238046632
 11
7.7800000000000011
 21
178.62335238046634
  0
LINE
  8
_0-1_作画層１
  6
CONTINUOUS
 62
    7
 10
7.1200000000000045
 20
178.15002857069953
 11
7.7800000000000011
 21
178.81002857069953
  0
LINE
  8
_0-1_作画層１
  6
CONTINUOUS
 62
    7
 10
7.1200000000000045
 20
178.33670476093275
 11
7.7800000000000011
 21
178.9967047609328
  0
LINE
  8
_0-1_作画層１
  6
CONTINUOUS
 62
    7
 10
7.1200000000000045
 20
178.52338095116602
 11
7.7800000000000011
 21
179.18338095116604
  0
LINE
  8
_0-1_作画層１
  6
CONTINUOUS
 62
    7
 10
7.1200000000000045
 20
178.71005714139929
 11
7.7800000000000011
 21
179.37005714139929
  0
LINE
  8
_0-1_作画層１
  6
CONTINUOUS
 62
    7
 10
7.1200000000000045
 20
178.89673333163256
 11
7.7800000000000011
 21
179.55673333163253
  0
LINE
  8
_0-1_作画層１
  6
CONTINUOUS
 62
    7
 10
7.1200000000000045
 20
179.08340952186578
 11
7.7800000000000011
 21
179.74340952186577
  0
LINE
  8
_0-1_作画層１
  6
CONTINUOUS
 62
    7
 10
7.1200000000000045
 20
179.27008571209905
 11
7.7800000000000011
 21
179.93008571209901
  0
LINE
  8
_0-1_作画層１
  6
CONTINUOUS
 62
    7
 10
7.1200000000000045
 20
179.45676190233226
 11
7.7800000000000011
 21
180.11676190233229
  0
LINE
  8
_0-1_作画層１
  6
CONTINUOUS
 62
    7
 10
7.1200000000000045
 20
179.64343809256548
 11
7.7800000000000011
 21
180.30343809256547
  0
LINE
  8
_0-1_作画層１
  6
CONTINUOUS
 62
    7
 10
7.1200000000000045
 20
179.83011428279869
 11
7.7800000000000011
 21
180.49011428279874
  0
LINE
  8
_0-1_作画層１
  6
CONTINUOUS
 62
    7
 10
7.1200000000000045
 20
180.01679047303196
 11
7.7216047634839811
 21
180.61839523651597
  0
LINE
  8
_0-1_作画層１
  6
CONTINUOUS
 62
    7
 10
7.1200000000000045
 20
180.20346666326523
 11
7.6282666683673597
 21
180.71173333163262
  0
LINE
  8
_0-1_作画層１
  6
CONTINUOUS
 62
    7
 10
7.1200000000000045
 20
180.39014285349845
 11
7.5349285732507383
 21
180.80507142674918
  0
LINE
  8
_0-1_作画層１
  6
CONTINUOUS
 62
    7
 10
10.120000000000005
 20
184.51999999999998
 11
10.120000000000005
 21
181.21999999999997
  0
LINE
  8
_0-1_作画層１
  6
CONTINUOUS
 62
    7
 10
10.780000000000001
 20
184.51999999999998
 11
10.780000000000001
 21
181.21999999999997
  0
LINE
  8
_0-1_作画層１
  6
CONTINUOUS
 62
    7
 10
10.120000000000005
 20
181.21999999999997
 11
10.449999999999989
 21
180.88999999999996
  0
LINE
  8
_0-1_作画層１
  6
CONTINUOUS
 62
    7
 10
10.780000000000001
 20
181.21999999999997
 11
10.449999999999989
 21
180.88999999999996
  0
LINE
  8
_0-1_作画層１
  6
CONTINUOUS
 62
    7
 10
10.421690475583148
 20
180.91830952441683
 11
10.780000000000001
 21
181.27661904883365
  0
LINE
  8
_0-1_作画層１
  6
CONTINUOUS
 62
    7
 10
10.328352380466526
 20
181.01164761953342
 11
10.780000000000001
 21
181.46329523906689
  0
LINE
  8
_0-1_作画層１
  6
CONTINUOUS
 62
    7
 10
10.235014285349934
 20
181.10498571465004
 11
10.780000000000001
 21
181.64997142930011
  0
LINE
  8
_0-1_作画層１
  6
CONTINUOUS
 62
    7
 10
10.141676190233255
 20
181.19832380976669
 11
10.780000000000001
 21
181.83664761953341
  0
LINE
  8
_0-1_作画層１
  6
CONTINUOUS
 62
    7
 10
10.120000000000005
 20
181.36332380976665
 11
10.780000000000001
 21
182.02332380976659
  0
LINE
  8
_0-1_作画層１
  6
CONTINUOUS
 62
    7
 10
10.120000000000005
 20
181.54999999999987
 11
10.780000000000001
 21
182.20999999999987
  0
LINE
  8
_0-1_作画層１
  6
CONTINUOUS
 62
    7
 10
10.120000000000005
 20
181.73667619023308
 11
10.780000000000001
 21
182.39667619023311
  0
LINE
  8
_0-1_作画層１
  6
CONTINUOUS
 62
    7
 10
10.120000000000005
 20
181.92335238046635
 11
10.780000000000001
 21
182.58335238046629
  0
LINE
  8
_0-1_作画層１
  6
CONTINUOUS
 62
    7
 10
10.120000000000005
 20
182.11002857069951
 11
10.780000000000001
 21
182.77002857069957
  0
LINE
  8
_0-1_作画層１
  6
CONTINUOUS
 62
    7
 10
10.120000000000005
 20
182.29670476093278
 11
10.780000000000001
 21
182.95670476093272
  0
LINE
  8
_0-1_作画層１
  6
CONTINUOUS
 62
    7
 10
10.120000000000005
 20
182.48338095116605
 11
10.780000000000001
 21
183.14338095116605
  0
LINE
  8
_0-1_作画層１
  6
CONTINUOUS
 62
    7
 10
10.120000000000005
 20
182.67005714139927
 11
10.780000000000001
 21
183.33005714139927
  0
LINE
  8
_0-1_作画層１
  6
CONTINUOUS
 62
    7
 10
10.120000000000005
 20
182.85673333163254
 11
10.780000000000001
 21
183.51673333163254
  0
LINE
  8
_0-1_作画層１
  6
CONTINUOUS
 62
    7
 10
10.120000000000005
 20
183.04340952186575
 11
10.780000000000001
 21
183.70340952186581
  0
LINE
  8
_0-1_作画層１
  6
CONTINUOUS
 62
    7
 10
10.120000000000005
 20
183.23008571209903
 11
10.780000000000001
 21
183.89008571209902
  0
LINE
  8
_0-1_作画層１
  6
CONTINUOUS
 62
    7
 10
10.120000000000005
 20
183.4167619023323
 11
10.780000000000001
 21
184.07676190233229
  0
LINE
  8
_0-1_作画層１
  6
CONTINUOUS
 62
    7
 10
10.120000000000005
 20
183.60343809256545
 11
10.780000000000001
 21
184.26343809256545
  0
LINE
  8
_0-1_作画層１
  6
CONTINUOUS
 62
    7
 10
10.120000000000005
 20
183.79011428279873
 11
10.780000000000001
 21
184.45011428279872
  0
LINE
  8
_0-1_作画層１
  6
CONTINUOUS
 62
    7
 10
10.120000000000005
 20
183.97679047303194
 11
10.721604763483981
 21
184.578395236516
  0
LINE
  8
_0-1_作画層１
  6
CONTINUOUS
 62
    7
 10
10.120000000000005
 20
184.16346666326518
 11
10.62826666836736
 21
184.67173333163259
  0
LINE
  8
_0-1_作画層１
  6
CONTINUOUS
 62
    7
 10
10.120000000000005
 20
184.35014285349843
 11
10.534928573250738
 21
184.76507142674919
  0
LINE
  8
_0-1_作画層１
  6
CONTINUOUS
 62
    7
 10
10.120000000000005
 20
180.55999999999995
 11
10.120000000000005
 21
177.25999999999993
  0
LINE
  8
_0-1_作画層１
  6
CONTINUOUS
 62
    7
 10
10.120000000000005
 20
180.55999999999995
 11
10.449999999999989
 21
180.88999999999996
  0
LINE
  8
_0-1_作画層１
  6
CONTINUOUS
 62
    7
 10
10.449999999999989
 20
180.88999999999996
 11
10.780000000000001
 21
180.55999999999995
  0
LINE
  8
_0-1_作画層１
  6
CONTINUOUS
 62
    7
 10
10.780000000000001
 20
180.55999999999995
 11
10.780000000000001
 21
177.25999999999993
  0
LINE
  8
_0-1_作画層１
  6
CONTINUOUS
 62
    7
 10
10.120000000000005
 20
177.25999999999993
 11
10.449999999999989
 21
176.92999999999998
  0
LINE
  8
_0-1_作画層１
  6
CONTINUOUS
 62
    7
 10
10.780000000000001
 20
177.25999999999993
 11
10.449999999999989
 21
176.92999999999998
  0
LINE
  8
_0-1_作画層１
  6
CONTINUOUS
 62
    7
 10
10.421690475583148
 20
176.95830952441685
 11
10.780000000000001
 21
177.31661904883367
  0
LINE
  8
_0-1_作画層１
  6
CONTINUOUS
 62
    7
 10
10.328352380466526
 20
177.05164761953341
 11
10.780000000000001
 21
177.50329523906694
  0
LINE
  8
_0-1_作画層１
  6
CONTINUOUS
 62
    7
 10
10.235014285349934
 20
177.14498571465006
 11
10.780000000000001
 21
177.6899714293001
  0
LINE
  8
_0-1_作画層１
  6
CONTINUOUS
 62
    7
 10
10.141676190233255
 20
177.23832380976665
 11
10.780000000000001
 21
177.87664761953343
  0
LINE
  8
_0-1_作画層１
  6
CONTINUOUS
 62
    7
 10
10.120000000000005
 20
177.40332380976662
 11
10.780000000000001
 21
178.06332380976664
  0
LINE
  8
_0-1_作画層１
  6
CONTINUOUS
 62
    7
 10
10.120000000000005
 20
177.58999999999986
 11
10.780000000000001
 21
178.24999999999986
  0
LINE
  8
_0-1_作画層１
  6
CONTINUOUS
 62
    7
 10
10.120000000000005
 20
177.7766761902331
 11
10.780000000000001
 21
178.43667619023307
  0
LINE
  8
_0-1_作画層１
  6
CONTINUOUS
 62
    7
 10
10.120000000000005
 20
177.96335238046632
 11
10.780000000000001
 21
178.62335238046634
  0
LINE
  8
_0-1_作画層１
  6
CONTINUOUS
 62
    7
 10
10.120000000000005
 20
178.15002857069953
 11
10.780000000000001
 21
178.81002857069953
  0
LINE
  8
_0-1_作画層１
  6
CONTINUOUS
 62
    7
 10
10.120000000000005
 20
178.33670476093275
 11
10.780000000000001
 21
178.9967047609328
  0
LINE
  8
_0-1_作画層１
  6
CONTINUOUS
 62
    7
 10
10.120000000000005
 20
178.52338095116602
 11
10.780000000000001
 21
179.18338095116604
  0
LINE
  8
_0-1_作画層１
  6
CONTINUOUS
 62
    7
 10
10.120000000000005
 20
178.71005714139929
 11
10.780000000000001
 21
179.37005714139929
  0
LINE
  8
_0-1_作画層１
  6
CONTINUOUS
 62
    7
 10
10.120000000000005
 20
178.89673333163256
 11
10.780000000000001
 21
179.55673333163253
  0
LINE
  8
_0-1_作画層１
  6
CONTINUOUS
 62
    7
 10
10.120000000000005
 20
179.08340952186578
 11
10.780000000000001
 21
179.74340952186577
  0
LINE
  8
_0-1_作画層１
  6
CONTINUOUS
 62
    7
 10
10.120000000000005
 20
179.27008571209905
 11
10.780000000000001
 21
179.93008571209901
  0
LINE
  8
_0-1_作画層１
  6
CONTINUOUS
 62
    7
 10
10.120000000000005
 20
179.45676190233226
 11
10.780000000000001
 21
180.11676190233229
  0
LINE
  8
_0-1_作画層１
  6
CONTINUOUS
 62
    7
 10
10.120000000000005
 20
179.64343809256548
 11
10.780000000000001
 21
180.30343809256547
  0
LINE
  8
_0-1_作画層１
  6
CONTINUOUS
 62
    7
 10
10.120000000000005
 20
179.83011428279869
 11
10.780000000000001
 21
180.49011428279874
  0
LINE
  8
_0-1_作画層１
  6
CONTINUOUS
 62
    7
 10
10.120000000000005
 20
180.01679047303196
 11
10.721604763483981
 21
180.61839523651597
  0
LINE
  8
_0-1_作画層１
  6
CONTINUOUS
 62
    7
 10
10.120000000000005
 20
180.20346666326523
 11
10.62826666836736
 21
180.71173333163262
  0
LINE
  8
_0-1_作画層１
  6
CONTINUOUS
 62
    7
 10
10.120000000000005
 20
180.39014285349845
 11
10.534928573250738
 21
180.80507142674918
  0
LINE
  8
_0-1_作画層１
  6
CONTINUOUS
 62
    7
 10
10.75
 20
184.84999999999997
 11
11.080000000000013
 21
184.51999999999998
  0
LINE
  8
_0-1_作画層１
  6
CONTINUOUS
 62
    7
 10
11.080000000000041
 20
184.52000000000004
 11
14.380000000000052
 21
184.52000000000004
  0
LINE
  8
_0-1_作画層１
  6
CONTINUOUS
 62
    7
 10
11.080000000000041
 20
184.52000000000004
 11
10.750000000000028
 21
184.84999999999999
  0
LINE
  8
_0-1_作画層１
  6
CONTINUOUS
 62
    7
 10
10.750000000000028
 20
184.84999999999999
 11
11.080000000000041
 21
185.18000000000001
  0
LINE
  8
_0-1_作画層１
  6
CONTINUOUS
 62
    7
 10
11.080000000000041
 20
185.18000000000001
 11
14.380000000000052
 21
185.18000000000001
  0
LINE
  8
_0-1_作画層１
  6
CONTINUOUS
 62
    7
 10
14.380000000000052
 20
184.52000000000004
 11
14.710000000000036
 21
184.84999999999999
  0
LINE
  8
_0-1_作画層１
  6
CONTINUOUS
 62
    7
 10
14.380000000000052
 20
185.18000000000001
 11
14.710000000000036
 21
184.84999999999999
  0
LINE
  8
_0-1_作画層１
  6
CONTINUOUS
 62
    7
 10
14.681690475583167
 20
184.82169047558318
 11
14.323380951166314
 21
185.18000000000001
  0
LINE
  8
_0-1_作画層１
  6
CONTINUOUS
 62
    7
 10
14.588352380466603
 20
184.72835238046656
 11
14.1367047609331
 21
185.18000000000001
  0
LINE
  8
_0-1_作画層１
  6
CONTINUOUS
 62
    7
 10
14.495014285349953
 20
184.63501428534991
 11
13.950028570699885
 21
185.18000000000001
  0
LINE
  8
_0-1_作画層１
  6
CONTINUOUS
 62
    7
 10
14.401676190233331
 20
184.54167619023329
 11
13.763352380466586
 21
185.18000000000001
  0
LINE
  8
_0-1_作画層１
  6
CONTINUOUS
 62
    7
 10
14.236676190233368
 20
184.52000000000004
 11
13.576676190233371
 21
185.18000000000001
  0
LINE
  8
_0-1_作画層１
  6
CONTINUOUS
 62
    7
 10
14.050000000000125
 20
184.52000000000004
 11
13.390000000000157
 21
185.18000000000001
  0
LINE
  8
_0-1_作画層１
  6
CONTINUOUS
 62
    7
 10
13.863323809766882
 20
184.52000000000004
 11
13.203323809766914
 21
185.18000000000001
  0
LINE
  8
_0-1_作画層１
  6
CONTINUOUS
 62
    7
 10
13.676647619533668
 20
184.52000000000004
 11
13.016647619533671
 21
185.18000000000001
  0
LINE
  8
_0-1_作画層１
  6
CONTINUOUS
 62
    7
 10
13.489971429300454
 20
184.52000000000004
 11
12.829971429300457
 21
185.18000000000001
  0
LINE
  8
_0-1_作画層１
  6
CONTINUOUS
 62
    7
 10
13.303295239067211
 20
184.52000000000004
 11
12.643295239067243
 21
185.18000000000001
  0
LINE
  8
_0-1_作画層１
  6
CONTINUOUS
 62
    7
 10
13.116619048833968
 20
184.52000000000004
 11
12.456619048833943
 21
185.18000000000001
  0
LINE
  8
_0-1_作画層１
  6
CONTINUOUS
 62
    7
 10
12.929942858600725
 20
184.52000000000004
 11
12.2699428586007
 21
185.18000000000001
  0
LINE
  8
_0-1_作画層１
  6
CONTINUOUS
 62
    7
 10
12.743266668367454
 20
184.52000000000004
 11
12.083266668367457
 21
185.18000000000001
  0
LINE
  8
_0-1_作画層１
  6
CONTINUOUS
 62
    7
 10
12.55659047813424
 20
184.52000000000004
 11
11.896590478134215
 21
185.18000000000001
  0
LINE
  8
_0-1_作画層１
  6
CONTINUOUS
 62
    7
 10
12.369914287900997
 20
184.52000000000004
 11
11.709914287900972
 21
185.18000000000001
  0
LINE
  8
_0-1_作画層１
  6
CONTINUOUS
 62
    7
 10
12.183238097667726
 20
184.52000000000004
 11
11.523238097667729
 21
185.18000000000001
  0
LINE
  8
_0-1_作画層１
  6
CONTINUOUS
 62
    7
 10
11.99656190743454
 20
184.52000000000004
 11
11.336561907434543
 21
185.18000000000001
  0
LINE
  8
_0-1_作画層１
  6
CONTINUOUS
 62
    7
 10
11.809885717201297
 20
184.52000000000004
 11
11.149885717201272
 21
185.18000000000001
  0
LINE
  8
_0-1_作画層１
  6
CONTINUOUS
 62
    7
 10
11.623209526968026
 20
184.52000000000004
 11
11.021604763484021
 21
185.12160476348399
  0
LINE
  8
_0-1_作画層１
  6
CONTINUOUS
 62
    7
 10
11.436533336734811
 20
184.52000000000004
 11
10.928266668367399
 21
185.02826666836739
  0
LINE
  8
_0-1_作画層１
  6
CONTINUOUS
 62
    7
 10
11.24985714650154
 20
184.52000000000004
 11
10.834928573250806
 21
184.93492857325072
  0
LINE
  8
_0-1_作画層１
  6
CONTINUOUS
 62
    7
 10
10.120000000000005
 20
184.51999999999998
 11
10.449999999999989
 21
184.84999999999997
  0
LINE
  8
_0-1_作画層１
  6
CONTINUOUS
 62
    7
 10
10.449999999999989
 20
184.84999999999997
 11
10.780000000000001
 21
184.51999999999998
  0
LINE
  8
_0-1_作画層１
  6
CONTINUOUS
 62
    7
 10
10.78000000000003
 20
184.52000000000004
 11
10.450000000000045
 21
184.84999999999999
  0
LINE
  8
_0-1_作画層１
  6
CONTINUOUS
 62
    7
 10
10.75
 20
177.04999999999995
 11
11.080000000000013
 21
176.71999999999997
  0
LINE
  8
_0-1_作画層１
  6
CONTINUOUS
 62
    7
 10
11.080000000000041
 20
176.72000000000003
 11
14.380000000000052
 21
176.72000000000003
  0
LINE
  8
_0-1_作画層１
  6
CONTINUOUS
 62
    7
 10
11.080000000000041
 20
176.72000000000003
 11
10.750000000000028
 21
177.05000000000001
  0
LINE
  8
_0-1_作画層１
  6
CONTINUOUS
 62
    7
 10
10.750000000000028
 20
177.05000000000001
 11
11.080000000000041
 21
177.38000000000002
  0
LINE
  8
_0-1_作画層１
  6
CONTINUOUS
 62
    7
 10
11.080000000000041
 20
177.38000000000002
 11
14.380000000000052
 21
177.38000000000002
  0
LINE
  8
_0-1_作画層１
  6
CONTINUOUS
 62
    7
 10
14.380000000000052
 20
176.72000000000003
 11
14.710000000000036
 21
177.05000000000001
  0
LINE
  8
_0-1_作画層１
  6
CONTINUOUS
 62
    7
 10
14.380000000000052
 20
177.38000000000002
 11
14.710000000000036
 21
177.05000000000001
  0
LINE
  8
_0-1_作画層１
  6
CONTINUOUS
 62
    7
 10
14.681690475583167
 20
177.02169047558317
 11
14.323380951166314
 21
177.38000000000002
  0
LINE
  8
_0-1_作画層１
  6
CONTINUOUS
 62
    7
 10
14.588352380466603
 20
176.92835238046655
 11
14.1367047609331
 21
177.38000000000002
  0
LINE
  8
_0-1_作画層１
  6
CONTINUOUS
 62
    7
 10
14.495014285349953
 20
176.83501428534993
 11
13.950028570699885
 21
177.38000000000002
  0
LINE
  8
_0-1_作画層１
  6
CONTINUOUS
 62
    7
 10
14.401676190233331
 20
176.74167619023328
 11
13.763352380466586
 21
177.38000000000002
  0
LINE
  8
_0-1_作画層１
  6
CONTINUOUS
 62
    7
 10
14.236676190233368
 20
176.72000000000003
 11
13.576676190233371
 21
177.38000000000002
  0
LINE
  8
_0-1_作画層１
  6
CONTINUOUS
 62
    7
 10
14.050000000000125
 20
176.72000000000003
 11
13.390000000000157
 21
177.38000000000002
  0
LINE
  8
_0-1_作画層１
  6
CONTINUOUS
 62
    7
 10
13.863323809766882
 20
176.72000000000003
 11
13.203323809766914
 21
177.38000000000002
  0
LINE
  8
_0-1_作画層１
  6
CONTINUOUS
 62
    7
 10
13.676647619533668
 20
176.72000000000003
 11
13.016647619533671
 21
177.38000000000002
  0
LINE
  8
_0-1_作画層１
  6
CONTINUOUS
 62
    7
 10
13.489971429300454
 20
176.72000000000003
 11
12.829971429300457
 21
177.38000000000002
  0
LINE
  8
_0-1_作画層１
  6
CONTINUOUS
 62
    7
 10
13.303295239067211
 20
176.72000000000003
 11
12.643295239067243
 21
177.38000000000002
  0
LINE
  8
_0-1_作画層１
  6
CONTINUOUS
 62
    7
 10
13.116619048833968
 20
176.72000000000003
 11
12.456619048833943
 21
177.38000000000002
  0
LINE
  8
_0-1_作画層１
  6
CONTINUOUS
 62
    7
 10
12.929942858600725
 20
176.72000000000003
 11
12.2699428586007
 21
177.38000000000002
  0
LINE
  8
_0-1_作画層１
  6
CONTINUOUS
 62
    7
 10
12.743266668367454
 20
176.72000000000003
 11
12.083266668367457
 21
177.38000000000002
  0
LINE
  8
_0-1_作画層１
  6
CONTINUOUS
 62
    7
 10
12.55659047813424
 20
176.72000000000003
 11
11.896590478134215
 21
177.38000000000002
  0
LINE
  8
_0-1_作画層１
  6
CONTINUOUS
 62
    7
 10
12.369914287900997
 20
176.72000000000003
 11
11.709914287900972
 21
177.38000000000002
  0
LINE
  8
_0-1_作画層１
  6
CONTINUOUS
 62
    7
 10
12.183238097667726
 20
176.72000000000003
 11
11.523238097667729
 21
177.38000000000002
  0
LINE
  8
_0-1_作画層１
  6
CONTINUOUS
 62
    7
 10
11.99656190743454
 20
176.72000000000003
 11
11.336561907434543
 21
177.38000000000002
  0
LINE
  8
_0-1_作画層１
  6
CONTINUOUS
 62
    7
 10
11.809885717201297
 20
176.72000000000003
 11
11.149885717201272
 21
177.38000000000002
  0
LINE
  8
_0-1_作画層１
  6
CONTINUOUS
 62
    7
 10
11.623209526968026
 20
176.72000000000003
 11
11.021604763484021
 21
177.321604763484
  0
LINE
  8
_0-1_作画層１
  6
CONTINUOUS
 62
    7
 10
11.436533336734811
 20
176.72000000000003
 11
10.928266668367399
 21
177.22826666836741
  0
LINE
  8
_0-1_作画層１
  6
CONTINUOUS
 62
    7
 10
11.24985714650154
 20
176.72000000000003
 11
10.834928573250806
 21
177.13492857325073
  0
LINE
  8
_0-1_作画層１
  6
CONTINUOUS
 62
    7
 10
14.620000000000005
 20
184.51999999999998
 11
14.620000000000005
 21
181.21999999999997
  0
LINE
  8
_0-1_作画層１
  6
CONTINUOUS
 62
    7
 10
15.280000000000001
 20
184.51999999999998
 11
15.280000000000001
 21
181.21999999999997
  0
LINE
  8
_0-1_作画層１
  6
CONTINUOUS
 62
    7
 10
14.620000000000005
 20
181.21999999999997
 11
14.949999999999989
 21
180.88999999999996
  0
LINE
  8
_0-1_作画層１
  6
CONTINUOUS
 62
    7
 10
15.280000000000001
 20
181.21999999999997
 11
14.949999999999989
 21
180.88999999999996
  0
LINE
  8
_0-1_作画層１
  6
CONTINUOUS
 62
    7
 10
14.921690475583148
 20
180.91830952441683
 11
15.280000000000001
 21
181.27661904883365
  0
LINE
  8
_0-1_作画層１
  6
CONTINUOUS
 62
    7
 10
14.828352380466526
 20
181.01164761953342
 11
15.280000000000001
 21
181.46329523906689
  0
LINE
  8
_0-1_作画層１
  6
CONTINUOUS
 62
    7
 10
14.735014285349934
 20
181.10498571465004
 11
15.280000000000001
 21
181.64997142930011
  0
LINE
  8
_0-1_作画層１
  6
CONTINUOUS
 62
    7
 10
14.641676190233255
 20
181.19832380976669
 11
15.280000000000001
 21
181.83664761953341
  0
LINE
  8
_0-1_作画層１
  6
CONTINUOUS
 62
    7
 10
14.620000000000005
 20
181.36332380976665
 11
15.280000000000001
 21
182.02332380976659
  0
LINE
  8
_0-1_作画層１
  6
CONTINUOUS
 62
    7
 10
14.620000000000005
 20
181.54999999999987
 11
15.280000000000001
 21
182.20999999999987
  0
LINE
  8
_0-1_作画層１
  6
CONTINUOUS
 62
    7
 10
14.620000000000005
 20
181.73667619023308
 11
15.280000000000001
 21
182.39667619023311
  0
LINE
  8
_0-1_作画層１
  6
CONTINUOUS
 62
    7
 10
14.620000000000005
 20
181.92335238046635
 11
15.280000000000001
 21
182.58335238046629
  0
LINE
  8
_0-1_作画層１
  6
CONTINUOUS
 62
    7
 10
14.620000000000005
 20
182.11002857069951
 11
15.280000000000001
 21
182.77002857069957
  0
LINE
  8
_0-1_作画層１
  6
CONTINUOUS
 62
    7
 10
14.620000000000005
 20
182.29670476093278
 11
15.280000000000001
 21
182.95670476093272
  0
LINE
  8
_0-1_作画層１
  6
CONTINUOUS
 62
    7
 10
14.620000000000005
 20
182.48338095116605
 11
15.280000000000001
 21
183.14338095116605
  0
LINE
  8
_0-1_作画層１
  6
CONTINUOUS
 62
    7
 10
14.620000000000005
 20
182.67005714139927
 11
15.280000000000001
 21
183.33005714139927
  0
LINE
  8
_0-1_作画層１
  6
CONTINUOUS
 62
    7
 10
14.620000000000005
 20
182.85673333163254
 11
15.280000000000001
 21
183.51673333163254
  0
LINE
  8
_0-1_作画層１
  6
CONTINUOUS
 62
    7
 10
14.620000000000005
 20
183.04340952186575
 11
15.280000000000001
 21
183.70340952186581
  0
LINE
  8
_0-1_作画層１
  6
CONTINUOUS
 62
    7
 10
14.620000000000005
 20
183.23008571209903
 11
15.280000000000001
 21
183.89008571209902
  0
LINE
  8
_0-1_作画層１
  6
CONTINUOUS
 62
    7
 10
14.620000000000005
 20
183.4167619023323
 11
15.280000000000001
 21
184.07676190233229
  0
LINE
  8
_0-1_作画層１
  6
CONTINUOUS
 62
    7
 10
14.620000000000005
 20
183.60343809256545
 11
15.280000000000001
 21
184.26343809256545
  0
LINE
  8
_0-1_作画層１
  6
CONTINUOUS
 62
    7
 10
14.620000000000005
 20
183.79011428279873
 11
15.280000000000001
 21
184.45011428279872
  0
LINE
  8
_0-1_作画層１
  6
CONTINUOUS
 62
    7
 10
14.620000000000005
 20
183.97679047303194
 11
15.221604763483981
 21
184.578395236516
  0
LINE
  8
_0-1_作画層１
  6
CONTINUOUS
 62
    7
 10
14.620000000000005
 20
184.16346666326518
 11
15.12826666836736
 21
184.67173333163259
  0
LINE
  8
_0-1_作画層１
  6
CONTINUOUS
 62
    7
 10
14.620000000000005
 20
184.35014285349843
 11
15.034928573250738
 21
184.76507142674919
  0
LINE
  8
_0-1_作画層１
  6
CONTINUOUS
 62
    7
 10
14.620000000000005
 20
184.51999999999998
 11
14.949999999999989
 21
184.84999999999997
  0
LINE
  8
_0-1_作画層１
  6
CONTINUOUS
 62
    7
 10
14.949999999999989
 20
184.84999999999997
 11
15.280000000000001
 21
184.51999999999998
  0
LINE
  8
_0-1_作画層１
  6
CONTINUOUS
 62
    7
 10
15.28000000000003
 20
184.52000000000004
 11
14.950000000000045
 21
184.84999999999999
  0
LINE
  8
_0-1_作画層１
  6
CONTINUOUS
 62
    7
 10
14.620000000000005
 20
180.61999999999998
 11
14.620000000000005
 21
177.31999999999999
  0
LINE
  8
_0-1_作画層１
  6
CONTINUOUS
 62
    7
 10
15.280000000000001
 20
180.61999999999998
 11
15.280000000000001
 21
177.31999999999999
  0
LINE
  8
_0-1_作画層１
  6
CONTINUOUS
 62
    7
 10
14.620000000000005
 20
177.31999999999999
 11
14.949999999999989
 21
176.98999999999995
  0
LINE
  8
_0-1_作画層１
  6
CONTINUOUS
 62
    7
 10
15.280000000000001
 20
177.31999999999999
 11
14.949999999999989
 21
176.98999999999995
  0
LINE
  8
_0-1_作画層１
  6
CONTINUOUS
 62
    7
 10
14.921690475583148
 20
177.01830952441682
 11
15.280000000000001
 21
177.37661904883367
  0
LINE
  8
_0-1_作画層１
  6
CONTINUOUS
 62
    7
 10
14.828352380466526
 20
177.11164761953341
 11
15.280000000000001
 21
177.56329523906689
  0
LINE
  8
_0-1_作画層１
  6
CONTINUOUS
 62
    7
 10
14.735014285349934
 20
177.20498571465004
 11
15.280000000000001
 21
177.7499714293001
  0
LINE
  8
_0-1_作画層１
  6
CONTINUOUS
 62
    7
 10
14.641676190233255
 20
177.29832380976669
 11
15.280000000000001
 21
177.9366476195334
  0
LINE
  8
_0-1_作画層１
  6
CONTINUOUS
 62
    7
 10
14.620000000000005
 20
177.46332380976665
 11
15.280000000000001
 21
178.12332380976659
  0
LINE
  8
_0-1_作画層１
  6
CONTINUOUS
 62
    7
 10
14.620000000000005
 20
177.64999999999986
 11
15.280000000000001
 21
178.30999999999986
  0
LINE
  8
_0-1_作画層１
  6
CONTINUOUS
 62
    7
 10
14.620000000000005
 20
177.83667619023308
 11
15.280000000000001
 21
178.49667619023313
  0
LINE
  8
_0-1_作画層１
  6
CONTINUOUS
 62
    7
 10
14.620000000000005
 20
178.02335238046635
 11
15.280000000000001
 21
178.68335238046629
  0
LINE
  8
_0-1_作画層１
  6
CONTINUOUS
 62
    7
 10
14.620000000000005
 20
178.21002857069954
 11
15.280000000000001
 21
178.87002857069956
  0
LINE
  8
_0-1_作画層１
  6
CONTINUOUS
 62
    7
 10
14.620000000000005
 20
178.39670476093278
 11
15.280000000000001
 21
179.05670476093275
  0
LINE
  8
_0-1_作画層１
  6
CONTINUOUS
 62
    7
 10
14.620000000000005
 20
178.58338095116605
 11
15.280000000000001
 21
179.24338095116605
  0
LINE
  8
_0-1_作画層１
  6
CONTINUOUS
 62
    7
 10
14.620000000000005
 20
178.77005714139926
 11
15.280000000000001
 21
179.43005714139926
  0
LINE
  8
_0-1_作画層１
  6
CONTINUOUS
 62
    7
 10
14.620000000000005
 20
178.95673333163253
 11
15.280000000000001
 21
179.61673333163253
  0
LINE
  8
_0-1_作画層１
  6
CONTINUOUS
 62
    7
 10
14.620000000000005
 20
179.14340952186575
 11
15.280000000000001
 21
179.8034095218658
  0
LINE
  8
_0-1_作画層１
  6
CONTINUOUS
 62
    7
 10
14.620000000000005
 20
179.33008571209902
 11
15.280000000000001
 21
179.99008571209902
  0
LINE
  8
_0-1_作画層１
  6
CONTINUOUS
 62
    7
 10
14.620000000000005
 20
179.51676190233229
 11
15.280000000000001
 21
180.17676190233229
  0
LINE
  8
_0-1_作画層１
  6
CONTINUOUS
 62
    7
 10
14.620000000000005
 20
179.70343809256548
 11
15.280000000000001
 21
180.36343809256545
  0
LINE
  8
_0-1_作画層１
  6
CONTINUOUS
 62
    7
 10
14.620000000000005
 20
179.89011428279872
 11
15.280000000000001
 21
180.55011428279872
  0
LINE
  8
_0-1_作画層１
  6
CONTINUOUS
 62
    7
 10
14.620000000000005
 20
180.07679047303196
 11
15.221604763483981
 21
180.678395236516
  0
LINE
  8
_0-1_作画層１
  6
CONTINUOUS
 62
    7
 10
14.620000000000005
 20
180.26346666326518
 11
15.12826666836736
 21
180.77173333163259
  0
LINE
  8
_0-1_作画層１
  6
CONTINUOUS
 62
    7
 10
14.620000000000005
 20
180.45014285349845
 11
15.034928573250738
 21
180.86507142674918
  0
LINE
  8
_0-1_作画層１
  6
CONTINUOUS
 62
    7
 10
14.620000000000005
 20
180.61999999999998
 11
14.949999999999989
 21
180.94999999999996
  0
LINE
  8
_0-1_作画層１
  6
CONTINUOUS
 62
    7
 10
14.949999999999989
 20
180.94999999999996
 11
15.280000000000001
 21
180.61999999999998
  0
LINE
  8
_0-1_作画層１
  6
CONTINUOUS
 62
    7
 10
15.28000000000003
 20
180.62000000000003
 11
14.950000000000045
 21
180.94999999999999
  0
LINE
  8
_0-1_作画層１
  6
CONTINUOUS
 62
    7
 10
22.450000000000003
 20
184.84999999999997
 11
22.780000000000001
 21
184.51999999999998
  0
LINE
  8
_0-1_作画層１
  6
CONTINUOUS
 62
    7
 10
22.780000000000044
 20
184.52000000000004
 11
26.080000000000041
 21
184.52000000000004
  0
LINE
  8
_0-1_作画層１
  6
CONTINUOUS
 62
    7
 10
22.780000000000044
 20
184.52000000000004
 11
22.450000000000031
 21
184.84999999999999
  0
LINE
  8
_0-1_作画層１
  6
CONTINUOUS
 62
    7
 10
22.450000000000031
 20
184.84999999999999
 11
22.780000000000044
 21
185.18000000000001
  0
LINE
  8
_0-1_作画層１
  6
CONTINUOUS
 62
    7
 10
22.780000000000044
 20
185.18000000000001
 11
26.080000000000041
 21
185.18000000000001
  0
LINE
  8
_0-1_作画層１
  6
CONTINUOUS
 62
    7
 10
26.080000000000041
 20
184.52000000000004
 11
26.410000000000053
 21
184.84999999999999
  0
LINE
  8
_0-1_作画層１
  6
CONTINUOUS
 62
    7
 10
26.080000000000041
 20
185.18000000000001
 11
26.410000000000053
 21
184.84999999999999
  0
LINE
  8
_0-1_作画層１
  6
CONTINUOUS
 62
    7
 10
26.38169047558317
 20
184.82169047558318
 11
26.023380951166331
 21
185.18000000000001
  0
LINE
  8
_0-1_作画層１
  6
CONTINUOUS
 62
    7
 10
26.288352380466591
 20
184.72835238046656
 11
25.836704760933102
 21
185.18000000000001
  0
LINE
  8
_0-1_作画層１
  6
CONTINUOUS
 62
    7
 10
26.195014285349956
 20
184.63501428534991
 11
25.650028570699888
 21
185.18000000000001
  0
LINE
  8
_0-1_作画層１
  6
CONTINUOUS
 62
    7
 10
26.101676190233349
 20
184.54167619023329
 11
25.463352380466603
 21
185.18000000000001
  0
LINE
  8
_0-1_作画層１
  6
CONTINUOUS
 62
    7
 10
25.936676190233356
 20
184.52000000000004
 11
25.276676190233374
 21
185.18000000000001
  0
LINE
  8
_0-1_作画層１
  6
CONTINUOUS
 62
    7
 10
25.750000000000142
 20
184.52000000000004
 11
25.09000000000016
 21
185.18000000000001
  0
LINE
  8
_0-1_作画層１
  6
CONTINUOUS
 62
    7
 10
25.563323809766885
 20
184.52000000000004
 11
24.903323809766903
 21
185.18000000000001
  0
LINE
  8
_0-1_作画層１
  6
CONTINUOUS
 62
    7
 10
25.376647619533657
 20
184.52000000000004
 11
24.716647619533688
 21
185.18000000000001
  0
LINE
  8
_0-1_作画層１
  6
CONTINUOUS
 62
    7
 10
25.189971429300442
 20
184.52000000000004
 11
24.52997142930046
 21
185.18000000000001
  0
LINE
  8
_0-1_作画層１
  6
CONTINUOUS
 62
    7
 10
25.003295239067228
 20
184.52000000000004
 11
24.343295239067245
 21
185.18000000000001
  0
LINE
  8
_0-1_作画層１
  6
CONTINUOUS
 62
    7
 10
24.816619048833971
 20
184.52000000000004
 11
24.15661904883396
 21
185.18000000000001
  0
LINE
  8
_0-1_作画層１
  6
CONTINUOUS
 62
    7
 10
24.629942858600714
 20
184.52000000000004
 11
23.969942858600703
 21
185.18000000000001
  0
LINE
  8
_0-1_作画層１
  6
CONTINUOUS
 62
    7
 10
24.443266668367457
 20
184.52000000000004
 11
23.783266668367446
 21
185.18000000000001
  0
LINE
  8
_0-1_作画層１
  6
CONTINUOUS
 62
    7
 10
24.256590478134243
 20
184.52000000000004
 11
23.596590478134232
 21
185.18000000000001
  0
LINE
  8
_0-1_作画層１
  6
CONTINUOUS
 62
    7
 10
24.069914287900986
 20
184.52000000000004
 11
23.409914287900975
 21
185.18000000000001
  0
LINE
  8
_0-1_作画層１
  6
CONTINUOUS
 62
    7
 10
23.883238097667729
 20
184.52000000000004
 11
23.223238097667718
 21
185.18000000000001
  0
LINE
  8
_0-1_作画層１
  6
CONTINUOUS
 62
    7
 10
23.696561907434543
 20
184.52000000000004
 11
23.036561907434532
 21
185.18000000000001
  0
LINE
  8
_0-1_作画層１
  6
CONTINUOUS
 62
    7
 10
23.509885717201286
 20
184.52000000000004
 11
22.849885717201275
 21
185.18000000000001
  0
LINE
  8
_0-1_作画層１
  6
CONTINUOUS
 62
    7
 10
23.323209526968043
 20
184.52000000000004
 11
22.721604763484009
 21
185.12160476348399
  0
LINE
  8
_0-1_作画層１
  6
CONTINUOUS
 62
    7
 10
23.136533336734814
 20
184.52000000000004
 11
22.628266668367402
 21
185.02826666836739
  0
LINE
  8
_0-1_作画層１
  6
CONTINUOUS
 62
    7
 10
22.949857146501529
 20
184.52000000000004
 11
22.534928573250795
 21
184.93492857325072
  0
LINE
  8
_0-1_作画層１
  6
CONTINUOUS
 62
    7
 10
22.450000000000003
 20
177.04999999999995
 11
22.780000000000001
 21
176.71999999999997
  0
LINE
  8
_0-1_作画層１
  6
CONTINUOUS
 62
    7
 10
22.780000000000044
 20
176.72000000000003
 11
26.080000000000041
 21
176.72000000000003
  0
LINE
  8
_0-1_作画層１
  6
CONTINUOUS
 62
    7
 10
22.780000000000044
 20
176.72000000000003
 11
22.450000000000031
 21
177.05000000000001
  0
LINE
  8
_0-1_作画層１
  6
CONTINUOUS
 62
    7
 10
22.450000000000031
 20
177.05000000000001
 11
22.780000000000044
 21
177.38000000000002
  0
LINE
  8
_0-1_作画層１
  6
CONTINUOUS
 62
    7
 10
22.780000000000044
 20
177.38000000000002
 11
26.080000000000041
 21
177.38000000000002
  0
LINE
  8
_0-1_作画層１
  6
CONTINUOUS
 62
    7
 10
26.080000000000041
 20
176.72000000000003
 11
26.410000000000053
 21
177.05000000000001
  0
LINE
  8
_0-1_作画層１
  6
CONTINUOUS
 62
    7
 10
26.080000000000041
 20
177.38000000000002
 11
26.410000000000053
 21
177.05000000000001
  0
LINE
  8
_0-1_作画層１
  6
CONTINUOUS
 62
    7
 10
26.38169047558317
 20
177.02169047558317
 11
26.023380951166331
 21
177.38000000000002
  0
LINE
  8
_0-1_作画層１
  6
CONTINUOUS
 62
    7
 10
26.288352380466591
 20
176.92835238046655
 11
25.836704760933102
 21
177.38000000000002
  0
LINE
  8
_0-1_作画層１
  6
CONTINUOUS
 62
    7
 10
26.195014285349956
 20
176.83501428534993
 11
25.650028570699888
 21
177.38000000000002
  0
LINE
  8
_0-1_作画層１
  6
CONTINUOUS
 62
    7
 10
26.101676190233349
 20
176.74167619023328
 11
25.463352380466603
 21
177.38000000000002
  0
LINE
  8
_0-1_作画層１
  6
CONTINUOUS
 62
    7
 10
25.936676190233356
 20
176.72000000000003
 11
25.276676190233374
 21
177.38000000000002
  0
LINE
  8
_0-1_作画層１
  6
CONTINUOUS
 62
    7
 10
25.750000000000142
 20
176.72000000000003
 11
25.09000000000016
 21
177.38000000000002
  0
LINE
  8
_0-1_作画層１
  6
CONTINUOUS
 62
    7
 10
25.563323809766885
 20
176.72000000000003
 11
24.903323809766903
 21
177.38000000000002
  0
LINE
  8
_0-1_作画層１
  6
CONTINUOUS
 62
    7
 10
25.376647619533657
 20
176.72000000000003
 11
24.716647619533688
 21
177.38000000000002
  0
LINE
  8
_0-1_作画層１
  6
CONTINUOUS
 62
    7
 10
25.189971429300442
 20
176.72000000000003
 11
24.52997142930046
 21
177.38000000000002
  0
LINE
  8
_0-1_作画層１
  6
CONTINUOUS
 62
    7
 10
25.003295239067228
 20
176.72000000000003
 11
24.343295239067245
 21
177.38000000000002
  0
LINE
  8
_0-1_作画層１
  6
CONTINUOUS
 62
    7
 10
24.816619048833971
 20
176.72000000000003
 11
24.15661904883396
 21
177.38000000000002
  0
LINE
  8
_0-1_作画層１
  6
CONTINUOUS
 62
    7
 10
24.629942858600714
 20
176.72000000000003
 11
23.969942858600703
 21
177.38000000000002
  0
LINE
  8
_0-1_作画層１
  6
CONTINUOUS
 62
    7
 10
24.443266668367457
 20
176.72000000000003
 11
23.783266668367446
 21
177.38000000000002
  0
LINE
  8
_0-1_作画層１
  6
CONTINUOUS
 62
    7
 10
24.256590478134243
 20
176.72000000000003
 11
23.596590478134232
 21
177.38000000000002
  0
LINE
  8
_0-1_作画層１
  6
CONTINUOUS
 62
    7
 10
24.069914287900986
 20
176.72000000000003
 11
23.409914287900975
 21
177.38000000000002
  0
LINE
  8
_0-1_作画層１
  6
CONTINUOUS
 62
    7
 10
23.883238097667729
 20
176.72000000000003
 11
23.223238097667718
 21
177.38000000000002
  0
LINE
  8
_0-1_作画層１
  6
CONTINUOUS
 62
    7
 10
23.696561907434543
 20
176.72000000000003
 11
23.036561907434532
 21
177.38000000000002
  0
LINE
  8
_0-1_作画層１
  6
CONTINUOUS
 62
    7
 10
23.509885717201286
 20
176.72000000000003
 11
22.849885717201275
 21
177.38000000000002
  0
LINE
  8
_0-1_作画層１
  6
CONTINUOUS
 62
    7
 10
23.323209526968043
 20
176.72000000000003
 11
22.721604763484009
 21
177.321604763484
  0
LINE
  8
_0-1_作画層１
  6
CONTINUOUS
 62
    7
 10
23.136533336734814
 20
176.72000000000003
 11
22.628266668367402
 21
177.22826666836741
  0
LINE
  8
_0-1_作画層１
  6
CONTINUOUS
 62
    7
 10
22.949857146501529
 20
176.72000000000003
 11
22.534928573250795
 21
177.13492857325073
  0
LINE
  8
_0-1_作画層１
  6
CONTINUOUS
 62
    7
 10
26.319999999999993
 20
184.51999999999998
 11
26.319999999999993
 21
181.21999999999997
  0
LINE
  8
_0-1_作画層１
  6
CONTINUOUS
 62
    7
 10
26.980000000000004
 20
184.51999999999998
 11
26.980000000000004
 21
181.21999999999997
  0
LINE
  8
_0-1_作画層１
  6
CONTINUOUS
 62
    7
 10
26.319999999999993
 20
181.21999999999997
 11
26.650000000000006
 21
180.88999999999996
  0
LINE
  8
_0-1_作画層１
  6
CONTINUOUS
 62
    7
 10
26.980000000000004
 20
181.21999999999997
 11
26.650000000000006
 21
180.88999999999996
  0
LINE
  8
_0-1_作画層１
  6
CONTINUOUS
 62
    7
 10
26.621690475583151
 20
180.91830952441683
 11
26.980000000000004
 21
181.27661904883365
  0
LINE
  8
_0-1_作画層１
  6
CONTINUOUS
 62
    7
 10
26.528352380466544
 20
181.01164761953342
 11
26.980000000000004
 21
181.46329523906689
  0
LINE
  8
_0-1_作画層１
  6
CONTINUOUS
 62
    7
 10
26.435014285349936
 20
181.10498571465004
 11
26.980000000000004
 21
181.64997142930011
  0
LINE
  8
_0-1_作画層１
  6
CONTINUOUS
 62
    7
 10
26.341676190233258
 20
181.19832380976669
 11
26.980000000000004
 21
181.83664761953341
  0
LINE
  8
_0-1_作画層１
  6
CONTINUOUS
 62
    7
 10
26.319999999999993
 20
181.36332380976665
 11
26.980000000000004
 21
182.02332380976659
  0
LINE
  8
_0-1_作画層１
  6
CONTINUOUS
 62
    7
 10
26.319999999999993
 20
181.54999999999987
 11
26.980000000000004
 21
182.20999999999987
  0
LINE
  8
_0-1_作画層１
  6
CONTINUOUS
 62
    7
 10
26.319999999999993
 20
181.73667619023308
 11
26.980000000000004
 21
182.39667619023311
  0
LINE
  8
_0-1_作画層１
  6
CONTINUOUS
 62
    7
 10
26.319999999999993
 20
181.92335238046635
 11
26.980000000000004
 21
182.58335238046629
  0
LINE
  8
_0-1_作画層１
  6
CONTINUOUS
 62
    7
 10
26.319999999999993
 20
182.11002857069951
 11
26.980000000000004
 21
182.77002857069957
  0
LINE
  8
_0-1_作画層１
  6
CONTINUOUS
 62
    7
 10
26.319999999999993
 20
182.29670476093278
 11
26.980000000000004
 21
182.95670476093272
  0
LINE
  8
_0-1_作画層１
  6
CONTINUOUS
 62
    7
 10
26.319999999999993
 20
182.48338095116605
 11
26.980000000000004
 21
183.14338095116605
  0
LINE
  8
_0-1_作画層１
  6
CONTINUOUS
 62
    7
 10
26.319999999999993
 20
182.67005714139927
 11
26.980000000000004
 21
183.33005714139927
  0
LINE
  8
_0-1_作画層１
  6
CONTINUOUS
 62
    7
 10
26.319999999999993
 20
182.85673333163254
 11
26.980000000000004
 21
183.51673333163254
  0
LINE
  8
_0-1_作画層１
  6
CONTINUOUS
 62
    7
 10
26.319999999999993
 20
183.04340952186575
 11
26.980000000000004
 21
183.70340952186581
  0
LINE
  8
_0-1_作画層１
  6
CONTINUOUS
 62
    7
 10
26.319999999999993
 20
183.23008571209903
 11
26.980000000000004
 21
183.89008571209902
  0
LINE
  8
_0-1_作画層１
  6
CONTINUOUS
 62
    7
 10
26.319999999999993
 20
183.4167619023323
 11
26.980000000000004
 21
184.07676190233229
  0
LINE
  8
_0-1_作画層１
  6
CONTINUOUS
 62
    7
 10
26.319999999999993
 20
183.60343809256545
 11
26.980000000000004
 21
184.26343809256545
  0
LINE
  8
_0-1_作画層１
  6
CONTINUOUS
 62
    7
 10
26.319999999999993
 20
183.79011428279873
 11
26.980000000000004
 21
184.45011428279872
  0
LINE
  8
_0-1_作画層１
  6
CONTINUOUS
 62
    7
 10
26.319999999999993
 20
183.97679047303194
 11
26.921604763483984
 21
184.578395236516
  0
LINE
  8
_0-1_作画層１
  6
CONTINUOUS
 62
    7
 10
26.319999999999993
 20
184.16346666326518
 11
26.828266668367377
 21
184.67173333163259
  0
LINE
  8
_0-1_作画層１
  6
CONTINUOUS
 62
    7
 10
26.319999999999993
 20
184.35014285349843
 11
26.734928573250755
 21
184.76507142674919
  0
LINE
  8
_0-1_作画層１
  6
CONTINUOUS
 62
    7
 10
26.319999999999993
 20
184.51999999999998
 11
26.650000000000006
 21
184.84999999999997
  0
LINE
  8
_0-1_作画層１
  6
CONTINUOUS
 62
    7
 10
26.650000000000006
 20
184.84999999999997
 11
26.980000000000004
 21
184.51999999999998
  0
LINE
  8
_0-1_作画層１
  6
CONTINUOUS
 62
    7
 10
26.980000000000047
 20
184.52000000000004
 11
26.650000000000034
 21
184.84999999999999
  0
LINE
  8
_0-1_作画層１
  6
CONTINUOUS
 62
    7
 10
26.319999999999993
 20
180.61999999999998
 11
26.319999999999993
 21
177.31999999999999
  0
LINE
  8
_0-1_作画層１
  6
CONTINUOUS
 62
    7
 10
26.980000000000004
 20
180.61999999999998
 11
26.980000000000004
 21
177.31999999999999
  0
LINE
  8
_0-1_作画層１
  6
CONTINUOUS
 62
    7
 10
26.319999999999993
 20
177.31999999999999
 11
26.650000000000006
 21
176.98999999999995
  0
LINE
  8
_0-1_作画層１
  6
CONTINUOUS
 62
    7
 10
26.980000000000004
 20
177.31999999999999
 11
26.650000000000006
 21
176.98999999999995
  0
LINE
  8
_0-1_作画層１
  6
CONTINUOUS
 62
    7
 10
26.621690475583151
 20
177.01830952441682
 11
26.980000000000004
 21
177.37661904883367
  0
LINE
  8
_0-1_作画層１
  6
CONTINUOUS
 62
    7
 10
26.528352380466544
 20
177.11164761953341
 11
26.980000000000004
 21
177.56329523906689
  0
LINE
  8
_0-1_作画層１
  6
CONTINUOUS
 62
    7
 10
26.435014285349936
 20
177.20498571465004
 11
26.980000000000004
 21
177.7499714293001
  0
LINE
  8
_0-1_作画層１
  6
CONTINUOUS
 62
    7
 10
26.341676190233258
 20
177.29832380976669
 11
26.980000000000004
 21
177.9366476195334
  0
LINE
  8
_0-1_作画層１
  6
CONTINUOUS
 62
    7
 10
26.319999999999993
 20
177.46332380976665
 11
26.980000000000004
 21
178.12332380976659
  0
LINE
  8
_0-1_作画層１
  6
CONTINUOUS
 62
    7
 10
26.319999999999993
 20
177.64999999999986
 11
26.980000000000004
 21
178.30999999999986
  0
LINE
  8
_0-1_作画層１
  6
CONTINUOUS
 62
    7
 10
26.319999999999993
 20
177.83667619023308
 11
26.980000000000004
 21
178.49667619023313
  0
LINE
  8
_0-1_作画層１
  6
CONTINUOUS
 62
    7
 10
26.319999999999993
 20
178.02335238046635
 11
26.980000000000004
 21
178.68335238046629
  0
LINE
  8
_0-1_作画層１
  6
CONTINUOUS
 62
    7
 10
26.319999999999993
 20
178.21002857069954
 11
26.980000000000004
 21
178.87002857069956
  0
LINE
  8
_0-1_作画層１
  6
CONTINUOUS
 62
    7
 10
26.319999999999993
 20
178.39670476093278
 11
26.980000000000004
 21
179.05670476093275
  0
LINE
  8
_0-1_作画層１
  6
CONTINUOUS
 62
    7
 10
26.319999999999993
 20
178.58338095116605
 11
26.980000000000004
 21
179.24338095116605
  0
LINE
  8
_0-1_作画層１
  6
CONTINUOUS
 62
    7
 10
26.319999999999993
 20
178.77005714139926
 11
26.980000000000004
 21
179.43005714139926
  0
LINE
  8
_0-1_作画層１
  6
CONTINUOUS
 62
    7
 10
26.319999999999993
 20
178.95673333163253
 11
26.980000000000004
 21
179.61673333163253
  0
LINE
  8
_0-1_作画層１
  6
CONTINUOUS
 62
    7
 10
26.319999999999993
 20
179.14340952186575
 11
26.980000000000004
 21
179.8034095218658
  0
LINE
  8
_0-1_作画層１
  6
CONTINUOUS
 62
    7
 10
26.319999999999993
 20
179.33008571209902
 11
26.980000000000004
 21
179.99008571209902
  0
LINE
  8
_0-1_作画層１
  6
CONTINUOUS
 62
    7
 10
26.319999999999993
 20
179.51676190233229
 11
26.980000000000004
 21
180.17676190233229
  0
LINE
  8
_0-1_作画層１
  6
CONTINUOUS
 62
    7
 10
26.319999999999993
 20
179.70343809256548
 11
26.980000000000004
 21
180.36343809256545
  0
LINE
  8
_0-1_作画層１
  6
CONTINUOUS
 62
    7
 10
26.319999999999993
 20
179.89011428279872
 11
26.980000000000004
 21
180.55011428279872
  0
LINE
  8
_0-1_作画層１
  6
CONTINUOUS
 62
    7
 10
26.319999999999993
 20
180.07679047303196
 11
26.921604763483984
 21
180.678395236516
  0
LINE
  8
_0-1_作画層１
  6
CONTINUOUS
 62
    7
 10
26.319999999999993
 20
180.26346666326518
 11
26.828266668367377
 21
180.77173333163259
  0
LINE
  8
_0-1_作画層１
  6
CONTINUOUS
 62
    7
 10
26.319999999999993
 20
180.45014285349845
 11
26.734928573250755
 21
180.86507142674918
  0
LINE
  8
_0-1_作画層１
  6
CONTINUOUS
 62
    7
 10
26.319999999999993
 20
180.61999999999998
 11
26.650000000000006
 21
180.94999999999996
  0
LINE
  8
_0-1_作画層１
  6
CONTINUOUS
 62
    7
 10
26.650000000000006
 20
180.94999999999996
 11
26.980000000000004
 21
180.61999999999998
  0
LINE
  8
_0-1_作画層１
  6
CONTINUOUS
 62
    7
 10
26.980000000000047
 20
180.62000000000003
 11
26.650000000000034
 21
180.94999999999999
  0
LINE
  8
_0-1_作画層１
  6
CONTINUOUS
 62
    7
 10
29.61999999999999
 20
184.51999999999998
 11
29.61999999999999
 21
181.21999999999997
  0
LINE
  8
_0-1_作画層１
  6
CONTINUOUS
 62
    7
 10
30.280000000000001
 20
184.51999999999998
 11
30.280000000000001
 21
181.21999999999997
  0
LINE
  8
_0-1_作画層１
  6
CONTINUOUS
 62
    7
 10
29.61999999999999
 20
181.21999999999997
 11
29.950000000000003
 21
180.88999999999996
  0
LINE
  8
_0-1_作画層１
  6
CONTINUOUS
 62
    7
 10
30.280000000000001
 20
181.21999999999997
 11
29.950000000000003
 21
180.88999999999996
  0
LINE
  8
_0-1_作画層１
  6
CONTINUOUS
 62
    7
 10
29.921690475583148
 20
180.91830952441683
 11
30.280000000000001
 21
181.27661904883365
  0
LINE
  8
_0-1_作画層１
  6
CONTINUOUS
 62
    7
 10
29.828352380466541
 20
181.01164761953342
 11
30.280000000000001
 21
181.46329523906689
  0
LINE
  8
_0-1_作画層１
  6
CONTINUOUS
 62
    7
 10
29.735014285349934
 20
181.10498571465004
 11
30.280000000000001
 21
181.64997142930011
  0
LINE
  8
_0-1_作画層１
  6
CONTINUOUS
 62
    7
 10
29.641676190233255
 20
181.19832380976669
 11
30.280000000000001
 21
181.83664761953341
  0
LINE
  8
_0-1_作画層１
  6
CONTINUOUS
 62
    7
 10
29.61999999999999
 20
181.36332380976665
 11
30.280000000000001
 21
182.02332380976659
  0
LINE
  8
_0-1_作画層１
  6
CONTINUOUS
 62
    7
 10
29.61999999999999
 20
181.54999999999987
 11
30.280000000000001
 21
182.20999999999987
  0
LINE
  8
_0-1_作画層１
  6
CONTINUOUS
 62
    7
 10
29.61999999999999
 20
181.73667619023308
 11
30.280000000000001
 21
182.39667619023311
  0
LINE
  8
_0-1_作画層１
  6
CONTINUOUS
 62
    7
 10
29.61999999999999
 20
181.92335238046635
 11
30.280000000000001
 21
182.58335238046629
  0
LINE
  8
_0-1_作画層１
  6
CONTINUOUS
 62
    7
 10
29.61999999999999
 20
182.11002857069951
 11
30.280000000000001
 21
182.77002857069957
  0
LINE
  8
_0-1_作画層１
  6
CONTINUOUS
 62
    7
 10
29.61999999999999
 20
182.29670476093278
 11
30.280000000000001
 21
182.95670476093272
  0
LINE
  8
_0-1_作画層１
  6
CONTINUOUS
 62
    7
 10
29.61999999999999
 20
182.48338095116605
 11
30.280000000000001
 21
183.14338095116605
  0
LINE
  8
_0-1_作画層１
  6
CONTINUOUS
 62
    7
 10
29.61999999999999
 20
182.67005714139927
 11
30.280000000000001
 21
183.33005714139927
  0
LINE
  8
_0-1_作画層１
  6
CONTINUOUS
 62
    7
 10
29.61999999999999
 20
182.85673333163254
 11
30.280000000000001
 21
183.51673333163254
  0
LINE
  8
_0-1_作画層１
  6
CONTINUOUS
 62
    7
 10
29.61999999999999
 20
183.04340952186575
 11
30.280000000000001
 21
183.70340952186581
  0
LINE
  8
_0-1_作画層１
  6
CONTINUOUS
 62
    7
 10
29.61999999999999
 20
183.23008571209903
 11
30.280000000000001
 21
183.89008571209902
  0
LINE
  8
_0-1_作画層１
  6
CONTINUOUS
 62
    7
 10
29.61999999999999
 20
183.4167619023323
 11
30.280000000000001
 21
184.07676190233229
  0
LINE
  8
_0-1_作画層１
  6
CONTINUOUS
 62
    7
 10
29.61999999999999
 20
183.60343809256545
 11
30.280000000000001
 21
184.26343809256545
  0
LINE
  8
_0-1_作画層１
  6
CONTINUOUS
 62
    7
 10
29.61999999999999
 20
183.79011428279873
 11
30.280000000000001
 21
184.45011428279872
  0
LINE
  8
_0-1_作画層１
  6
CONTINUOUS
 62
    7
 10
29.61999999999999
 20
183.97679047303194
 11
30.221604763483981
 21
184.578395236516
  0
LINE
  8
_0-1_作画層１
  6
CONTINUOUS
 62
    7
 10
29.61999999999999
 20
184.16346666326518
 11
30.128266668367374
 21
184.67173333163259
  0
LINE
  8
_0-1_作画層１
  6
CONTINUOUS
 62
    7
 10
29.61999999999999
 20
184.35014285349843
 11
30.034928573250752
 21
184.76507142674919
  0
LINE
  8
_0-1_作画層１
  6
CONTINUOUS
 62
    7
 10
29.61999999999999
 20
180.55999999999995
 11
29.61999999999999
 21
177.25999999999993
  0
LINE
  8
_0-1_作画層１
  6
CONTINUOUS
 62
    7
 10
29.61999999999999
 20
180.55999999999995
 11
29.950000000000003
 21
180.88999999999996
  0
LINE
  8
_0-1_作画層１
  6
CONTINUOUS
 62
    7
 10
29.950000000000003
 20
180.88999999999996
 11
30.280000000000001
 21
180.55999999999995
  0
LINE
  8
_0-1_作画層１
  6
CONTINUOUS
 62
    7
 10
30.280000000000001
 20
180.55999999999995
 11
30.280000000000001
 21
177.25999999999993
  0
LINE
  8
_0-1_作画層１
  6
CONTINUOUS
 62
    7
 10
29.61999999999999
 20
177.25999999999993
 11
29.950000000000003
 21
176.92999999999998
  0
LINE
  8
_0-1_作画層１
  6
CONTINUOUS
 62
    7
 10
30.280000000000001
 20
177.25999999999993
 11
29.950000000000003
 21
176.92999999999998
  0
LINE
  8
_0-1_作画層１
  6
CONTINUOUS
 62
    7
 10
29.921690475583148
 20
176.95830952441685
 11
30.280000000000001
 21
177.31661904883367
  0
LINE
  8
_0-1_作画層１
  6
CONTINUOUS
 62
    7
 10
29.828352380466541
 20
177.05164761953341
 11
30.280000000000001
 21
177.50329523906694
  0
LINE
  8
_0-1_作画層１
  6
CONTINUOUS
 62
    7
 10
29.735014285349934
 20
177.14498571465006
 11
30.280000000000001
 21
177.6899714293001
  0
LINE
  8
_0-1_作画層１
  6
CONTINUOUS
 62
    7
 10
29.641676190233255
 20
177.23832380976665
 11
30.280000000000001
 21
177.87664761953343
  0
LINE
  8
_0-1_作画層１
  6
CONTINUOUS
 62
    7
 10
29.61999999999999
 20
177.40332380976662
 11
30.280000000000001
 21
178.06332380976664
  0
LINE
  8
_0-1_作画層１
  6
CONTINUOUS
 62
    7
 10
29.61999999999999
 20
177.58999999999986
 11
30.280000000000001
 21
178.24999999999986
  0
LINE
  8
_0-1_作画層１
  6
CONTINUOUS
 62
    7
 10
29.61999999999999
 20
177.7766761902331
 11
30.280000000000001
 21
178.43667619023307
  0
LINE
  8
_0-1_作画層１
  6
CONTINUOUS
 62
    7
 10
29.61999999999999
 20
177.96335238046632
 11
30.280000000000001
 21
178.62335238046634
  0
LINE
  8
_0-1_作画層１
  6
CONTINUOUS
 62
    7
 10
29.61999999999999
 20
178.15002857069953
 11
30.280000000000001
 21
178.81002857069953
  0
LINE
  8
_0-1_作画層１
  6
CONTINUOUS
 62
    7
 10
29.61999999999999
 20
178.33670476093275
 11
30.280000000000001
 21
178.9967047609328
  0
LINE
  8
_0-1_作画層１
  6
CONTINUOUS
 62
    7
 10
29.61999999999999
 20
178.52338095116602
 11
30.280000000000001
 21
179.18338095116604
  0
LINE
  8
_0-1_作画層１
  6
CONTINUOUS
 62
    7
 10
29.61999999999999
 20
178.71005714139929
 11
30.280000000000001
 21
179.37005714139929
  0
LINE
  8
_0-1_作画層１
  6
CONTINUOUS
 62
    7
 10
29.61999999999999
 20
178.89673333163256
 11
30.280000000000001
 21
179.55673333163253
  0
LINE
  8
_0-1_作画層１
  6
CONTINUOUS
 62
    7
 10
29.61999999999999
 20
179.08340952186578
 11
30.280000000000001
 21
179.74340952186577
  0
LINE
  8
_0-1_作画層１
  6
CONTINUOUS
 62
    7
 10
29.61999999999999
 20
179.27008571209905
 11
30.280000000000001
 21
179.93008571209901
  0
LINE
  8
_0-1_作画層１
  6
CONTINUOUS
 62
    7
 10
29.61999999999999
 20
179.45676190233226
 11
30.280000000000001
 21
180.11676190233229
  0
LINE
  8
_0-1_作画層１
  6
CONTINUOUS
 62
    7
 10
29.61999999999999
 20
179.64343809256548
 11
30.280000000000001
 21
180.30343809256547
  0
LINE
  8
_0-1_作画層１
  6
CONTINUOUS
 62
    7
 10
29.61999999999999
 20
179.83011428279869
 11
30.280000000000001
 21
180.49011428279874
  0
LINE
  8
_0-1_作画層１
  6
CONTINUOUS
 62
    7
 10
29.61999999999999
 20
180.01679047303196
 11
30.221604763483981
 21
180.61839523651597
  0
LINE
  8
_0-1_作画層１
  6
CONTINUOUS
 62
    7
 10
29.61999999999999
 20
180.20346666326523
 11
30.128266668367374
 21
180.71173333163262
  0
LINE
  8
_0-1_作画層１
  6
CONTINUOUS
 62
    7
 10
29.61999999999999
 20
180.39014285349845
 11
30.034928573250752
 21
180.80507142674918
  0
LINE
  8
_0-1_作画層１
  6
CONTINUOUS
 62
    7
 10
30.25
 20
184.84999999999997
 11
30.580000000000013
 21
184.51999999999998
  0
LINE
  8
_0-1_作画層１
  6
CONTINUOUS
 62
    7
 10
30.580000000000041
 20
184.52000000000004
 11
33.880000000000038
 21
184.52000000000004
  0
LINE
  8
_0-1_作画層１
  6
CONTINUOUS
 62
    7
 10
30.580000000000041
 20
184.52000000000004
 11
30.250000000000028
 21
184.84999999999999
  0
LINE
  8
_0-1_作画層１
  6
CONTINUOUS
 62
    7
 10
30.250000000000028
 20
184.84999999999999
 11
30.580000000000041
 21
185.18000000000001
  0
LINE
  8
_0-1_作画層１
  6
CONTINUOUS
 62
    7
 10
30.580000000000041
 20
185.18000000000001
 11
33.880000000000038
 21
185.18000000000001
  0
LINE
  8
_0-1_作画層１
  6
CONTINUOUS
 62
    7
 10
33.880000000000038
 20
184.52000000000004
 11
34.210000000000051
 21
184.84999999999999
  0
LINE
  8
_0-1_作画層１
  6
CONTINUOUS
 62
    7
 10
33.880000000000038
 20
185.18000000000001
 11
34.210000000000051
 21
184.84999999999999
  0
LINE
  8
_0-1_作画層１
  6
CONTINUOUS
 62
    7
 10
34.181690475583167
 20
184.82169047558318
 11
33.823380951166328
 21
185.18000000000001
  0
LINE
  8
_0-1_作画層１
  6
CONTINUOUS
 62
    7
 10
34.088352380466603
 20
184.72835238046656
 11
33.6367047609331
 21
185.18000000000001
  0
LINE
  8
_0-1_作画層１
  6
CONTINUOUS
 62
    7
 10
33.995014285349953
 20
184.63501428534991
 11
33.450028570699885
 21
185.18000000000001
  0
LINE
  8
_0-1_作画層１
  6
CONTINUOUS
 62
    7
 10
33.901676190233346
 20
184.54167619023329
 11
33.2633523804666
 21
185.18000000000001
  0
LINE
  8
_0-1_作画層１
  6
CONTINUOUS
 62
    7
 10
33.736676190233354
 20
184.52000000000004
 11
33.076676190233371
 21
185.18000000000001
  0
LINE
  8
_0-1_作画層１
  6
CONTINUOUS
 62
    7
 10
33.550000000000139
 20
184.52000000000004
 11
32.890000000000157
 21
185.18000000000001
  0
LINE
  8
_0-1_作画層１
  6
CONTINUOUS
 62
    7
 10
33.363323809766882
 20
184.52000000000004
 11
32.7033238097669
 21
185.18000000000001
  0
LINE
  8
_0-1_作画層１
  6
CONTINUOUS
 62
    7
 10
33.176647619533668
 20
184.52000000000004
 11
32.516647619533686
 21
185.18000000000001
  0
LINE
  8
_0-1_作画層１
  6
CONTINUOUS
 62
    7
 10
32.989971429300439
 20
184.52000000000004
 11
32.329971429300457
 21
185.18000000000001
  0
LINE
  8
_0-1_作画層１
  6
CONTINUOUS
 62
    7
 10
32.803295239067225
 20
184.52000000000004
 11
32.143295239067243
 21
185.18000000000001
  0
LINE
  8
_0-1_作画層１
  6
CONTINUOUS
 62
    7
 10
32.616619048833968
 20
184.52000000000004
 11
31.956619048833957
 21
185.18000000000001
  0
LINE
  8
_0-1_作画層１
  6
CONTINUOUS
 62
    7
 10
32.429942858600711
 20
184.52000000000004
 11
31.7699428586007
 21
185.18000000000001
  0
LINE
  8
_0-1_作画層１
  6
CONTINUOUS
 62
    7
 10
32.243266668367454
 20
184.52000000000004
 11
31.583266668367443
 21
185.18000000000001
  0
LINE
  8
_0-1_作画層１
  6
CONTINUOUS
 62
    7
 10
32.05659047813424
 20
184.52000000000004
 11
31.396590478134229
 21
185.18000000000001
  0
LINE
  8
_0-1_作画層１
  6
CONTINUOUS
 62
    7
 10
31.869914287900983
 20
184.52000000000004
 11
31.209914287900972
 21
185.18000000000001
  0
LINE
  8
_0-1_作画層１
  6
CONTINUOUS
 62
    7
 10
31.683238097667726
 20
184.52000000000004
 11
31.023238097667715
 21
185.18000000000001
  0
LINE
  8
_0-1_作画層１
  6
CONTINUOUS
 62
    7
 10
31.49656190743454
 20
184.52000000000004
 11
30.836561907434529
 21
185.18000000000001
  0
LINE
  8
_0-1_作画層１
  6
CONTINUOUS
 62
    7
 10
31.309885717201297
 20
184.52000000000004
 11
30.649885717201272
 21
185.18000000000001
  0
LINE
  8
_0-1_作画層１
  6
CONTINUOUS
 62
    7
 10
31.12320952696804
 20
184.52000000000004
 11
30.521604763484021
 21
185.12160476348399
  0
LINE
  8
_0-1_作画層１
  6
CONTINUOUS
 62
    7
 10
30.936533336734811
 20
184.52000000000004
 11
30.428266668367399
 21
185.02826666836739
  0
LINE
  8
_0-1_作画層１
  6
CONTINUOUS
 62
    7
 10
30.749857146501526
 20
184.52000000000004
 11
30.334928573250792
 21
184.93492857325072
  0
LINE
  8
_0-1_作画層１
  6
CONTINUOUS
 62
    7
 10
29.61999999999999
 20
184.51999999999998
 11
29.950000000000003
 21
184.84999999999997
  0
LINE
  8
_0-1_作画層１
  6
CONTINUOUS
 62
    7
 10
29.950000000000003
 20
184.84999999999997
 11
30.280000000000001
 21
184.51999999999998
  0
LINE
  8
_0-1_作画層１
  6
CONTINUOUS
 62
    7
 10
30.280000000000044
 20
184.52000000000004
 11
29.950000000000031
 21
184.84999999999999
  0
LINE
  8
_0-1_作画層１
  6
CONTINUOUS
 62
    7
 10
30.25
 20
177.04999999999995
 11
30.580000000000013
 21
176.71999999999997
  0
LINE
  8
_0-1_作画層１
  6
CONTINUOUS
 62
    7
 10
30.580000000000041
 20
176.72000000000003
 11
33.880000000000038
 21
176.72000000000003
  0
LINE
  8
_0-1_作画層１
  6
CONTINUOUS
 62
    7
 10
30.580000000000041
 20
176.72000000000003
 11
30.250000000000028
 21
177.05000000000001
  0
LINE
  8
_0-1_作画層１
  6
CONTINUOUS
 62
    7
 10
30.250000000000028
 20
177.05000000000001
 11
30.580000000000041
 21
177.38000000000002
  0
LINE
  8
_0-1_作画層１
  6
CONTINUOUS
 62
    7
 10
30.580000000000041
 20
177.38000000000002
 11
33.880000000000038
 21
177.38000000000002
  0
LINE
  8
_0-1_作画層１
  6
CONTINUOUS
 62
    7
 10
33.880000000000038
 20
176.72000000000003
 11
34.210000000000051
 21
177.05000000000001
  0
LINE
  8
_0-1_作画層１
  6
CONTINUOUS
 62
    7
 10
33.880000000000038
 20
177.38000000000002
 11
34.210000000000051
 21
177.05000000000001
  0
LINE
  8
_0-1_作画層１
  6
CONTINUOUS
 62
    7
 10
34.181690475583167
 20
177.02169047558317
 11
33.823380951166328
 21
177.38000000000002
  0
LINE
  8
_0-1_作画層１
  6
CONTINUOUS
 62
    7
 10
34.088352380466603
 20
176.92835238046655
 11
33.6367047609331
 21
177.38000000000002
  0
LINE
  8
_0-1_作画層１
  6
CONTINUOUS
 62
    7
 10
33.995014285349953
 20
176.83501428534993
 11
33.450028570699885
 21
177.38000000000002
  0
LINE
  8
_0-1_作画層１
  6
CONTINUOUS
 62
    7
 10
33.901676190233346
 20
176.74167619023328
 11
33.2633523804666
 21
177.38000000000002
  0
LINE
  8
_0-1_作画層１
  6
CONTINUOUS
 62
    7
 10
33.736676190233354
 20
176.72000000000003
 11
33.076676190233371
 21
177.38000000000002
  0
LINE
  8
_0-1_作画層１
  6
CONTINUOUS
 62
    7
 10
33.550000000000139
 20
176.72000000000003
 11
32.890000000000157
 21
177.38000000000002
  0
LINE
  8
_0-1_作画層１
  6
CONTINUOUS
 62
    7
 10
33.363323809766882
 20
176.72000000000003
 11
32.7033238097669
 21
177.38000000000002
  0
LINE
  8
_0-1_作画層１
  6
CONTINUOUS
 62
    7
 10
33.176647619533668
 20
176.72000000000003
 11
32.516647619533686
 21
177.38000000000002
  0
LINE
  8
_0-1_作画層１
  6
CONTINUOUS
 62
    7
 10
32.989971429300439
 20
176.72000000000003
 11
32.329971429300457
 21
177.38000000000002
  0
LINE
  8
_0-1_作画層１
  6
CONTINUOUS
 62
    7
 10
32.803295239067225
 20
176.72000000000003
 11
32.143295239067243
 21
177.38000000000002
  0
LINE
  8
_0-1_作画層１
  6
CONTINUOUS
 62
    7
 10
32.616619048833968
 20
176.72000000000003
 11
31.956619048833957
 21
177.38000000000002
  0
LINE
  8
_0-1_作画層１
  6
CONTINUOUS
 62
    7
 10
32.429942858600711
 20
176.72000000000003
 11
31.7699428586007
 21
177.38000000000002
  0
LINE
  8
_0-1_作画層１
  6
CONTINUOUS
 62
    7
 10
32.243266668367454
 20
176.72000000000003
 11
31.583266668367443
 21
177.38000000000002
  0
LINE
  8
_0-1_作画層１
  6
CONTINUOUS
 62
    7
 10
32.05659047813424
 20
176.72000000000003
 11
31.396590478134229
 21
177.38000000000002
  0
LINE
  8
_0-1_作画層１
  6
CONTINUOUS
 62
    7
 10
31.869914287900983
 20
176.72000000000003
 11
31.209914287900972
 21
177.38000000000002
  0
LINE
  8
_0-1_作画層１
  6
CONTINUOUS
 62
    7
 10
31.683238097667726
 20
176.72000000000003
 11
31.023238097667715
 21
177.38000000000002
  0
LINE
  8
_0-1_作画層１
  6
CONTINUOUS
 62
    7
 10
31.49656190743454
 20
176.72000000000003
 11
30.836561907434529
 21
177.38000000000002
  0
LINE
  8
_0-1_作画層１
  6
CONTINUOUS
 62
    7
 10
31.309885717201297
 20
176.72000000000003
 11
30.649885717201272
 21
177.38000000000002
  0
LINE
  8
_0-1_作画層１
  6
CONTINUOUS
 62
    7
 10
31.12320952696804
 20
176.72000000000003
 11
30.521604763484021
 21
177.321604763484
  0
LINE
  8
_0-1_作画層１
  6
CONTINUOUS
 62
    7
 10
30.936533336734811
 20
176.72000000000003
 11
30.428266668367399
 21
177.22826666836741
  0
LINE
  8
_0-1_作画層１
  6
CONTINUOUS
 62
    7
 10
30.749857146501526
 20
176.72000000000003
 11
30.334928573250792
 21
177.13492857325073
  0
LINE
  8
_0-1_作画層１
  6
CONTINUOUS
 62
    7
 10
34.11999999999999
 20
184.51999999999998
 11
34.11999999999999
 21
181.21999999999997
  0
LINE
  8
_0-1_作画層１
  6
CONTINUOUS
 62
    7
 10
34.780000000000001
 20
184.51999999999998
 11
34.780000000000001
 21
181.21999999999997
  0
LINE
  8
_0-1_作画層１
  6
CONTINUOUS
 62
    7
 10
34.11999999999999
 20
181.21999999999997
 11
34.450000000000003
 21
180.88999999999996
  0
LINE
  8
_0-1_作画層１
  6
CONTINUOUS
 62
    7
 10
34.780000000000001
 20
181.21999999999997
 11
34.450000000000003
 21
180.88999999999996
  0
LINE
  8
_0-1_作画層１
  6
CONTINUOUS
 62
    7
 10
34.421690475583148
 20
180.91830952441683
 11
34.780000000000001
 21
181.27661904883365
  0
LINE
  8
_0-1_作画層１
  6
CONTINUOUS
 62
    7
 10
34.328352380466541
 20
181.01164761953342
 11
34.780000000000001
 21
181.46329523906689
  0
LINE
  8
_0-1_作画層１
  6
CONTINUOUS
 62
    7
 10
34.235014285349934
 20
181.10498571465004
 11
34.780000000000001
 21
181.64997142930011
  0
LINE
  8
_0-1_作画層１
  6
CONTINUOUS
 62
    7
 10
34.141676190233255
 20
181.19832380976669
 11
34.780000000000001
 21
181.83664761953341
  0
LINE
  8
_0-1_作画層１
  6
CONTINUOUS
 62
    7
 10
34.11999999999999
 20
181.36332380976665
 11
34.780000000000001
 21
182.02332380976659
  0
LINE
  8
_0-1_作画層１
  6
CONTINUOUS
 62
    7
 10
34.11999999999999
 20
181.54999999999987
 11
34.780000000000001
 21
182.20999999999987
  0
LINE
  8
_0-1_作画層１
  6
CONTINUOUS
 62
    7
 10
34.11999999999999
 20
181.73667619023308
 11
34.780000000000001
 21
182.39667619023311
  0
LINE
  8
_0-1_作画層１
  6
CONTINUOUS
 62
    7
 10
34.11999999999999
 20
181.92335238046635
 11
34.780000000000001
 21
182.58335238046629
  0
LINE
  8
_0-1_作画層１
  6
CONTINUOUS
 62
    7
 10
34.11999999999999
 20
182.11002857069951
 11
34.780000000000001
 21
182.77002857069957
  0
LINE
  8
_0-1_作画層１
  6
CONTINUOUS
 62
    7
 10
34.11999999999999
 20
182.29670476093278
 11
34.780000000000001
 21
182.95670476093272
  0
LINE
  8
_0-1_作画層１
  6
CONTINUOUS
 62
    7
 10
34.11999999999999
 20
182.48338095116605
 11
34.780000000000001
 21
183.14338095116605
  0
LINE
  8
_0-1_作画層１
  6
CONTINUOUS
 62
    7
 10
34.11999999999999
 20
182.67005714139927
 11
34.780000000000001
 21
183.33005714139927
  0
LINE
  8
_0-1_作画層１
  6
CONTINUOUS
 62
    7
 10
34.11999999999999
 20
182.85673333163254
 11
34.780000000000001
 21
183.51673333163254
  0
LINE
  8
_0-1_作画層１
  6
CONTINUOUS
 62
    7
 10
34.11999999999999
 20
183.04340952186575
 11
34.780000000000001
 21
183.70340952186581
  0
LINE
  8
_0-1_作画層１
  6
CONTINUOUS
 62
    7
 10
34.11999999999999
 20
183.23008571209903
 11
34.780000000000001
 21
183.89008571209902
  0
LINE
  8
_0-1_作画層１
  6
CONTINUOUS
 62
    7
 10
34.11999999999999
 20
183.4167619023323
 11
34.780000000000001
 21
184.07676190233229
  0
LINE
  8
_0-1_作画層１
  6
CONTINUOUS
 62
    7
 10
34.11999999999999
 20
183.60343809256545
 11
34.780000000000001
 21
184.26343809256545
  0
LINE
  8
_0-1_作画層１
  6
CONTINUOUS
 62
    7
 10
34.11999999999999
 20
183.79011428279873
 11
34.780000000000001
 21
184.45011428279872
  0
LINE
  8
_0-1_作画層１
  6
CONTINUOUS
 62
    7
 10
34.11999999999999
 20
183.97679047303194
 11
34.721604763483981
 21
184.578395236516
  0
LINE
  8
_0-1_作画層１
  6
CONTINUOUS
 62
    7
 10
34.11999999999999
 20
184.16346666326518
 11
34.628266668367374
 21
184.67173333163259
  0
LINE
  8
_0-1_作画層１
  6
CONTINUOUS
 62
    7
 10
34.11999999999999
 20
184.35014285349843
 11
34.534928573250752
 21
184.76507142674919
  0
LINE
  8
_0-1_作画層１
  6
CONTINUOUS
 62
    7
 10
34.11999999999999
 20
184.51999999999998
 11
34.450000000000003
 21
184.84999999999997
  0
LINE
  8
_0-1_作画層１
  6
CONTINUOUS
 62
    7
 10
34.450000000000003
 20
184.84999999999997
 11
34.780000000000001
 21
184.51999999999998
  0
LINE
  8
_0-1_作画層１
  6
CONTINUOUS
 62
    7
 10
34.780000000000044
 20
184.52000000000004
 11
34.450000000000031
 21
184.84999999999999
  0
LINE
  8
_0-1_作画層１
  6
CONTINUOUS
 62
    7
 10
34.11999999999999
 20
180.61999999999998
 11
34.11999999999999
 21
177.31999999999999
  0
LINE
  8
_0-1_作画層１
  6
CONTINUOUS
 62
    7
 10
34.780000000000001
 20
180.61999999999998
 11
34.780000000000001
 21
177.31999999999999
  0
LINE
  8
_0-1_作画層１
  6
CONTINUOUS
 62
    7
 10
34.11999999999999
 20
177.31999999999999
 11
34.450000000000003
 21
176.98999999999995
  0
LINE
  8
_0-1_作画層１
  6
CONTINUOUS
 62
    7
 10
34.780000000000001
 20
177.31999999999999
 11
34.450000000000003
 21
176.98999999999995
  0
LINE
  8
_0-1_作画層１
  6
CONTINUOUS
 62
    7
 10
34.421690475583148
 20
177.01830952441682
 11
34.780000000000001
 21
177.37661904883367
  0
LINE
  8
_0-1_作画層１
  6
CONTINUOUS
 62
    7
 10
34.328352380466541
 20
177.11164761953341
 11
34.780000000000001
 21
177.56329523906689
  0
LINE
  8
_0-1_作画層１
  6
CONTINUOUS
 62
    7
 10
34.235014285349934
 20
177.20498571465004
 11
34.780000000000001
 21
177.7499714293001
  0
LINE
  8
_0-1_作画層１
  6
CONTINUOUS
 62
    7
 10
34.141676190233255
 20
177.29832380976669
 11
34.780000000000001
 21
177.9366476195334
  0
LINE
  8
_0-1_作画層１
  6
CONTINUOUS
 62
    7
 10
34.11999999999999
 20
177.46332380976665
 11
34.780000000000001
 21
178.12332380976659
  0
LINE
  8
_0-1_作画層１
  6
CONTINUOUS
 62
    7
 10
34.11999999999999
 20
177.64999999999986
 11
34.780000000000001
 21
178.30999999999986
  0
LINE
  8
_0-1_作画層１
  6
CONTINUOUS
 62
    7
 10
34.11999999999999
 20
177.83667619023308
 11
34.780000000000001
 21
178.49667619023313
  0
LINE
  8
_0-1_作画層１
  6
CONTINUOUS
 62
    7
 10
34.11999999999999
 20
178.02335238046635
 11
34.780000000000001
 21
178.68335238046629
  0
LINE
  8
_0-1_作画層１
  6
CONTINUOUS
 62
    7
 10
34.11999999999999
 20
178.21002857069954
 11
34.780000000000001
 21
178.87002857069956
  0
LINE
  8
_0-1_作画層１
  6
CONTINUOUS
 62
    7
 10
34.11999999999999
 20
178.39670476093278
 11
34.780000000000001
 21
179.05670476093275
  0
LINE
  8
_0-1_作画層１
  6
CONTINUOUS
 62
    7
 10
34.11999999999999
 20
178.58338095116605
 11
34.780000000000001
 21
179.24338095116605
  0
LINE
  8
_0-1_作画層１
  6
CONTINUOUS
 62
    7
 10
34.11999999999999
 20
178.77005714139926
 11
34.780000000000001
 21
179.43005714139926
  0
LINE
  8
_0-1_作画層１
  6
CONTINUOUS
 62
    7
 10
34.11999999999999
 20
178.95673333163253
 11
34.780000000000001
 21
179.61673333163253
  0
LINE
  8
_0-1_作画層１
  6
CONTINUOUS
 62
    7
 10
34.11999999999999
 20
179.14340952186575
 11
34.780000000000001
 21
179.8034095218658
  0
LINE
  8
_0-1_作画層１
  6
CONTINUOUS
 62
    7
 10
34.11999999999999
 20
179.33008571209902
 11
34.780000000000001
 21
179.99008571209902
  0
LINE
  8
_0-1_作画層１
  6
CONTINUOUS
 62
    7
 10
34.11999999999999
 20
179.51676190233229
 11
34.780000000000001
 21
180.17676190233229
  0
LINE
  8
_0-1_作画層１
  6
CONTINUOUS
 62
    7
 10
34.11999999999999
 20
179.70343809256548
 11
34.780000000000001
 21
180.36343809256545
  0
LINE
  8
_0-1_作画層１
  6
CONTINUOUS
 62
    7
 10
34.11999999999999
 20
179.89011428279872
 11
34.780000000000001
 21
180.55011428279872
  0
LINE
  8
_0-1_作画層１
  6
CONTINUOUS
 62
    7
 10
34.11999999999999
 20
180.07679047303196
 11
34.721604763483981
 21
180.678395236516
  0
LINE
  8
_0-1_作画層１
  6
CONTINUOUS
 62
    7
 10
34.11999999999999
 20
180.26346666326518
 11
34.628266668367374
 21
180.77173333163259
  0
LINE
  8
_0-1_作画層１
  6
CONTINUOUS
 62
    7
 10
34.11999999999999
 20
180.45014285349845
 11
34.534928573250752
 21
180.86507142674918
  0
LINE
  8
_0-1_作画層１
  6
CONTINUOUS
 62
    7
 10
34.11999999999999
 20
180.61999999999998
 11
34.450000000000003
 21
180.94999999999996
  0
LINE
  8
_0-1_作画層１
  6
CONTINUOUS
 62
    7
 10
34.450000000000003
 20
180.94999999999996
 11
34.780000000000001
 21
180.61999999999998
  0
LINE
  8
_0-1_作画層１
  6
CONTINUOUS
 62
    7
 10
34.780000000000044
 20
180.62000000000003
 11
34.450000000000031
 21
180.94999999999999
  0
LINE
  8
_0-1_作画層１
  6
CONTINUOUS
 62
    7
 10
22.450000000000003
 20
180.94999999999996
 11
22.780000000000001
 21
180.61999999999998
  0
LINE
  8
_0-1_作画層１
  6
CONTINUOUS
 62
    7
 10
22.780000000000044
 20
180.62000000000003
 11
26.080000000000041
 21
180.62000000000003
  0
LINE
  8
_0-1_作画層１
  6
CONTINUOUS
 62
    7
 10
22.780000000000044
 20
180.62000000000003
 11
22.450000000000031
 21
180.94999999999999
  0
LINE
  8
_0-1_作画層１
  6
CONTINUOUS
 62
    7
 10
22.450000000000031
 20
180.94999999999999
 11
22.780000000000044
 21
181.28000000000003
  0
LINE
  8
_0-1_作画層１
  6
CONTINUOUS
 62
    7
 10
22.780000000000044
 20
181.28000000000003
 11
26.080000000000041
 21
181.28000000000003
  0
LINE
  8
_0-1_作画層１
  6
CONTINUOUS
 62
    7
 10
26.080000000000041
 20
180.62000000000003
 11
26.410000000000053
 21
180.94999999999999
  0
LINE
  8
_0-1_作画層１
  6
CONTINUOUS
 62
    7
 10
26.080000000000041
 20
181.28000000000003
 11
26.410000000000053
 21
180.94999999999999
  0
LINE
  8
_0-1_作画層１
  6
CONTINUOUS
 62
    7
 10
26.38169047558317
 20
180.92169047558318
 11
26.023380951166331
 21
181.28000000000003
  0
LINE
  8
_0-1_作画層１
  6
CONTINUOUS
 62
    7
 10
26.288352380466591
 20
180.82835238046655
 11
25.836704760933102
 21
181.28000000000003
  0
LINE
  8
_0-1_作画層１
  6
CONTINUOUS
 62
    7
 10
26.195014285349956
 20
180.73501428534991
 11
25.650028570699888
 21
181.28000000000003
  0
LINE
  8
_0-1_作画層１
  6
CONTINUOUS
 62
    7
 10
26.101676190233349
 20
180.64167619023328
 11
25.463352380466603
 21
181.28000000000003
  0
LINE
  8
_0-1_作画層１
  6
CONTINUOUS
 62
    7
 10
25.936676190233356
 20
180.62000000000003
 11
25.276676190233374
 21
181.28000000000003
  0
LINE
  8
_0-1_作画層１
  6
CONTINUOUS
 62
    7
 10
25.750000000000142
 20
180.62000000000003
 11
25.09000000000016
 21
181.28000000000003
  0
LINE
  8
_0-1_作画層１
  6
CONTINUOUS
 62
    7
 10
25.563323809766885
 20
180.62000000000003
 11
24.903323809766903
 21
181.28000000000003
  0
LINE
  8
_0-1_作画層１
  6
CONTINUOUS
 62
    7
 10
25.376647619533657
 20
180.62000000000003
 11
24.716647619533688
 21
181.28000000000003
  0
LINE
  8
_0-1_作画層１
  6
CONTINUOUS
 62
    7
 10
25.189971429300442
 20
180.62000000000003
 11
24.52997142930046
 21
181.28000000000003
  0
LINE
  8
_0-1_作画層１
  6
CONTINUOUS
 62
    7
 10
25.003295239067228
 20
180.62000000000003
 11
24.343295239067245
 21
181.28000000000003
  0
LINE
  8
_0-1_作画層１
  6
CONTINUOUS
 62
    7
 10
24.816619048833971
 20
180.62000000000003
 11
24.15661904883396
 21
181.28000000000003
  0
LINE
  8
_0-1_作画層１
  6
CONTINUOUS
 62
    7
 10
24.629942858600714
 20
180.62000000000003
 11
23.969942858600703
 21
181.28000000000003
  0
LINE
  8
_0-1_作画層１
  6
CONTINUOUS
 62
    7
 10
24.443266668367457
 20
180.62000000000003
 11
23.783266668367446
 21
181.28000000000003
  0
LINE
  8
_0-1_作画層１
  6
CONTINUOUS
 62
    7
 10
24.256590478134243
 20
180.62000000000003
 11
23.596590478134232
 21
181.28000000000003
  0
LINE
  8
_0-1_作画層１
  6
CONTINUOUS
 62
    7
 10
24.069914287900986
 20
180.62000000000003
 11
23.409914287900975
 21
181.28000000000003
  0
LINE
  8
_0-1_作画層１
  6
CONTINUOUS
 62
    7
 10
23.883238097667729
 20
180.62000000000003
 11
23.223238097667718
 21
181.28000000000003
  0
LINE
  8
_0-1_作画層１
  6
CONTINUOUS
 62
    7
 10
23.696561907434543
 20
180.62000000000003
 11
23.036561907434532
 21
181.28000000000003
  0
LINE
  8
_0-1_作画層１
  6
CONTINUOUS
 62
    7
 10
23.509885717201286
 20
180.62000000000003
 11
22.849885717201275
 21
181.28000000000003
  0
LINE
  8
_0-1_作画層１
  6
CONTINUOUS
 62
    7
 10
23.323209526968043
 20
180.62000000000003
 11
22.721604763484009
 21
181.22160476348398
  0
LINE
  8
_0-1_作画層１
  6
CONTINUOUS
 62
    7
 10
23.136533336734814
 20
180.62000000000003
 11
22.628266668367402
 21
181.12826666836742
  0
LINE
  8
_0-1_作画層１
  6
CONTINUOUS
 62
    7
 10
22.949857146501529
 20
180.62000000000003
 11
22.534928573250795
 21
181.03492857325074
  0
CIRCLE
  8
_0-1_作画層１
  6
CONTINUOUS
 62
    7
 10
18.129999999999967
 20
182.85499999999996
 40
0.675
  0
CIRCLE
  8
_0-1_作画層１
  6
CONTINUOUS
 62
    7
 10
18.129999999999967
 20
178.80499999999998
 40
0.675
  0
LINE
  8
_0-1_作画層１
  6
CONTINUOUS
 62
    7
 10
18.777999999999992
 20
182.66600000000003
 11
18.777999999999992
 21
183.04399999999987
  0
LINE
  8
_0-1_作画層１
  6
CONTINUOUS
 62
    7
 10
18.670000000000016
 20
182.44999999999999
 11
18.670000000000016
 21
183.25999999999993
  0
LINE
  8
_0-1_作画層１
  6
CONTINUOUS
 62
    7
 10
18.562000000000012
 20
182.33634693676794
 11
18.562000000000012
 21
183.37365306323198
  0
LINE
  8
_0-1_作画層１
  6
CONTINUOUS
 62
    7
 10
18.454000000000008
 20
182.26284377061452
 11
18.454000000000008
 21
183.44715622938537
  0
LINE
  8
_0-1_作画層１
  6
CONTINUOUS
 62
    7
 10
18.34600000000006
 20
182.21549315875436
 11
18.34600000000006
 21
183.4945068412456
  0
LINE
  8
_0-1_作画層１
  6
CONTINUOUS
 62
    7
 10
18.238000000000056
 20
182.18869601532032
 11
18.238000000000056
 21
183.52130398467961
  0
LINE
  8
_0-1_作画層１
  6
CONTINUOUS
 62
    7
 10
18.130000000000052
 20
182.17999999999998
 11
18.130000000000052
 21
183.52999999999997
  0
LINE
  8
_0-1_作画層１
  6
CONTINUOUS
 62
    7
 10
18.022000000000077
 20
182.18869601532029
 11
18.022000000000077
 21
183.52130398467966
  0
LINE
  8
_0-1_作画層１
  6
CONTINUOUS
 62
    7
 10
17.914000000000073
 20
182.21549315875427
 11
17.914000000000073
 21
183.49450684124568
  0
LINE
  8
_0-1_作画層１
  6
CONTINUOUS
 62
    7
 10
17.806000000000068
 20
182.26284377061447
 11
17.806000000000068
 21
183.44715622938548
  0
LINE
  8
_0-1_作画層１
  6
CONTINUOUS
 62
    7
 10
17.698000000000093
 20
182.33634693676785
 11
17.698000000000093
 21
183.3736530632321
  0
LINE
  8
_0-1_作画層１
  6
CONTINUOUS
 62
    7
 10
17.590000000000089
 20
182.44999999999987
 11
17.590000000000089
 21
183.26000000000008
  0
LINE
  8
_0-1_作画層１
  6
CONTINUOUS
 62
    7
 10
17.482000000000085
 20
182.66599999999963
 11
17.482000000000085
 21
183.04400000000032
  0
LINE
  8
_0-1_作画層１
  6
CONTINUOUS
 62
    7
 10
18.751000000000033
 20
178.54045510777945
 11
18.751000000000033
 21
179.06954489222045
  0
LINE
  8
_0-1_作画層１
  6
CONTINUOUS
 62
    7
 10
18.643000000000058
 20
178.36630192614967
 11
18.643000000000058
 21
179.24369807385028
  0
LINE
  8
_0-1_作画層１
  6
CONTINUOUS
 62
    7
 10
18.535000000000025
 20
178.26499999999996
 11
18.535000000000025
 21
179.34499999999989
  0
LINE
  8
_0-1_作画層１
  6
CONTINUOUS
 62
    7
 10
18.427000000000049
 20
178.19885150334267
 11
18.427000000000049
 21
179.41114849665729
  0
LINE
  8
_0-1_作画層１
  6
CONTINUOUS
 62
    7
 10
18.319000000000074
 20
178.15699999999998
 11
18.319000000000074
 21
179.45299999999997
  0
LINE
  8
_0-1_作画層１
  6
CONTINUOUS
 62
    7
 10
18.211000000000041
 20
178.13487762311647
 11
18.211000000000041
 21
179.47512237688343
  0
LINE
  8
_0-1_作画層１
  6
CONTINUOUS
 62
    7
 10
18.103000000000065
 20
178.13054021617296
 11
18.103000000000065
 21
179.47945978382694
  0
LINE
  8
_0-1_作画層１
  6
CONTINUOUS
 62
    7
 10
17.995000000000061
 20
178.14363776944847
 11
17.995000000000061
 21
179.46636223055143
  0
LINE
  8
_0-1_作画層１
  6
CONTINUOUS
 62
    7
 10
17.887000000000057
 20
178.17525719535661
 11
17.887000000000057
 21
179.43474280464335
  0
LINE
  8
_0-1_作画層１
  6
CONTINUOUS
 62
    7
 10
17.779000000000082
 20
178.22843777439022
 11
17.779000000000082
 21
179.38156222560974
  0
LINE
  8
_0-1_作画層１
  6
CONTINUOUS
 62
    7
 10
17.671000000000078
 20
178.31008182494466
 11
17.671000000000078
 21
179.29991817505524
  0
LINE
  8
_0-1_作画層１
  6
CONTINUOUS
 62
    7
 10
17.563000000000073
 20
178.43875418091102
 11
17.563000000000073
 21
179.17124581908888
  0
LINE
  8
_0-1_作画層１
  6
CONTINUOUS
 62
    7
 10
225.83991432390059
 20
35.417707638704485
 11
230.21491432390059
 21
36.667707638704485
  0
CIRCLE
  8
_0-1_作画層１
  6
CONTINUOUS
 62
    7
 10
269.26676528599603
 20
126.08974358974359
 40
2.2223565553895699
  0
TEXT
  8
_0-7_注記層１
 62
    7
 10
282.25
 20
-16.25
 40
4
 41
1
 50
0
  1
平野
  0
TEXT
  8
_0-7_注記層１
 62
    7
 10
211.625
 20
51.875
 40
2.5
 41
1
 50
0
  1
定格電圧　AC250V
  0
TEXT
  8
_0-7_注記層１
 62
    7
 10
211.625
 20
49.375
 40
2.5
 41
1
 50
0
  1
定格電流　10A
  0
TEXT
  8
_0-7_注記層１
 62
    7
 10
211.625
 20
46.875
 40
2.5
 41
1
 50
0
  1
スナオ電気株式会社
  0
TEXT
  8
_0-7_注記層１
 62
    7
 10
244.75
 20
184.5
 40
3.5
 41
1
 50
0
  1
抵抗負荷　AC250V  10A
  0
TEXT
  8
_0-7_注記層１
 62
    7
 10
244.75
 20
214.5
 40
3.5
 41
1
 50
0
  1
AC100/AC200V共用
  0
TEXT
  8
_0-7_注記層１
 62
    7
 10
244.75
 20
204.5
 40
3.5
 41
1
 50
0
  1
50Hz/60Hz共用
  0
TEXT
  8
_0-7_注記層１
 62
    7
 10
244.75
 20
189.5
 40
3.5
 41
1
 50
0
  1
35%RH～85％RH
  0
LINE
  8
_0-1_作画層１
  6
CONTINUOUS
 62
    7
 10
312.25
 20
218.75
 11
207.25
 21
218.75
  0
LINE
  8
_0-1_作画層１
  6
CONTINUOUS
 62
    7
 10
312.25
 20
213.75
 11
207.25
 21
213.75
  0
LINE
  8
_0-1_作画層１
  6
CONTINUOUS
 62
    7
 10
312.25
 20
208.75
 11
207.25
 21
208.75
  0
LINE
  8
_0-1_作画層１
  6
CONTINUOUS
 62
    7
 10
312.25
 20
203.75
 11
207.25
 21
203.75
  0
LINE
  8
_0-1_作画層１
  6
CONTINUOUS
 62
    7
 10
312.35203430031015
 20
193.75
 11
207.25
 21
193.75
  0
LINE
  8
_0-1_作画層１
  6
CONTINUOUS
 62
    7
 10
312.20753512132819
 20
178.75
 11
207.25
 21
178.75
  0
LINE
  8
_0-1_作画層１
  6
CONTINUOUS
 62
    7
 10
307.25
 20
173.75
 11
303.66483880340837
 21
173.75
  0
LINE
  8
_0-1_作画層１
  6
CONTINUOUS
 62
    7
 10
312.25
 20
158.75
 11
207.25
 21
158.75
  0
LINE
  8
_0-1_作画層１
  6
CONTINUOUS
 62
    7
 10
312.25
 20
148.75
 11
207.25
 21
148.75
  0
LINE
  8
_0-1_作画層１
  6
CONTINUOUS
 62
    7
 10
312.25
 20
143.75
 11
207.25
 21
143.75
  0
LINE
  8
_0-1_作画層１
  6
CONTINUOUS
 62
    7
 10
312.25
 20
135
 11
207.25
 21
135
  0
LINE
  8
_0-1_作画層１
  6
CONTINUOUS
 62
    7
 10
312.25
 20
198.75
 11
207.25
 21
198.75
  0
LINE
  8
_0-1_作画層１
  6
CONTINUOUS
 62
    7
 10
312.25
 20
180.5162818355667
 11
312.25
 21
180.80528019353056
  0
LINE
  8
_0-1_作画層１
  6
CONTINUOUS
 62
    7
 10
312.25
 20
176.90380236101825
 11
312.25
 21
223.75
  0
LINE
  8
_0-1_作画層１
  6
CONTINUOUS
 62
    7
 10
312.25
 20
153.75
 11
207.25
 21
153.75
  0
LINE
  8
_0-1_作画層１
  6
CONTINUOUS
 62
    7
 10
312.25
 20
173.75
 11
207.25
 21
173.75
  0
LINE
  8
_0-1_作画層１
  6
CONTINUOUS
 62
    7
 10
312.25
 20
168.75
 11
207.25
 21
168.75
  0
LINE
  8
_0-1_作画層１
  6
CONTINUOUS
 62
    7
 10
312.25
 20
163.75
 11
207.25
 21
163.75
  0
TEXT
  8
_0-7_注記層１
 62
    7
 10
244.75
 20
159.5
 40
3.5
 41
1
 50
0
  1
約3VA
  0
TEXT
  8
_0-7_注記層１
 62
    7
 10
244.75
 20
154.5
 40
3.5
 41
1
 50
0
  1
155g
  0
TEXT
  8
_0-7_注記層１
 62
    7
 10
244.75
 20
149.5
 40
3.5
 41
1
 50
0
  1
H72×W72×D59.5mm
  0
TEXT
  8
_0-7_注記層１
 62
    7
 10
244.75
 20
139.5
 40
3.5
 41
1
 50
0
  1
前面カバー、取付け具、
  0
TEXT
  8
_0-7_注記層１
 62
    7
 10
207.25
 20
124.5
 40
3.5
 41
1
 50
0
  1
※取付け具：（図番）ATTACH-001-02　A  参照
  0
TEXT
  8
_0-7_注記層１
 62
    7
 10
207.25
 20
-6.25
 40
3.5
 41
1
 50
0
  1
定格電流を10Aに変更　2011.12.1
  0
TEXT
  8
_0-7_注記層１
 62
    7
 10
211
 20
-15.5
 40
3.5
 41
1
 50
0
  1
2020.04.21
  0
TEXT
  8
_0-7_注記層１
 62
    7
 10
302.25
 20
-26.25
 40
5
 41
1
 50
0
  1
SSC-502P-001-04
  0
TEXT
  8
_0-0_
 62
    7
 10
207.62758264462809
 20
-2.0804752066115668
 40
3.5
 41
1
 50
0
  1
2020.04.21：取付け具変更
  0
TEXT
  8
_0-7_注記層１
 62
    7
 10
244.74999999999997
 20
136
 40
3.5
 41
1
 50
0
  1
ゴムパッキン、端子台カバー
  0
ENDSEC
  0
EOF
