  0
SECTION
  2
HEADER
  9
$ACADVER
  1
AC1009
  9
$INSBASE
 10
0
 20
0
 30
0
  9
$EXTMIN
 10
0
 20
0
  9
$EXTMAX
 10
297
 20
210
  9
$LIMMIN
 10
0
 20
0
  9
$LIMMAX
 10
297
 20
210
  9
$LTSCALE
 40
1
  0
ENDSEC
  0
SECTION
  2
TABLES
  0
TABLE
  2
LTYPE
 70
     9
  0
LTYPE
  2
CONTINUOUS
 70
    64
  3
実線
 72
    65
 73
     0
 40
0.0
  0
LTYPE
  2
DASHED1
 70
    64
  3
--  --  --  --  --  --  --  --  
 72
    65
 73
     2
 40
2.5
 49
1.25
 49
-1.25
  0
LTYPE
  2
DASHED2
 70
    64
  3
----    ----    ----    ----    
 72
    65
 73
     2
 40
5.0
 49
2.5
 49
-2.5
  0
LTYPE
  2
DASHED3
 70
    64
  3
------  ------  ------  ------  
 72
    65
 73
     2
 40
5.0
 49
3.75
 49
-1.25
  0
LTYPE
  2
CENTER1
 70
    64
  3
----- - ----- - ----- - ----- - 
 72
    65
 73
     4
 40
10.0
 49
6.25
 49
-1.25
 49
1.25
 49
-1.25
  0
LTYPE
  2
CENTER2
 70
    64
  3
----------  --  ----------  --  
 72
    65
 73
     4
 40
20.0
 49
12.5
 49
-2.5
 49
2.5
 49
-2.5
  0
LTYPE
  2
PHANTOM1
 70
    64
  3
--- - - --- - - --- - - --- - - 
 72
    65
 73
     6
 40
10.0
 49
3.25
 49
-1.25
 49
1.25
 49
-1.25
 49
1.25
 49
-1.25
  0
LTYPE
  2
PHANTOM2
 70
    64
  3
--------  -  -  --------  -  -  
 72
    65
 73
     6
 40
20.0
 49
10.0
 49
-2.5
 49
1.25
 49
-2.5
 49
1.25
 49
-2.5
  0
LTYPE
  2
DOT
 70
    64
  3
-   -   -   -   -   -   -   -   
 72
    65
 73
     2
 40
2.5
 49
0.625
 49
-1.875
  0
LTYPE
  2
DUMMY
 70
    64
  3
ダミー
 72
    65
 73
     0
 40
0.0
  0
LTYPE
  2
RAND1
 70
    64
  3
ランダム線1
 72
    65
 73
     4
 40
10.0
 49
1.0
 49
-2.0
 49
3.0
 49
-4.0
  0
LTYPE
  2
RAND2
 70
    64
  3
ランダム線2
 72
    65
 73
     4
 40
14.0
 49
2.0
 49
-3.0
 49
4.0
 49
-5.0
  0
LTYPE
  2
RAND3
 70
    64
  3
ランダム線3
 72
    65
 73
     4
 40
18.0
 49
3.0
 49
-4.0
 49
5.0
 49
-6.0
  0
LTYPE
  2
RAND4
 70
    64
  3
ランダム線4
 72
    65
 73
     4
 40
22.0
 49
4.0
 49
-5.0
 49
6.0
 49
-7.0
  0
LTYPE
  2
RAND5
 70
    64
  3
ランダム線5
 72
    65
 73
     4
 40
26.0
 49
5.0
 49
-6.0
 49
7.0
 49
-8.0
  0
LTYPE
  2
LONG1
 70
    64
  3
----------  --  ----------  --  
 72
    65
 73
     4
 40
40.0
 49
32.5
 49
-2.5
 49
2.5
 49
-2.5
  0
LTYPE
  2
LONG2
 70
    64
  3
--------  -  -  --------  -  -  
 72
    65
 73
     6
 40
40.0
 49
30.0
 49
-2.5
 49
1.25
 49
-2.5
 49
1.25
 49
-2.5
  0
LTYPE
  2
LONG3
 70
    64
  3
+++++++++++++++..+++++++++++++++
 72
    65
 73
     2
 40
40.0
 49
37.5
 49
-2.5
  0
LTYPE
  2
LONG4
 70
    64
  3
+++++++++++++++..+++++++++++++++
 72
    65
 73
     2
 40
80.0
 49
75.0
 49
-5.0
  0
LTYPE
  2
LONG5
 70
    64
  3
----------  --  ----------  --  
 72
    65
 73
     4
 40
60.0
 49
37.5
 49
-7.5
 49
7.5
 49
-7.5
  0
LTYPE
  2
dashed
 70
   64
  3
-------   -------------   ------
 72
   65
 73
    2
 40
7.5
 49
6
 49
-1.5
  0
LTYPE
  2
dashed_spaced
 70
   64
  3
----        --------        ----
 72
   65
 73
    2
 40
12
 49
6
 49
-6
  0
LTYPE
  2
long_dashed_dotted
 70
   64
  3
------------- --- --------------
 72
   65
 73
    4
 40
15.25
 49
12
 49
-1.5
 49
0.25
 49
-1.5
  0
LTYPE
  2
long_dashed_double-dotted
 70
   64
  3
----------- --- --- ------------
 72
   65
 73
    6
 40
17
 49
12
 49
-1.5
 49
0.25
 49
-1.5
 49
0.25
 49
-1.5
  0
LTYPE
  2
long_dashed_triplicate-dotted
 70
   64
  3
--------- --- --- --- ----------
 72
   65
 73
    8
 40
18.75
 49
12
 49
-1.5
 49
0.25
 49
-1.5
 49
0.25
 49
-1.5
 49
0.25
 49
-1.5
  0
LTYPE
  2
dotted
 70
   64
  3
   -       -       -       -    
 72
   65
 73
    2
 40
1.75
 49
0.25
 49
-1.5
  0
LTYPE
  2
chain
 70
   64
  3
-------------- -- --------------
 72
   65
 73
    4
 40
18.5
 49
12
 49
-1.5
 49
3.5
 49
-1.5
  0
LTYPE
  2
chain_double_dash
 70
   64
  3
------------ -- -- -------------
 72
   65
 73
    6
 40
23.5
 49
12
 49
-1.5
 49
3.5
 49
-1.5
 49
3.5
 49
-1.5
  0
LTYPE
  2
dashed_dotted
 70
   64
  3
-----------     -     ----------
 72
   65
 73
    4
 40
9.25
 49
6
 49
-1.5
 49
0.25
 49
-1.5
  0
LTYPE
  2
double-dashed_dotted
 70
   64
  3
------   -----------   -   -----
 72
   65
 73
    6
 40
16.75
 49
6
 49
-1.5
 49
6
 49
-1.5
 49
0.25
 49
-1.5
  0
LTYPE
  2
dashed_double-dotted
 70
   64
  3
---------    -    -    ---------
 72
   65
 73
    6
 40
11
 49
6
 49
-1.5
 49
0.25
 49
-1.5
 49
0.25
 49
-1.5
  0
LTYPE
  2
double-dashed_double-dotted
 70
   64
  3
-----   ---------   -   -   ----
 72
   65
 73
    8
 40
18.5
 49
6
 49
-1.5
 49
6
 49
-1.5
 49
0.25
 49
-1.5
 49
0.25
 49
-1.5
  0
LTYPE
  2
dashed_triplicate-dotted
 70
   64
  3
-------    -    -    -    ------
 72
   65
 73
    8
 40
12.75
 49
6
 49
-1.5
 49
0.25
 49
-1.5
 49
0.25
 49
-1.5
 49
0.25
 49
-1.5
  0
LTYPE
  2
double-dashed_triplicate-dotted
 70
   64
  3
-----  ---------  -  -  -  -----
 72
   65
 73
   10
 40
20.25
 49
6
 49
-1.5
 49
6
 49
-1.5
 49
0.25
 49
-1.5
 49
0.25
 49
-1.5
 49
0.25
 49
-1.5
  0
LTYPE
  2
undefined
 70
   64
  3
--------------------------------
 72
   65
 73
    0
 40
0
  0
LTYPE
  2
DASHED
 70
   64
  3
----        --------        ----
 72
   65
 73
    2
 40
4
 49
2
 49
-2
  0
LTYPE
  2
DOT_18
 70
   64
  3
---           -----           --
 72
   65
 73
    2
 40
3
 49
1
 49
-2
  0
LTYPE
  2
DASHDOT
 70
   64
  3
---------    ------    ---------
 72
   65
 73
    4
 40
17
 49
10
 49
-2
 49
3
 49
-2
  0
LTYPE
  2
DIVIDE
 70
   64
  3
-----------  --  --  -----------
 72
   65
 73
    6
 40
30
 49
20
 49
-2
 49
2
 49
-2
 49
2
 49
-2
  0
LTYPE
  2
CENTER
 70
   64
  3
-------------  --  -------------
 72
   65
 73
    4
 40
13
 49
10
 49
-1
 49
1
 49
-1
  0
ENDTAB
  0
TABLE
  2
STYLE
  5
3
100
AcDbSymbolTable
 70
     1
  0
STYLE
  5
10
100
AcDbSymbolTableRecord
100
AcDbTextStyleTableRecord
  2
STANDARD
 70
     0
 40
0.0
 41
1.0
 50
0.0
 71
     0
 42
0.2
  3
txt
  4
bigfont.shx
  0
STYLE
  5
26
100
AcDbSymbolTableRecord
100
AcDbTextStyleTableRecord
  2
TATEGAKI
 70
    68
 40
0.0
 41
1.0
 50
0.0
 71
     0
 42
1.0
  3
txt
  4
bigfont.shx
  0
ENDTAB
  0
TABLE
  2
LAYER
 70
    5
  0
LAYER
  2
_0-0_
 70
   64
 62
    7
  6
CONTINUOUS
  0
LAYER
  2
_0-1_作画層１
 70
   64
 62
    7
  6
CONTINUOUS
  0
LAYER
  2
_0-7_注記層１
 70
   64
 62
    7
  6
CONTINUOUS
  0
LAYER
  2
_0-9_寸法線層１
 70
   64
 62
    7
  6
CONTINUOUS
  0
LAYER
  2
ADD_LINE
 70
   64
 62
    7
  6
CONTINUOUS
  0
ENDTAB
  0
ENDSEC
  0
SECTION
  2
BLOCKS
  0
BLOCK
  2
-000-_D0
 70
   64
 10
0
 20
0
 30
0
  0
LINE
  8
_0-9_寸法線層１
  6
CONTINUOUS
 62
    7
 10
35
 20
155
 11
107
 21
155
  0
TEXT
  8
_0-9_寸法線層１
 62
    7
 10
69.111771432346217
 20
156
 40
3
 41
1
 50
0
  1
72
  0
LINE
  8
_0-9_寸法線層１
  6
CONTINUOUS
 62
    7
 10
35
 20
164.5
 11
35
 21
153
  0
LINE
  8
_0-9_寸法線層１
  6
CONTINUOUS
 62
    7
 10
107
 20
164.5
 11
107
 21
153
  0
ENDBLK
  0
BLOCK
  2
-001-_D1
 70
   64
 10
0
 20
0
 30
0
  0
LINE
  8
_0-9_寸法線層１
  6
CONTINUOUS
 62
    7
 10
25
 20
237
 11
25
 21
165
  0
TEXT
  8
_0-9_寸法線層１
 62
    7
 10
24
 20
199.11177143234622
 40
3
 41
1
 50
90
  1
72
  0
LINE
  8
_0-9_寸法線層１
  6
CONTINUOUS
 62
    7
 10
34.5
 20
237
 11
23
 21
237
  0
LINE
  8
_0-9_寸法線層１
  6
CONTINUOUS
 62
    7
 10
34.5
 20
165
 11
23
 21
165
  0
ENDBLK
  0
BLOCK
  2
-002-_D2
 70
   64
 10
0
 20
0
 30
0
  0
LINE
  8
_0-9_寸法線層１
  6
CONTINUOUS
 62
    7
 10
134.5
 20
155
 11
144.5
 21
155
  0
TEXT
  8
_0-9_寸法線層１
 62
    7
 10
137.61177143234622
 20
156
 40
3
 41
1
 50
0
  1
10
  0
LINE
  8
_0-9_寸法線層１
  6
CONTINUOUS
 62
    7
 10
134.5
 20
168
 11
134.5
 21
153
  0
LINE
  8
_0-9_寸法線層１
  6
CONTINUOUS
 62
    7
 10
144.5
 20
164.5
 11
144.5
 21
153
  0
ENDBLK
  0
BLOCK
  2
-003-_D3
 70
   64
 10
0
 20
0
 30
0
  0
LINE
  8
_0-9_寸法線層１
  6
CONTINUOUS
 62
    7
 10
144.5
 20
155
 11
204.5
 21
155
  0
TEXT
  8
_0-9_寸法線層１
 62
    7
 10
172.61177143234622
 20
156
 40
3
 41
1
 50
0
  1
60
  0
LINE
  8
_0-9_寸法線層１
  6
CONTINUOUS
 62
    7
 10
144.5
 20
164.5
 11
144.5
 21
153
  0
LINE
  8
_0-9_寸法線層１
  6
CONTINUOUS
 62
    7
 10
204.5
 20
166.75
 11
204.5
 21
153
  0
ENDBLK
  0
BLOCK
  2
-004-_D4
 70
   64
 10
0
 20
0
 30
0
  0
LINE
  8
_0-9_寸法線層１
  6
CONTINUOUS
 62
    7
 10
125
 20
237
 11
125
 21
165
  0
TEXT
  8
_0-9_寸法線層１
 62
    7
 10
124
 20
199.11177143234622
 40
3
 41
1
 50
90
  1
72
  0
LINE
  8
_0-9_寸法線層１
  6
CONTINUOUS
 62
    7
 10
142.5
 20
237
 11
123
 21
237
  0
LINE
  8
_0-9_寸法線層１
  6
CONTINUOUS
 62
    7
 10
142.5
 20
165
 11
123
 21
165
  0
ENDBLK
  0
ENDSEC
  0
SECTION
  2
ENTITIES
  0
TEXT
  8
_0-7_注記層１
 62
    7
 10
40.75
 20
140.25
 40
2.5
 41
1
 50
0
  1
1CH
  0
LINE
  8
_0-1_作画層１
  6
CONTINUOUS
 62
    7
 10
-7.75
 20
188.05000000000001
 11
-7.75
 21
181.25
  0
LINE
  8
_0-1_作画層１
  6
CONTINUOUS
 62
    7
 10
-2.5
 20
187.05000000000001
 11
-2.5
 21
177.55000000000001
  0
TEXT
  8
_0-7_注記層１
 62
    7
 10
-10.5625
 20
164.5
 40
2.5
 41
1
 50
0
  1
START
  0
LINE
  8
_0-1_作画層１
  6
CENTER
 62
    7
 10
-25.25
 20
162.25
 11
56.75
 21
162.25
  0
INSERT
  2
-000-_D0
  8
_0-9_寸法線層１
 10
-55.25
 20
-38.75
 41
1
 42
1
 50
0
  0
INSERT
  2
-001-_D1
  8
_0-9_寸法線層１
 10
-55.25
 20
-38.75
 41
1
 42
1
 50
0
  0
TEXT
  8
_0-7_注記層１
 62
    7
 10
-17.75
 20
221.25
 40
5
 41
1
 50
0
  1
外形寸法
  0
LINE
  8
_0-1_作画層１
  6
CONTINUOUS
 62
    7
 10
-20.25
 20
221.25
 11
4.75
 21
221.25
  0
TEXT
  8
_0-7_注記層１
 62
    7
 10
239.625
 20
-15.5
 40
3.5
 41
1
 50
0
  1
1/1
  0
TEXT
  8
_0-7_注記層１
 62
    7
 10
273.75
 20
-13
 40
3.5
 41
1
 50
0
  1
承認
  0
TEXT
  8
_0-7_注記層１
 62
    7
 10
212.25
 20
-26.25
 40
5
 41
1
 50
0
  1
スナオ電気株式会社
  0
LINE
  8
_0-1_作画層１
  6
CONTINUOUS
 62
    7
 10
207.25
 20
-8.75
 11
207.25
 21
-28.75
  0
LINE
  8
_0-1_作画層１
  6
CONTINUOUS
 62
    7
 10
232.25
 20
-8.75
 11
232.25
 21
-18.75
  0
LINE
  8
_0-1_作画層１
  6
CONTINUOUS
 62
    7
 10
252.25
 20
-8.75
 11
252.25
 21
-18.75
  0
LINE
  8
_0-1_作画層１
  6
CONTINUOUS
 62
    7
 10
272.25
 20
-8.75
 11
272.25
 21
-18.75
  0
LINE
  8
_0-1_作画層１
  6
CONTINUOUS
 62
    7
 10
297.25
 20
-28.75
 11
297.25
 21
-8.75
  0
LINE
  8
_0-1_作画層１
  6
CONTINUOUS
 62
    7
 10
352.25
 20
248.75
 11
-45.25
 21
248.75
  0
LINE
  8
_0-1_作画層１
  6
CONTINUOUS
 62
    7
 10
-45.25
 20
-28.75
 11
-45.25
 21
248.75
  0
LINE
  8
_0-1_作画層１
  6
CONTINUOUS
 62
    7
 10
352.25
 20
-28.75
 11
-45.25
 21
-28.75
  0
LINE
  8
_0-1_作画層１
  6
CONTINUOUS
 62
    7
 10
352.25
 20
-8.75
 11
207.25
 21
-8.75
  0
LINE
  8
_0-1_作画層１
  6
CONTINUOUS
 62
    7
 10
352.25
 20
-18.75
 11
207.25
 21
-18.75
  0
LINE
  8
_0-1_作画層１
  6
CONTINUOUS
 62
    7
 10
352.25
 20
-28.75
 11
352.25
 21
248.75
  0
TEXT
  8
_0-7_注記層１
 62
    7
 10
302.25
 20
-15.5
 40
3.5
 41
1
 50
0
  1
カレンダータイマー
  0
ARC
  8
_0-1_作画層１
  6
CONTINUOUS
 62
    7
 10
-16.25
 20
194.25000000000003
 40
1.9999999999999716
 50
89.999999999999588
 51
180.0000000000008
  0
LINE
  8
_0-1_作画層１
  6
CONTINUOUS
 62
    7
 10
-16.25
 20
196.25
 11
47.75
 21
196.25
  0
ARC
  8
_0-1_作画層１
  6
CONTINUOUS
 62
    7
 10
47.750000000000028
 20
194.25000000000003
 40
1.9999999999999716
 50
359.9999999999992
 51
90.000000000000782
  0
LINE
  8
_0-1_作画層１
  6
CONTINUOUS
 62
    7
 10
49.75
 20
194.25
 11
49.75
 21
130.25
  0
ARC
  8
_0-1_作画層１
  6
CONTINUOUS
 62
    7
 10
47.750000000000028
 20
130.24999999999997
 40
1.9999999999999716
 50
269.9999999999992
 51
0.0000000000007887
  0
LINE
  8
_0-1_作画層１
  6
CONTINUOUS
 62
    7
 10
47.75
 20
128.25
 11
-16.25
 21
128.25
  0
LINE
  8
_0-1_作画層１
  6
CONTINUOUS
 62
    7
 10
-18.25
 20
194.25
 11
-18.25
 21
130.25
  0
ARC
  8
_0-1_作画層１
  6
CONTINUOUS
 62
    7
 10
-16.25
 20
130.24999999999997
 40
1.9999999999999716
 50
179.99999999999918
 51
270.0000000000004
  0
ARC
  8
_0-1_作画層１
  6
CONTINUOUS
 62
    7
 10
-17.25
 20
195.25
 40
3
 50
90.000000000000284
 51
180
  0
LINE
  8
_0-1_作画層１
  6
CONTINUOUS
 62
    7
 10
-17.25
 20
198.25
 11
48.75
 21
198.25
  0
ARC
  8
_0-1_作画層１
  6
CONTINUOUS
 62
    7
 10
48.75
 20
195.25
 40
3
 50
0
 51
90
  0
LINE
  8
_0-1_作画層１
  6
CONTINUOUS
 62
    7
 10
51.75
 20
195.25
 11
51.75
 21
129.25
  0
ARC
  8
_0-1_作画層１
  6
CONTINUOUS
 62
    7
 10
48.749999999999986
 20
129.25
 40
3.0000000000000142
 50
270.00000000000023
 51
0.0000000000000254
  0
LINE
  8
_0-1_作画層１
  6
CONTINUOUS
 62
    7
 10
-20.25
 20
195.25
 11
-20.25
 21
129.25
  0
ARC
  8
_0-1_作画層１
  6
CONTINUOUS
 62
    7
 10
-17.25
 20
129.25
 40
3
 50
180
 51
269.99999999999972
  0
LINE
  8
_0-1_作画層１
  6
CONTINUOUS
 62
    7
 10
48.751205216119345
 20
126.25
 11
-17.25
 21
126.25
  0
ARC
  8
_0-1_作画層１
  6
CONTINUOUS
 62
    7
 10
-15.75
 20
130.74999999999997
 40
1.9999999999999858
 50
179.99999999999918
 51
270.0000000000004
  0
LINE
  8
_0-1_作画層１
  6
CONTINUOUS
 62
    7
 10
-15.75
 20
128.75
 11
47.25
 21
128.75
  0
ARC
  8
_0-1_作画層１
  6
CONTINUOUS
 62
    7
 10
47.250000000000028
 20
130.74999999999997
 40
1.9999999999999716
 50
269.9999999999992
 51
0.0000000000007887
  0
LINE
  8
_0-1_作画層１
  6
CONTINUOUS
 62
    7
 10
49.25
 20
130.75
 11
49.25
 21
193.75
  0
ARC
  8
_0-1_作画層１
  6
CONTINUOUS
 62
    7
 10
47.250000000000028
 20
193.75000000000003
 40
1.9999999999999716
 50
359.9999999999992
 51
90.000000000000782
  0
LINE
  8
_0-1_作画層１
  6
CONTINUOUS
 62
    7
 10
47.25
 20
195.75
 11
-15.75
 21
195.75
  0
LINE
  8
_0-1_作画層１
  6
CONTINUOUS
 62
    7
 10
-17.75
 20
130.75
 11
-17.75
 21
193.75
  0
ARC
  8
_0-1_作画層１
  6
CONTINUOUS
 62
    7
 10
-15.75
 20
193.75000000000003
 40
1.9999999999999716
 50
89.999999999999588
 51
180.0000000000008
  0
ARC
  8
_0-1_作画層１
  6
CONTINUOUS
 62
    7
 10
-15.25
 20
193.25
 40
0.5
 50
89.99999999999919
 51
180
  0
ARC
  8
_0-1_作画層１
  6
CONTINUOUS
 62
    7
 10
46.750000000000014
 20
193.25
 40
0.5
 50
0
 51
90.000000000001634
  0
ARC
  8
_0-1_作画層１
  6
CONTINUOUS
 62
    7
 10
46.750000000000014
 20
131.25
 40
0.4999999999999856
 50
269.99999999999835
 51
0.0000000000000127
  0
ARC
  8
_0-1_作画層１
  6
CONTINUOUS
 62
    7
 10
-15.25
 20
131.25
 40
0.5
 50
180
 51
270.0000000000008
  0
LINE
  8
_0-1_作画層１
  6
CONTINUOUS
 62
    7
 10
14
 20
159.25285016286645
 11
14
 21
165.25285016286645
  0
LINE
  8
_0-1_作画層１
  6
CONTINUOUS
 62
    7
 10
14
 20
165.25285016286645
 11
17.5
 21
165.25285016286645
  0
LINE
  8
_0-1_作画層１
  6
CONTINUOUS
 62
    7
 10
17.5
 20
159.25285016286645
 11
14
 21
159.25285016286645
  0
LINE
  8
_0-1_作画層１
  6
CONTINUOUS
 62
    7
 10
17.5
 20
165.25285016286645
 11
17.5
 21
159.25285016286645
  0
LINE
  8
_0-1_作画層１
  6
CONTINUOUS
 62
    7
 10
14.000000000000028
 20
162.25285016286645
 11
17.500000000000028
 21
162.25285016286645
  0
LINE
  8
_0-1_作画層１
  6
CONTINUOUS
 62
    7
 10
17.418005145751948
 20
159.25128951136088
 11
17.499662297477926
 21
159.33294666308686
  0
LINE
  8
_0-1_作画層１
  6
CONTINUOUS
 62
    7
 10
17.27658378951466
 20
159.25128951136088
 11
17.499662297477926
 21
159.47436801932417
  0
LINE
  8
_0-1_作画層１
  6
CONTINUOUS
 62
    7
 10
17.135162433277344
 20
159.25128951136088
 11
17.499662297477926
 21
159.61578937556146
  0
LINE
  8
_0-1_作画層１
  6
CONTINUOUS
 62
    7
 10
16.993741077040056
 20
159.25128951136088
 11
17.499662297477926
 21
159.75721073179878
  0
LINE
  8
_0-1_作画層１
  6
CONTINUOUS
 62
    7
 10
16.85231972080274
 20
159.25128951136088
 11
17.499662297477926
 21
159.89863208803609
  0
LINE
  8
_0-1_作画層１
  6
CONTINUOUS
 62
    7
 10
16.710898364565423
 20
159.25128951136088
 11
17.499662297477926
 21
160.04005344427338
  0
LINE
  8
_0-1_作画層１
  6
CONTINUOUS
 62
    7
 10
16.569477008328136
 20
159.25128951136088
 11
17.499662297477926
 21
160.18147480051067
  0
LINE
  8
_0-1_作画層１
  6
CONTINUOUS
 62
    7
 10
16.428055652090848
 20
159.25128951136088
 11
17.499662297477926
 21
160.32289615674799
  0
LINE
  8
_0-1_作画層１
  6
CONTINUOUS
 62
    7
 10
16.286634295853531
 20
159.25128951136088
 11
17.499662297477926
 21
160.4643175129853
  0
LINE
  8
_0-1_作画層１
  6
CONTINUOUS
 62
    7
 10
16.145212939616215
 20
159.25128951136088
 11
17.499662297477926
 21
160.60573886922259
  0
LINE
  8
_0-1_作画層１
  6
CONTINUOUS
 62
    7
 10
16.003791583378927
 20
159.25128951136088
 11
17.499662297477926
 21
160.74716022545988
  0
LINE
  8
_0-1_作画層１
  6
CONTINUOUS
 62
    7
 10
15.862370227141639
 20
159.25128951136088
 11
17.499662297477926
 21
160.88858158169717
  0
LINE
  8
_0-1_作画層１
  6
CONTINUOUS
 62
    7
 10
15.720948870904323
 20
159.25128951136088
 11
17.499662297477926
 21
161.03000293793451
  0
LINE
  8
_0-1_作画層１
  6
CONTINUOUS
 62
    7
 10
15.579527514667035
 20
159.25128951136088
 11
17.499662297477926
 21
161.1714242941718
  0
LINE
  8
_0-1_作画層１
  6
CONTINUOUS
 62
    7
 10
15.438106158429719
 20
159.25128951136088
 11
17.499662297477926
 21
161.31284565040909
  0
LINE
  8
_0-1_作画層１
  6
CONTINUOUS
 62
    7
 10
15.296684802192431
 20
159.25128951136088
 11
17.499662297477926
 21
161.4542670066464
  0
LINE
  8
_0-1_作画層１
  6
CONTINUOUS
 62
    7
 10
15.155263445955114
 20
159.25128951136088
 11
17.499662297477926
 21
161.59568836288372
  0
LINE
  8
_0-1_作画層１
  6
CONTINUOUS
 62
    7
 10
15.013842089717798
 20
159.25128951136088
 11
17.499662297477926
 21
161.73710971912101
  0
LINE
  8
_0-1_作画層１
  6
CONTINUOUS
 62
    7
 10
14.87242073348051
 20
159.25128951136088
 11
17.499662297477926
 21
161.8785310753583
  0
LINE
  8
_0-1_作画層１
  6
CONTINUOUS
 62
    7
 10
14.730999377243222
 20
159.25128951136088
 11
17.499662297477926
 21
162.01995243159561
  0
LINE
  8
_0-1_作画層１
  6
CONTINUOUS
 62
    7
 10
14.589578021005906
 20
159.25128951136088
 11
17.499662297477926
 21
162.16137378783293
  0
LINE
  8
_0-1_作画層１
  6
CONTINUOUS
 62
    7
 10
14.44815666476859
 20
159.25128951136088
 11
17.447038367094308
 21
162.2501712136866
  0
LINE
  8
_0-1_作画層１
  6
CONTINUOUS
 62
    7
 10
14.306735308531302
 20
159.25128951136088
 11
17.30561701085702
 21
162.2501712136866
  0
LINE
  8
_0-1_作画層１
  6
CONTINUOUS
 62
    7
 10
14.165313952293985
 20
159.25128951136088
 11
17.164195654619732
 21
162.2501712136866
  0
LINE
  8
_0-1_作画層１
  6
CONTINUOUS
 62
    7
 10
14.023892596056697
 20
159.25128951136088
 11
17.022774298382416
 21
162.2501712136866
  0
LINE
  8
_0-1_作画層１
  6
CONTINUOUS
 62
    7
 10
14.000966978097921
 20
159.36978524963939
 11
16.881352942145099
 21
162.2501712136866
  0
LINE
  8
_0-1_作画層１
  6
CONTINUOUS
 62
    7
 10
14.000966978097921
 20
159.51120660587668
 11
16.739931585907811
 21
162.2501712136866
  0
LINE
  8
_0-1_作画層１
  6
CONTINUOUS
 62
    7
 10
14.000966978097921
 20
159.652627962114
 11
16.598510229670524
 21
162.2501712136866
  0
LINE
  8
_0-1_作画層１
  6
CONTINUOUS
 62
    7
 10
14.000966978097921
 20
159.79404931835131
 11
16.457088873433207
 21
162.2501712136866
  0
LINE
  8
_0-1_作画層１
  6
CONTINUOUS
 62
    7
 10
14.000966978097921
 20
159.9354706745886
 11
16.315667517195891
 21
162.2501712136866
  0
LINE
  8
_0-1_作画層１
  6
CONTINUOUS
 62
    7
 10
14.000966978097921
 20
160.07689203082592
 11
16.174246160958603
 21
162.2501712136866
  0
LINE
  8
_0-1_作画層１
  6
CONTINUOUS
 62
    7
 10
14.000966978097921
 20
160.21831338706323
 11
16.032824804721287
 21
162.2501712136866
  0
LINE
  8
_0-1_作画層１
  6
CONTINUOUS
 62
    7
 10
14.000966978097921
 20
160.35973474330052
 11
15.891403448483999
 21
162.2501712136866
  0
LINE
  8
_0-1_作画層１
  6
CONTINUOUS
 62
    7
 10
14.000966978097921
 20
160.50115609953781
 11
15.749982092246682
 21
162.2501712136866
  0
LINE
  8
_0-1_作画層１
  6
CONTINUOUS
 62
    7
 10
14.000966978097921
 20
160.64257745577513
 11
15.608560736009395
 21
162.2501712136866
  0
LINE
  8
_0-1_作画層１
  6
CONTINUOUS
 62
    7
 10
14.000966978097921
 20
160.78399881201244
 11
15.467139379772078
 21
162.2501712136866
  0
LINE
  8
_0-1_作画層１
  6
CONTINUOUS
 62
    7
 10
14.000966978097921
 20
160.92542016824973
 11
15.32571802353479
 21
162.2501712136866
  0
LINE
  8
_0-1_作画層１
  6
CONTINUOUS
 62
    7
 10
14.000966978097921
 20
161.06684152448702
 11
15.184296667297474
 21
162.2501712136866
  0
LINE
  8
_0-1_作画層１
  6
CONTINUOUS
 62
    7
 10
14.000966978097921
 20
161.20826288072433
 11
15.042875311060186
 21
162.2501712136866
  0
LINE
  8
_0-1_作画層１
  6
CONTINUOUS
 62
    7
 10
14.000966978097921
 20
161.34968423696165
 11
14.90145395482287
 21
162.2501712136866
  0
LINE
  8
_0-1_作画層１
  6
CONTINUOUS
 62
    7
 10
14.000966978097921
 20
161.49110559319894
 11
14.760032598585553
 21
162.2501712136866
  0
LINE
  8
_0-1_作画層１
  6
CONTINUOUS
 62
    7
 10
14.000966978097921
 20
161.63252694943623
 11
14.618611242348265
 21
162.2501712136866
  0
LINE
  8
_0-1_作画層１
  6
CONTINUOUS
 62
    7
 10
14.000966978097921
 20
161.77394830567354
 11
14.477189886110978
 21
162.2501712136866
  0
LINE
  8
_0-1_作画層１
  6
CONTINUOUS
 62
    7
 10
14.000966978097921
 20
161.91536966191086
 11
14.335768529873661
 21
162.2501712136866
  0
LINE
  8
_0-1_作画層１
  6
CONTINUOUS
 62
    7
 10
14.000966978097921
 20
162.05679101814815
 11
14.194347173636345
 21
162.2501712136866
  0
LINE
  8
_0-1_作画層１
  6
CONTINUOUS
 62
    7
 10
14.000966978097921
 20
162.19821237438543
 11
14.052925817399057
 21
162.2501712136866
  0
LINE
  8
_0-1_作画層１
  6
CONTINUOUS
 62
    7
 10
12.25
 20
166.75
 11
-0.25
 21
166.75
  0
LINE
  8
_0-1_作画層１
  6
CONTINUOUS
 62
    7
 10
12.25
 20
157.75
 11
-0.25
 21
157.75
  0
LINE
  8
_0-1_作画層１
  6
CONTINUOUS
 62
    7
 10
18.5
 20
166.75
 11
31.625
 21
166.75
  0
LINE
  8
_0-1_作画層１
  6
CONTINUOUS
 62
    7
 10
18.5
 20
157.75
 11
31.625
 21
157.75
  0
TEXT
  8
_0-7_注記層１
 62
    7
 10
14.75
 20
165.75
 40
2
 41
1
 50
0
  1
ON
  0
LINE
  8
_0-1_作画層１
  6
CONTINUOUS
 62
    7
 10
19
 20
159.25285016286645
 11
19
 21
165.25285016286645
  0
LINE
  8
_0-1_作画層１
  6
CONTINUOUS
 62
    7
 10
19
 20
165.25285016286645
 11
22.5
 21
165.25285016286645
  0
LINE
  8
_0-1_作画層１
  6
CONTINUOUS
 62
    7
 10
22.5
 20
159.25285016286645
 11
19
 21
159.25285016286645
  0
LINE
  8
_0-1_作画層１
  6
CONTINUOUS
 62
    7
 10
22.5
 20
165.25285016286645
 11
22.5
 21
159.25285016286645
  0
LINE
  8
_0-1_作画層１
  6
CONTINUOUS
 62
    7
 10
19.000000000000028
 20
162.25285016286645
 11
22.500000000000028
 21
162.25285016286645
  0
LINE
  8
_0-1_作画層１
  6
CONTINUOUS
 62
    7
 10
22.418005145751948
 20
159.25128951136088
 11
22.49966229747794
 21
159.33294666308686
  0
LINE
  8
_0-1_作画層１
  6
CONTINUOUS
 62
    7
 10
22.27658378951466
 20
159.25128951136088
 11
22.49966229747794
 21
159.47436801932417
  0
LINE
  8
_0-1_作画層１
  6
CONTINUOUS
 62
    7
 10
22.135162433277344
 20
159.25128951136088
 11
22.49966229747794
 21
159.61578937556146
  0
LINE
  8
_0-1_作画層１
  6
CONTINUOUS
 62
    7
 10
21.993741077040042
 20
159.25128951136088
 11
22.49966229747794
 21
159.75721073179878
  0
LINE
  8
_0-1_作画層１
  6
CONTINUOUS
 62
    7
 10
21.85231972080274
 20
159.25128951136088
 11
22.49966229747794
 21
159.89863208803609
  0
LINE
  8
_0-1_作画層１
  6
CONTINUOUS
 62
    7
 10
21.710898364565423
 20
159.25128951136088
 11
22.49966229747794
 21
160.04005344427338
  0
LINE
  8
_0-1_作画層１
  6
CONTINUOUS
 62
    7
 10
21.569477008328136
 20
159.25128951136088
 11
22.49966229747794
 21
160.18147480051067
  0
LINE
  8
_0-1_作画層１
  6
CONTINUOUS
 62
    7
 10
21.428055652090833
 20
159.25128951136088
 11
22.49966229747794
 21
160.32289615674799
  0
LINE
  8
_0-1_作画層１
  6
CONTINUOUS
 62
    7
 10
21.286634295853531
 20
159.25128951136088
 11
22.49966229747794
 21
160.4643175129853
  0
LINE
  8
_0-1_作画層１
  6
CONTINUOUS
 62
    7
 10
21.145212939616229
 20
159.25128951136088
 11
22.49966229747794
 21
160.60573886922259
  0
LINE
  8
_0-1_作画層１
  6
CONTINUOUS
 62
    7
 10
21.003791583378927
 20
159.25128951136088
 11
22.49966229747794
 21
160.74716022545988
  0
LINE
  8
_0-1_作画層１
  6
CONTINUOUS
 62
    7
 10
20.862370227141639
 20
159.25128951136088
 11
22.49966229747794
 21
160.88858158169717
  0
LINE
  8
_0-1_作画層１
  6
CONTINUOUS
 62
    7
 10
20.720948870904323
 20
159.25128951136088
 11
22.49966229747794
 21
161.03000293793451
  0
LINE
  8
_0-1_作画層１
  6
CONTINUOUS
 62
    7
 10
20.579527514667035
 20
159.25128951136088
 11
22.49966229747794
 21
161.1714242941718
  0
LINE
  8
_0-1_作画層１
  6
CONTINUOUS
 62
    7
 10
20.438106158429719
 20
159.25128951136088
 11
22.49966229747794
 21
161.31284565040909
  0
LINE
  8
_0-1_作画層１
  6
CONTINUOUS
 62
    7
 10
20.296684802192431
 20
159.25128951136088
 11
22.49966229747794
 21
161.4542670066464
  0
LINE
  8
_0-1_作画層１
  6
CONTINUOUS
 62
    7
 10
20.155263445955114
 20
159.25128951136088
 11
22.49966229747794
 21
161.59568836288372
  0
LINE
  8
_0-1_作画層１
  6
CONTINUOUS
 62
    7
 10
20.013842089717798
 20
159.25128951136088
 11
22.49966229747794
 21
161.73710971912101
  0
LINE
  8
_0-1_作画層１
  6
CONTINUOUS
 62
    7
 10
19.87242073348051
 20
159.25128951136088
 11
22.49966229747794
 21
161.8785310753583
  0
LINE
  8
_0-1_作画層１
  6
CONTINUOUS
 62
    7
 10
19.730999377243222
 20
159.25128951136088
 11
22.49966229747794
 21
162.01995243159561
  0
LINE
  8
_0-1_作画層１
  6
CONTINUOUS
 62
    7
 10
19.589578021005906
 20
159.25128951136088
 11
22.49966229747794
 21
162.16137378783293
  0
LINE
  8
_0-1_作画層１
  6
CONTINUOUS
 62
    7
 10
19.44815666476859
 20
159.25128951136088
 11
22.447038367094322
 21
162.2501712136866
  0
LINE
  8
_0-1_作画層１
  6
CONTINUOUS
 62
    7
 10
19.306735308531302
 20
159.25128951136088
 11
22.30561701085702
 21
162.2501712136866
  0
LINE
  8
_0-1_作画層１
  6
CONTINUOUS
 62
    7
 10
19.165313952293985
 20
159.25128951136088
 11
22.164195654619718
 21
162.2501712136866
  0
LINE
  8
_0-1_作画層１
  6
CONTINUOUS
 62
    7
 10
19.023892596056697
 20
159.25128951136088
 11
22.022774298382416
 21
162.2501712136866
  0
LINE
  8
_0-1_作画層１
  6
CONTINUOUS
 62
    7
 10
19.000966978097921
 20
159.36978524963939
 11
21.881352942145114
 21
162.2501712136866
  0
LINE
  8
_0-1_作画層１
  6
CONTINUOUS
 62
    7
 10
19.000966978097921
 20
159.51120660587668
 11
21.739931585907811
 21
162.2501712136866
  0
LINE
  8
_0-1_作画層１
  6
CONTINUOUS
 62
    7
 10
19.000966978097921
 20
159.652627962114
 11
21.598510229670509
 21
162.2501712136866
  0
LINE
  8
_0-1_作画層１
  6
CONTINUOUS
 62
    7
 10
19.000966978097921
 20
159.79404931835131
 11
21.457088873433207
 21
162.2501712136866
  0
LINE
  8
_0-1_作画層１
  6
CONTINUOUS
 62
    7
 10
19.000966978097921
 20
159.9354706745886
 11
21.315667517195905
 21
162.2501712136866
  0
LINE
  8
_0-1_作画層１
  6
CONTINUOUS
 62
    7
 10
19.000966978097921
 20
160.07689203082592
 11
21.174246160958603
 21
162.2501712136866
  0
LINE
  8
_0-1_作画層１
  6
CONTINUOUS
 62
    7
 10
19.000966978097921
 20
160.21831338706323
 11
21.032824804721287
 21
162.2501712136866
  0
LINE
  8
_0-1_作画層１
  6
CONTINUOUS
 62
    7
 10
19.000966978097921
 20
160.35973474330052
 11
20.891403448483999
 21
162.2501712136866
  0
LINE
  8
_0-1_作画層１
  6
CONTINUOUS
 62
    7
 10
19.000966978097921
 20
160.50115609953781
 11
20.749982092246682
 21
162.2501712136866
  0
LINE
  8
_0-1_作画層１
  6
CONTINUOUS
 62
    7
 10
19.000966978097921
 20
160.64257745577513
 11
20.608560736009395
 21
162.2501712136866
  0
LINE
  8
_0-1_作画層１
  6
CONTINUOUS
 62
    7
 10
19.000966978097921
 20
160.78399881201244
 11
20.467139379772078
 21
162.2501712136866
  0
LINE
  8
_0-1_作画層１
  6
CONTINUOUS
 62
    7
 10
19.000966978097921
 20
160.92542016824973
 11
20.32571802353479
 21
162.2501712136866
  0
LINE
  8
_0-1_作画層１
  6
CONTINUOUS
 62
    7
 10
19.000966978097921
 20
161.06684152448702
 11
20.184296667297474
 21
162.2501712136866
  0
LINE
  8
_0-1_作画層１
  6
CONTINUOUS
 62
    7
 10
19.000966978097921
 20
161.20826288072433
 11
20.042875311060186
 21
162.2501712136866
  0
LINE
  8
_0-1_作画層１
  6
CONTINUOUS
 62
    7
 10
19.000966978097921
 20
161.34968423696165
 11
19.90145395482287
 21
162.2501712136866
  0
LINE
  8
_0-1_作画層１
  6
CONTINUOUS
 62
    7
 10
19.000966978097921
 20
161.49110559319894
 11
19.760032598585553
 21
162.2501712136866
  0
LINE
  8
_0-1_作画層１
  6
CONTINUOUS
 62
    7
 10
19.000966978097921
 20
161.63252694943623
 11
19.618611242348265
 21
162.2501712136866
  0
LINE
  8
_0-1_作画層１
  6
CONTINUOUS
 62
    7
 10
19.000966978097921
 20
161.77394830567354
 11
19.477189886110978
 21
162.2501712136866
  0
LINE
  8
_0-1_作画層１
  6
CONTINUOUS
 62
    7
 10
19.000966978097921
 20
161.91536966191086
 11
19.335768529873661
 21
162.2501712136866
  0
LINE
  8
_0-1_作画層１
  6
CONTINUOUS
 62
    7
 10
19.000966978097921
 20
162.05679101814815
 11
19.194347173636345
 21
162.2501712136866
  0
LINE
  8
_0-1_作画層１
  6
CONTINUOUS
 62
    7
 10
19.000966978097921
 20
162.19821237438543
 11
19.052925817399057
 21
162.2501712136866
  0
LINE
  8
_0-1_作画層１
  6
CONTINUOUS
 62
    7
 10
24
 20
159.25285016286645
 11
24
 21
165.25285016286645
  0
LINE
  8
_0-1_作画層１
  6
CONTINUOUS
 62
    7
 10
24
 20
165.25285016286645
 11
27.5
 21
165.25285016286645
  0
LINE
  8
_0-1_作画層１
  6
CONTINUOUS
 62
    7
 10
27.5
 20
159.25285016286645
 11
24
 21
159.25285016286645
  0
LINE
  8
_0-1_作画層１
  6
CONTINUOUS
 62
    7
 10
27.5
 20
165.25285016286645
 11
27.5
 21
159.25285016286645
  0
LINE
  8
_0-1_作画層１
  6
CONTINUOUS
 62
    7
 10
24.000000000000028
 20
162.25285016286645
 11
27.500000000000028
 21
162.25285016286645
  0
LINE
  8
_0-1_作画層１
  6
CONTINUOUS
 62
    7
 10
27.418005145751948
 20
159.25128951136088
 11
27.49966229747794
 21
159.33294666308686
  0
LINE
  8
_0-1_作画層１
  6
CONTINUOUS
 62
    7
 10
27.27658378951466
 20
159.25128951136088
 11
27.49966229747794
 21
159.47436801932417
  0
LINE
  8
_0-1_作画層１
  6
CONTINUOUS
 62
    7
 10
27.135162433277344
 20
159.25128951136088
 11
27.49966229747794
 21
159.61578937556146
  0
LINE
  8
_0-1_作画層１
  6
CONTINUOUS
 62
    7
 10
26.993741077040042
 20
159.25128951136088
 11
27.49966229747794
 21
159.75721073179878
  0
LINE
  8
_0-1_作画層１
  6
CONTINUOUS
 62
    7
 10
26.85231972080274
 20
159.25128951136088
 11
27.49966229747794
 21
159.89863208803609
  0
LINE
  8
_0-1_作画層１
  6
CONTINUOUS
 62
    7
 10
26.710898364565423
 20
159.25128951136088
 11
27.49966229747794
 21
160.04005344427338
  0
LINE
  8
_0-1_作画層１
  6
CONTINUOUS
 62
    7
 10
26.569477008328136
 20
159.25128951136088
 11
27.49966229747794
 21
160.18147480051067
  0
LINE
  8
_0-1_作画層１
  6
CONTINUOUS
 62
    7
 10
26.428055652090833
 20
159.25128951136088
 11
27.49966229747794
 21
160.32289615674799
  0
LINE
  8
_0-1_作画層１
  6
CONTINUOUS
 62
    7
 10
26.286634295853531
 20
159.25128951136088
 11
27.49966229747794
 21
160.4643175129853
  0
LINE
  8
_0-1_作画層１
  6
CONTINUOUS
 62
    7
 10
26.145212939616229
 20
159.25128951136088
 11
27.49966229747794
 21
160.60573886922259
  0
LINE
  8
_0-1_作画層１
  6
CONTINUOUS
 62
    7
 10
26.003791583378927
 20
159.25128951136088
 11
27.49966229747794
 21
160.74716022545988
  0
LINE
  8
_0-1_作画層１
  6
CONTINUOUS
 62
    7
 10
25.862370227141639
 20
159.25128951136088
 11
27.49966229747794
 21
160.88858158169717
  0
LINE
  8
_0-1_作画層１
  6
CONTINUOUS
 62
    7
 10
25.720948870904323
 20
159.25128951136088
 11
27.49966229747794
 21
161.03000293793451
  0
LINE
  8
_0-1_作画層１
  6
CONTINUOUS
 62
    7
 10
25.579527514667035
 20
159.25128951136088
 11
27.49966229747794
 21
161.1714242941718
  0
LINE
  8
_0-1_作画層１
  6
CONTINUOUS
 62
    7
 10
25.438106158429719
 20
159.25128951136088
 11
27.49966229747794
 21
161.31284565040909
  0
LINE
  8
_0-1_作画層１
  6
CONTINUOUS
 62
    7
 10
25.296684802192416
 20
159.25128951136088
 11
27.49966229747794
 21
161.4542670066464
  0
LINE
  8
_0-1_作画層１
  6
CONTINUOUS
 62
    7
 10
25.155263445955114
 20
159.25128951136088
 11
27.49966229747794
 21
161.59568836288372
  0
LINE
  8
_0-1_作画層１
  6
CONTINUOUS
 62
    7
 10
25.013842089717798
 20
159.25128951136088
 11
27.49966229747794
 21
161.73710971912101
  0
LINE
  8
_0-1_作画層１
  6
CONTINUOUS
 62
    7
 10
24.87242073348051
 20
159.25128951136088
 11
27.49966229747794
 21
161.8785310753583
  0
LINE
  8
_0-1_作画層１
  6
CONTINUOUS
 62
    7
 10
24.730999377243208
 20
159.25128951136088
 11
27.49966229747794
 21
162.01995243159561
  0
LINE
  8
_0-1_作画層１
  6
CONTINUOUS
 62
    7
 10
24.589578021005906
 20
159.25128951136088
 11
27.49966229747794
 21
162.16137378783293
  0
LINE
  8
_0-1_作画層１
  6
CONTINUOUS
 62
    7
 10
24.448156664768604
 20
159.25128951136088
 11
27.447038367094322
 21
162.2501712136866
  0
LINE
  8
_0-1_作画層１
  6
CONTINUOUS
 62
    7
 10
24.306735308531302
 20
159.25128951136088
 11
27.30561701085702
 21
162.2501712136866
  0
LINE
  8
_0-1_作画層１
  6
CONTINUOUS
 62
    7
 10
24.165313952293985
 20
159.25128951136088
 11
27.164195654619718
 21
162.2501712136866
  0
LINE
  8
_0-1_作画層１
  6
CONTINUOUS
 62
    7
 10
24.023892596056697
 20
159.25128951136088
 11
27.022774298382416
 21
162.2501712136866
  0
LINE
  8
_0-1_作画層１
  6
CONTINUOUS
 62
    7
 10
24.000966978097921
 20
159.36978524963939
 11
26.881352942145114
 21
162.2501712136866
  0
LINE
  8
_0-1_作画層１
  6
CONTINUOUS
 62
    7
 10
24.000966978097921
 20
159.51120660587668
 11
26.739931585907811
 21
162.2501712136866
  0
LINE
  8
_0-1_作画層１
  6
CONTINUOUS
 62
    7
 10
24.000966978097921
 20
159.652627962114
 11
26.598510229670509
 21
162.2501712136866
  0
LINE
  8
_0-1_作画層１
  6
CONTINUOUS
 62
    7
 10
24.000966978097921
 20
159.79404931835131
 11
26.457088873433207
 21
162.2501712136866
  0
LINE
  8
_0-1_作画層１
  6
CONTINUOUS
 62
    7
 10
24.000966978097921
 20
159.9354706745886
 11
26.315667517195905
 21
162.2501712136866
  0
LINE
  8
_0-1_作画層１
  6
CONTINUOUS
 62
    7
 10
24.000966978097921
 20
160.07689203082592
 11
26.174246160958603
 21
162.2501712136866
  0
LINE
  8
_0-1_作画層１
  6
CONTINUOUS
 62
    7
 10
24.000966978097921
 20
160.21831338706323
 11
26.032824804721287
 21
162.2501712136866
  0
LINE
  8
_0-1_作画層１
  6
CONTINUOUS
 62
    7
 10
24.000966978097921
 20
160.35973474330052
 11
25.891403448483999
 21
162.2501712136866
  0
LINE
  8
_0-1_作画層１
  6
CONTINUOUS
 62
    7
 10
24.000966978097921
 20
160.50115609953781
 11
25.749982092246682
 21
162.2501712136866
  0
LINE
  8
_0-1_作画層１
  6
CONTINUOUS
 62
    7
 10
24.000966978097921
 20
160.64257745577513
 11
25.608560736009395
 21
162.2501712136866
  0
LINE
  8
_0-1_作画層１
  6
CONTINUOUS
 62
    7
 10
24.000966978097921
 20
160.78399881201244
 11
25.467139379772078
 21
162.2501712136866
  0
LINE
  8
_0-1_作画層１
  6
CONTINUOUS
 62
    7
 10
24.000966978097921
 20
160.92542016824973
 11
25.32571802353479
 21
162.2501712136866
  0
LINE
  8
_0-1_作画層１
  6
CONTINUOUS
 62
    7
 10
24.000966978097921
 20
161.06684152448702
 11
25.184296667297474
 21
162.2501712136866
  0
LINE
  8
_0-1_作画層１
  6
CONTINUOUS
 62
    7
 10
24.000966978097921
 20
161.20826288072433
 11
25.042875311060186
 21
162.2501712136866
  0
LINE
  8
_0-1_作画層１
  6
CONTINUOUS
 62
    7
 10
24.000966978097921
 20
161.34968423696165
 11
24.90145395482287
 21
162.2501712136866
  0
LINE
  8
_0-1_作画層１
  6
CONTINUOUS
 62
    7
 10
24.000966978097921
 20
161.49110559319894
 11
24.760032598585568
 21
162.2501712136866
  0
LINE
  8
_0-1_作画層１
  6
CONTINUOUS
 62
    7
 10
24.000966978097921
 20
161.63252694943623
 11
24.61861124234828
 21
162.2501712136866
  0
LINE
  8
_0-1_作画層１
  6
CONTINUOUS
 62
    7
 10
24.000966978097921
 20
161.77394830567354
 11
24.477189886110978
 21
162.2501712136866
  0
LINE
  8
_0-1_作画層１
  6
CONTINUOUS
 62
    7
 10
24.000966978097921
 20
161.91536966191086
 11
24.335768529873661
 21
162.2501712136866
  0
LINE
  8
_0-1_作画層１
  6
CONTINUOUS
 62
    7
 10
24.000966978097921
 20
162.05679101814815
 11
24.194347173636359
 21
162.2501712136866
  0
LINE
  8
_0-1_作画層１
  6
CONTINUOUS
 62
    7
 10
24.000966978097921
 20
162.19821237438543
 11
24.052925817399057
 21
162.2501712136866
  0
LINE
  8
_0-1_作画層１
  6
CONTINUOUS
 62
    7
 10
29
 20
159.25285016286645
 11
29
 21
165.25285016286645
  0
LINE
  8
_0-1_作画層１
  6
CONTINUOUS
 62
    7
 10
29
 20
165.25285016286645
 11
32.5
 21
165.25285016286645
  0
LINE
  8
_0-1_作画層１
  6
CONTINUOUS
 62
    7
 10
32.5
 20
159.25285016286645
 11
29
 21
159.25285016286645
  0
LINE
  8
_0-1_作画層１
  6
CONTINUOUS
 62
    7
 10
32.5
 20
165.25285016286645
 11
32.5
 21
159.25285016286645
  0
LINE
  8
_0-1_作画層１
  6
CONTINUOUS
 62
    7
 10
29.000000000000028
 20
162.25285016286645
 11
32.500000000000028
 21
162.25285016286645
  0
LINE
  8
_0-1_作画層１
  6
CONTINUOUS
 62
    7
 10
32.418005145751948
 20
159.25128951136088
 11
32.49966229747794
 21
159.33294666308686
  0
LINE
  8
_0-1_作画層１
  6
CONTINUOUS
 62
    7
 10
32.27658378951466
 20
159.25128951136088
 11
32.49966229747794
 21
159.47436801932417
  0
LINE
  8
_0-1_作画層１
  6
CONTINUOUS
 62
    7
 10
32.135162433277344
 20
159.25128951136088
 11
32.49966229747794
 21
159.61578937556146
  0
LINE
  8
_0-1_作画層１
  6
CONTINUOUS
 62
    7
 10
31.993741077040042
 20
159.25128951136088
 11
32.49966229747794
 21
159.75721073179878
  0
LINE
  8
_0-1_作画層１
  6
CONTINUOUS
 62
    7
 10
31.85231972080274
 20
159.25128951136088
 11
32.49966229747794
 21
159.89863208803609
  0
LINE
  8
_0-1_作画層１
  6
CONTINUOUS
 62
    7
 10
31.710898364565423
 20
159.25128951136088
 11
32.49966229747794
 21
160.04005344427338
  0
LINE
  8
_0-1_作画層１
  6
CONTINUOUS
 62
    7
 10
31.569477008328136
 20
159.25128951136088
 11
32.49966229747794
 21
160.18147480051067
  0
LINE
  8
_0-1_作画層１
  6
CONTINUOUS
 62
    7
 10
31.428055652090833
 20
159.25128951136088
 11
32.49966229747794
 21
160.32289615674799
  0
LINE
  8
_0-1_作画層１
  6
CONTINUOUS
 62
    7
 10
31.286634295853531
 20
159.25128951136088
 11
32.49966229747794
 21
160.4643175129853
  0
LINE
  8
_0-1_作画層１
  6
CONTINUOUS
 62
    7
 10
31.145212939616229
 20
159.25128951136088
 11
32.49966229747794
 21
160.60573886922259
  0
LINE
  8
_0-1_作画層１
  6
CONTINUOUS
 62
    7
 10
31.003791583378927
 20
159.25128951136088
 11
32.49966229747794
 21
160.74716022545988
  0
LINE
  8
_0-1_作画層１
  6
CONTINUOUS
 62
    7
 10
30.862370227141639
 20
159.25128951136088
 11
32.49966229747794
 21
160.88858158169717
  0
LINE
  8
_0-1_作画層１
  6
CONTINUOUS
 62
    7
 10
30.720948870904323
 20
159.25128951136088
 11
32.49966229747794
 21
161.03000293793451
  0
LINE
  8
_0-1_作画層１
  6
CONTINUOUS
 62
    7
 10
30.579527514667035
 20
159.25128951136088
 11
32.49966229747794
 21
161.1714242941718
  0
LINE
  8
_0-1_作画層１
  6
CONTINUOUS
 62
    7
 10
30.438106158429719
 20
159.25128951136088
 11
32.49966229747794
 21
161.31284565040909
  0
LINE
  8
_0-1_作画層１
  6
CONTINUOUS
 62
    7
 10
30.296684802192416
 20
159.25128951136088
 11
32.49966229747794
 21
161.4542670066464
  0
LINE
  8
_0-1_作画層１
  6
CONTINUOUS
 62
    7
 10
30.155263445955114
 20
159.25128951136088
 11
32.49966229747794
 21
161.59568836288372
  0
LINE
  8
_0-1_作画層１
  6
CONTINUOUS
 62
    7
 10
30.013842089717798
 20
159.25128951136088
 11
32.49966229747794
 21
161.73710971912101
  0
LINE
  8
_0-1_作画層１
  6
CONTINUOUS
 62
    7
 10
29.87242073348051
 20
159.25128951136088
 11
32.49966229747794
 21
161.8785310753583
  0
LINE
  8
_0-1_作画層１
  6
CONTINUOUS
 62
    7
 10
29.730999377243208
 20
159.25128951136088
 11
32.49966229747794
 21
162.01995243159561
  0
LINE
  8
_0-1_作画層１
  6
CONTINUOUS
 62
    7
 10
29.589578021005906
 20
159.25128951136088
 11
32.49966229747794
 21
162.16137378783293
  0
LINE
  8
_0-1_作画層１
  6
CONTINUOUS
 62
    7
 10
29.448156664768604
 20
159.25128951136088
 11
32.447038367094322
 21
162.2501712136866
  0
LINE
  8
_0-1_作画層１
  6
CONTINUOUS
 62
    7
 10
29.306735308531302
 20
159.25128951136088
 11
32.30561701085702
 21
162.2501712136866
  0
LINE
  8
_0-1_作画層１
  6
CONTINUOUS
 62
    7
 10
29.165313952293985
 20
159.25128951136088
 11
32.164195654619718
 21
162.2501712136866
  0
LINE
  8
_0-1_作画層１
  6
CONTINUOUS
 62
    7
 10
29.023892596056697
 20
159.25128951136088
 11
32.022774298382416
 21
162.2501712136866
  0
LINE
  8
_0-1_作画層１
  6
CONTINUOUS
 62
    7
 10
29.000966978097921
 20
159.36978524963939
 11
31.881352942145114
 21
162.2501712136866
  0
LINE
  8
_0-1_作画層１
  6
CONTINUOUS
 62
    7
 10
29.000966978097921
 20
159.51120660587668
 11
31.739931585907811
 21
162.2501712136866
  0
LINE
  8
_0-1_作画層１
  6
CONTINUOUS
 62
    7
 10
29.000966978097921
 20
159.652627962114
 11
31.598510229670509
 21
162.2501712136866
  0
LINE
  8
_0-1_作画層１
  6
CONTINUOUS
 62
    7
 10
29.000966978097921
 20
159.79404931835131
 11
31.457088873433207
 21
162.2501712136866
  0
LINE
  8
_0-1_作画層１
  6
CONTINUOUS
 62
    7
 10
29.000966978097921
 20
159.9354706745886
 11
31.315667517195905
 21
162.2501712136866
  0
LINE
  8
_0-1_作画層１
  6
CONTINUOUS
 62
    7
 10
29.000966978097921
 20
160.07689203082592
 11
31.174246160958603
 21
162.2501712136866
  0
LINE
  8
_0-1_作画層１
  6
CONTINUOUS
 62
    7
 10
29.000966978097921
 20
160.21831338706323
 11
31.032824804721287
 21
162.2501712136866
  0
LINE
  8
_0-1_作画層１
  6
CONTINUOUS
 62
    7
 10
29.000966978097921
 20
160.35973474330052
 11
30.891403448483999
 21
162.2501712136866
  0
LINE
  8
_0-1_作画層１
  6
CONTINUOUS
 62
    7
 10
29.000966978097921
 20
160.50115609953781
 11
30.749982092246682
 21
162.2501712136866
  0
LINE
  8
_0-1_作画層１
  6
CONTINUOUS
 62
    7
 10
29.000966978097921
 20
160.64257745577513
 11
30.608560736009395
 21
162.2501712136866
  0
LINE
  8
_0-1_作画層１
  6
CONTINUOUS
 62
    7
 10
29.000966978097921
 20
160.78399881201244
 11
30.467139379772078
 21
162.2501712136866
  0
LINE
  8
_0-1_作画層１
  6
CONTINUOUS
 62
    7
 10
29.000966978097921
 20
160.92542016824973
 11
30.32571802353479
 21
162.2501712136866
  0
LINE
  8
_0-1_作画層１
  6
CONTINUOUS
 62
    7
 10
29.000966978097921
 20
161.06684152448702
 11
30.184296667297474
 21
162.2501712136866
  0
LINE
  8
_0-1_作画層１
  6
CONTINUOUS
 62
    7
 10
29.000966978097921
 20
161.20826288072433
 11
30.042875311060186
 21
162.2501712136866
  0
LINE
  8
_0-1_作画層１
  6
CONTINUOUS
 62
    7
 10
29.000966978097921
 20
161.34968423696165
 11
29.90145395482287
 21
162.2501712136866
  0
LINE
  8
_0-1_作画層１
  6
CONTINUOUS
 62
    7
 10
29.000966978097921
 20
161.49110559319894
 11
29.760032598585568
 21
162.2501712136866
  0
LINE
  8
_0-1_作画層１
  6
CONTINUOUS
 62
    7
 10
29.000966978097921
 20
161.63252694943623
 11
29.61861124234828
 21
162.2501712136866
  0
LINE
  8
_0-1_作画層１
  6
CONTINUOUS
 62
    7
 10
29.000966978097921
 20
161.77394830567354
 11
29.477189886110978
 21
162.2501712136866
  0
LINE
  8
_0-1_作画層１
  6
CONTINUOUS
 62
    7
 10
29.000966978097921
 20
161.91536966191086
 11
29.335768529873661
 21
162.2501712136866
  0
LINE
  8
_0-1_作画層１
  6
CONTINUOUS
 62
    7
 10
29.000966978097921
 20
162.05679101814815
 11
29.194347173636359
 21
162.2501712136866
  0
LINE
  8
_0-1_作画層１
  6
CONTINUOUS
 62
    7
 10
29.000966978097921
 20
162.19821237438543
 11
29.052925817399057
 21
162.2501712136866
  0
LINE
  8
_0-1_作画層１
  6
CONTINUOUS
 62
    7
 10
12.5
 20
159.25285016286645
 11
12.5
 21
165.25285016286645
  0
LINE
  8
_0-1_作画層１
  6
CONTINUOUS
 62
    7
 10
12.5
 20
165.25285016286645
 11
9
 21
165.25285016286645
  0
LINE
  8
_0-1_作画層１
  6
CONTINUOUS
 62
    7
 10
9
 20
159.25285016286645
 11
12.5
 21
159.25285016286645
  0
LINE
  8
_0-1_作画層１
  6
CONTINUOUS
 62
    7
 10
9
 20
165.25285016286645
 11
9
 21
159.25285016286645
  0
LINE
  8
_0-1_作画層１
  6
CONTINUOUS
 62
    7
 10
12.499999999999972
 20
162.25285016286645
 11
8.9999999999999716
 21
162.25285016286645
  0
LINE
  8
_0-1_作画層１
  6
CONTINUOUS
 62
    7
 10
9.0819948542480518
 20
159.25128951136088
 11
9.0003377025220743
 21
159.33294666308686
  0
LINE
  8
_0-1_作画層１
  6
CONTINUOUS
 62
    7
 10
9.2234162104853397
 20
159.25128951136088
 11
9.0003377025220743
 21
159.47436801932417
  0
LINE
  8
_0-1_作画層１
  6
CONTINUOUS
 62
    7
 10
9.364837566722656
 20
159.25128951136088
 11
9.0003377025220743
 21
159.61578937556146
  0
LINE
  8
_0-1_作画層１
  6
CONTINUOUS
 62
    7
 10
9.5062589229599439
 20
159.25128951136088
 11
9.0003377025220743
 21
159.75721073179878
  0
LINE
  8
_0-1_作画層１
  6
CONTINUOUS
 62
    7
 10
9.6476802791972602
 20
159.25128951136088
 11
9.0003377025220743
 21
159.89863208803609
  0
LINE
  8
_0-1_作画層１
  6
CONTINUOUS
 62
    7
 10
9.7891016354345766
 20
159.25128951136088
 11
9.0003377025220743
 21
160.04005344427338
  0
LINE
  8
_0-1_作画層１
  6
CONTINUOUS
 62
    7
 10
9.9305229916718645
 20
159.25128951136088
 11
9.0003377025220743
 21
160.18147480051067
  0
LINE
  8
_0-1_作画層１
  6
CONTINUOUS
 62
    7
 10
10.071944347909152
 20
159.25128951136088
 11
9.0003377025220743
 21
160.32289615674799
  0
LINE
  8
_0-1_作画層１
  6
CONTINUOUS
 62
    7
 10
10.213365704146469
 20
159.25128951136088
 11
9.0003377025220743
 21
160.4643175129853
  0
LINE
  8
_0-1_作画層１
  6
CONTINUOUS
 62
    7
 10
10.354787060383785
 20
159.25128951136088
 11
9.0003377025220743
 21
160.60573886922259
  0
LINE
  8
_0-1_作画層１
  6
CONTINUOUS
 62
    7
 10
10.496208416621073
 20
159.25128951136088
 11
9.0003377025220743
 21
160.74716022545988
  0
LINE
  8
_0-1_作画層１
  6
CONTINUOUS
 62
    7
 10
10.637629772858361
 20
159.25128951136088
 11
9.0003377025220743
 21
160.88858158169717
  0
LINE
  8
_0-1_作画層１
  6
CONTINUOUS
 62
    7
 10
10.779051129095677
 20
159.25128951136088
 11
9.0003377025220743
 21
161.03000293793451
  0
LINE
  8
_0-1_作画層１
  6
CONTINUOUS
 62
    7
 10
10.920472485332965
 20
159.25128951136088
 11
9.0003377025220743
 21
161.1714242941718
  0
LINE
  8
_0-1_作画層１
  6
CONTINUOUS
 62
    7
 10
11.061893841570281
 20
159.25128951136088
 11
9.0003377025220743
 21
161.31284565040909
  0
LINE
  8
_0-1_作画層１
  6
CONTINUOUS
 62
    7
 10
11.203315197807569
 20
159.25128951136088
 11
9.0003377025220743
 21
161.4542670066464
  0
LINE
  8
_0-1_作画層１
  6
CONTINUOUS
 62
    7
 10
11.344736554044886
 20
159.25128951136088
 11
9.0003377025220743
 21
161.59568836288372
  0
LINE
  8
_0-1_作画層１
  6
CONTINUOUS
 62
    7
 10
11.486157910282202
 20
159.25128951136088
 11
9.0003377025220743
 21
161.73710971912101
  0
LINE
  8
_0-1_作画層１
  6
CONTINUOUS
 62
    7
 10
11.62757926651949
 20
159.25128951136088
 11
9.0003377025220743
 21
161.8785310753583
  0
LINE
  8
_0-1_作画層１
  6
CONTINUOUS
 62
    7
 10
11.769000622756778
 20
159.25128951136088
 11
9.0003377025220743
 21
162.01995243159561
  0
LINE
  8
_0-1_作画層１
  6
CONTINUOUS
 62
    7
 10
11.910421978994094
 20
159.25128951136088
 11
9.0003377025220743
 21
162.16137378783293
  0
LINE
  8
_0-1_作画層１
  6
CONTINUOUS
 62
    7
 10
12.05184333523141
 20
159.25128951136088
 11
9.0529616329056921
 21
162.2501712136866
  0
LINE
  8
_0-1_作画層１
  6
CONTINUOUS
 62
    7
 10
12.193264691468698
 20
159.25128951136088
 11
9.19438298914298
 21
162.2501712136866
  0
LINE
  8
_0-1_作画層１
  6
CONTINUOUS
 62
    7
 10
12.334686047706015
 20
159.25128951136088
 11
9.3358043453802679
 21
162.2501712136866
  0
LINE
  8
_0-1_作画層１
  6
CONTINUOUS
 62
    7
 10
12.476107403943303
 20
159.25128951136088
 11
9.4772257016175843
 21
162.2501712136866
  0
LINE
  8
_0-1_作画層１
  6
CONTINUOUS
 62
    7
 10
12.499033021902079
 20
159.36978524963939
 11
9.6186470578549006
 21
162.2501712136866
  0
LINE
  8
_0-1_作画層１
  6
CONTINUOUS
 62
    7
 10
12.499033021902079
 20
159.51120660587668
 11
9.7600684140921885
 21
162.2501712136866
  0
LINE
  8
_0-1_作画層１
  6
CONTINUOUS
 62
    7
 10
12.499033021902079
 20
159.652627962114
 11
9.9014897703294764
 21
162.2501712136866
  0
LINE
  8
_0-1_作画層１
  6
CONTINUOUS
 62
    7
 10
12.499033021902079
 20
159.79404931835131
 11
10.042911126566793
 21
162.2501712136866
  0
LINE
  8
_0-1_作画層１
  6
CONTINUOUS
 62
    7
 10
12.499033021902079
 20
159.9354706745886
 11
10.184332482804109
 21
162.2501712136866
  0
LINE
  8
_0-1_作画層１
  6
CONTINUOUS
 62
    7
 10
12.499033021902079
 20
160.07689203082592
 11
10.325753839041397
 21
162.2501712136866
  0
LINE
  8
_0-1_作画層１
  6
CONTINUOUS
 62
    7
 10
12.499033021902079
 20
160.21831338706323
 11
10.467175195278713
 21
162.2501712136866
  0
LINE
  8
_0-1_作画層１
  6
CONTINUOUS
 62
    7
 10
12.499033021902079
 20
160.35973474330052
 11
10.608596551516001
 21
162.2501712136866
  0
LINE
  8
_0-1_作画層１
  6
CONTINUOUS
 62
    7
 10
12.499033021902079
 20
160.50115609953781
 11
10.750017907753318
 21
162.2501712136866
  0
LINE
  8
_0-1_作画層１
  6
CONTINUOUS
 62
    7
 10
12.499033021902079
 20
160.64257745577513
 11
10.891439263990605
 21
162.2501712136866
  0
LINE
  8
_0-1_作画層１
  6
CONTINUOUS
 62
    7
 10
12.499033021902079
 20
160.78399881201244
 11
11.032860620227922
 21
162.2501712136866
  0
LINE
  8
_0-1_作画層１
  6
CONTINUOUS
 62
    7
 10
12.499033021902079
 20
160.92542016824973
 11
11.17428197646521
 21
162.2501712136866
  0
LINE
  8
_0-1_作画層１
  6
CONTINUOUS
 62
    7
 10
12.499033021902079
 20
161.06684152448702
 11
11.315703332702526
 21
162.2501712136866
  0
LINE
  8
_0-1_作画層１
  6
CONTINUOUS
 62
    7
 10
12.499033021902079
 20
161.20826288072433
 11
11.457124688939814
 21
162.2501712136866
  0
LINE
  8
_0-1_作画層１
  6
CONTINUOUS
 62
    7
 10
12.499033021902079
 20
161.34968423696165
 11
11.59854604517713
 21
162.2501712136866
  0
LINE
  8
_0-1_作画層１
  6
CONTINUOUS
 62
    7
 10
12.499033021902079
 20
161.49110559319894
 11
11.739967401414447
 21
162.2501712136866
  0
LINE
  8
_0-1_作画層１
  6
CONTINUOUS
 62
    7
 10
12.499033021902079
 20
161.63252694943623
 11
11.881388757651735
 21
162.2501712136866
  0
LINE
  8
_0-1_作画層１
  6
CONTINUOUS
 62
    7
 10
12.499033021902079
 20
161.77394830567354
 11
12.022810113889022
 21
162.2501712136866
  0
LINE
  8
_0-1_作画層１
  6
CONTINUOUS
 62
    7
 10
12.499033021902079
 20
161.91536966191086
 11
12.164231470126339
 21
162.2501712136866
  0
LINE
  8
_0-1_作画層１
  6
CONTINUOUS
 62
    7
 10
12.499033021902079
 20
162.05679101814815
 11
12.305652826363655
 21
162.2501712136866
  0
LINE
  8
_0-1_作画層１
  6
CONTINUOUS
 62
    7
 10
12.499033021902079
 20
162.19821237438543
 11
12.447074182600943
 21
162.2501712136866
  0
LINE
  8
_0-1_作画層１
  6
CONTINUOUS
 62
    7
 10
7.5
 20
159.25285016286645
 11
7.5
 21
165.25285016286645
  0
LINE
  8
_0-1_作画層１
  6
CONTINUOUS
 62
    7
 10
7.5
 20
165.25285016286645
 11
4
 21
165.25285016286645
  0
LINE
  8
_0-1_作画層１
  6
CONTINUOUS
 62
    7
 10
4
 20
159.25285016286645
 11
7.5
 21
159.25285016286645
  0
LINE
  8
_0-1_作画層１
  6
CONTINUOUS
 62
    7
 10
4
 20
165.25285016286645
 11
4
 21
159.25285016286645
  0
LINE
  8
_0-1_作画層１
  6
CONTINUOUS
 62
    7
 10
7.4999999999999716
 20
162.25285016286645
 11
3.9999999999999716
 21
162.25285016286645
  0
LINE
  8
_0-1_作画層１
  6
CONTINUOUS
 62
    7
 10
4.0819948542480518
 20
159.25128951136088
 11
4.0003377025220743
 21
159.33294666308686
  0
LINE
  8
_0-1_作画層１
  6
CONTINUOUS
 62
    7
 10
4.2234162104853397
 20
159.25128951136088
 11
4.0003377025220743
 21
159.47436801932417
  0
LINE
  8
_0-1_作画層１
  6
CONTINUOUS
 62
    7
 10
4.364837566722656
 20
159.25128951136088
 11
4.0003377025220743
 21
159.61578937556146
  0
LINE
  8
_0-1_作画層１
  6
CONTINUOUS
 62
    7
 10
4.5062589229599439
 20
159.25128951136088
 11
4.0003377025220743
 21
159.75721073179878
  0
LINE
  8
_0-1_作画層１
  6
CONTINUOUS
 62
    7
 10
4.6476802791972602
 20
159.25128951136088
 11
4.0003377025220743
 21
159.89863208803609
  0
LINE
  8
_0-1_作画層１
  6
CONTINUOUS
 62
    7
 10
4.7891016354345766
 20
159.25128951136088
 11
4.0003377025220743
 21
160.04005344427338
  0
LINE
  8
_0-1_作画層１
  6
CONTINUOUS
 62
    7
 10
4.9305229916718645
 20
159.25128951136088
 11
4.0003377025220743
 21
160.18147480051067
  0
LINE
  8
_0-1_作画層１
  6
CONTINUOUS
 62
    7
 10
5.0719443479091524
 20
159.25128951136088
 11
4.0003377025220743
 21
160.32289615674799
  0
LINE
  8
_0-1_作画層１
  6
CONTINUOUS
 62
    7
 10
5.2133657041464687
 20
159.25128951136088
 11
4.0003377025220743
 21
160.4643175129853
  0
LINE
  8
_0-1_作画層１
  6
CONTINUOUS
 62
    7
 10
5.354787060383785
 20
159.25128951136088
 11
4.0003377025220743
 21
160.60573886922259
  0
LINE
  8
_0-1_作画層１
  6
CONTINUOUS
 62
    7
 10
5.496208416621073
 20
159.25128951136088
 11
4.0003377025220743
 21
160.74716022545988
  0
LINE
  8
_0-1_作画層１
  6
CONTINUOUS
 62
    7
 10
5.6376297728583609
 20
159.25128951136088
 11
4.0003377025220743
 21
160.88858158169717
  0
LINE
  8
_0-1_作画層１
  6
CONTINUOUS
 62
    7
 10
5.7790511290956772
 20
159.25128951136088
 11
4.0003377025220743
 21
161.03000293793451
  0
LINE
  8
_0-1_作画層１
  6
CONTINUOUS
 62
    7
 10
5.9204724853329651
 20
159.25128951136088
 11
4.0003377025220743
 21
161.1714242941718
  0
LINE
  8
_0-1_作画層１
  6
CONTINUOUS
 62
    7
 10
6.0618938415702814
 20
159.25128951136088
 11
4.0003377025220743
 21
161.31284565040909
  0
LINE
  8
_0-1_作画層１
  6
CONTINUOUS
 62
    7
 10
6.2033151978075693
 20
159.25128951136088
 11
4.0003377025220743
 21
161.4542670066464
  0
LINE
  8
_0-1_作画層１
  6
CONTINUOUS
 62
    7
 10
6.3447365540448857
 20
159.25128951136088
 11
4.0003377025220743
 21
161.59568836288372
  0
LINE
  8
_0-1_作画層１
  6
CONTINUOUS
 62
    7
 10
6.486157910282202
 20
159.25128951136088
 11
4.0003377025220743
 21
161.73710971912101
  0
LINE
  8
_0-1_作画層１
  6
CONTINUOUS
 62
    7
 10
6.6275792665194899
 20
159.25128951136088
 11
4.0003377025220743
 21
161.8785310753583
  0
LINE
  8
_0-1_作画層１
  6
CONTINUOUS
 62
    7
 10
6.7690006227567778
 20
159.25128951136088
 11
4.0003377025220743
 21
162.01995243159561
  0
LINE
  8
_0-1_作画層１
  6
CONTINUOUS
 62
    7
 10
6.9104219789940942
 20
159.25128951136088
 11
4.0003377025220743
 21
162.16137378783293
  0
LINE
  8
_0-1_作画層１
  6
CONTINUOUS
 62
    7
 10
7.0518433352314105
 20
159.25128951136088
 11
4.0529616329056921
 21
162.2501712136866
  0
LINE
  8
_0-1_作画層１
  6
CONTINUOUS
 62
    7
 10
7.1932646914686984
 20
159.25128951136088
 11
4.19438298914298
 21
162.2501712136866
  0
LINE
  8
_0-1_作画層１
  6
CONTINUOUS
 62
    7
 10
7.3346860477060147
 20
159.25128951136088
 11
4.3358043453802679
 21
162.2501712136866
  0
LINE
  8
_0-1_作画層１
  6
CONTINUOUS
 62
    7
 10
7.4761074039433026
 20
159.25128951136088
 11
4.4772257016175843
 21
162.2501712136866
  0
LINE
  8
_0-1_作画層１
  6
CONTINUOUS
 62
    7
 10
7.4990330219020791
 20
159.36978524963939
 11
4.6186470578549006
 21
162.2501712136866
  0
LINE
  8
_0-1_作画層１
  6
CONTINUOUS
 62
    7
 10
7.4990330219020791
 20
159.51120660587668
 11
4.7600684140921885
 21
162.2501712136866
  0
LINE
  8
_0-1_作画層１
  6
CONTINUOUS
 62
    7
 10
7.4990330219020791
 20
159.652627962114
 11
4.9014897703294764
 21
162.2501712136866
  0
LINE
  8
_0-1_作画層１
  6
CONTINUOUS
 62
    7
 10
7.4990330219020791
 20
159.79404931835131
 11
5.0429111265667927
 21
162.2501712136866
  0
LINE
  8
_0-1_作画層１
  6
CONTINUOUS
 62
    7
 10
7.4990330219020791
 20
159.9354706745886
 11
5.1843324828041091
 21
162.2501712136866
  0
LINE
  8
_0-1_作画層１
  6
CONTINUOUS
 62
    7
 10
7.4990330219020791
 20
160.07689203082592
 11
5.325753839041397
 21
162.2501712136866
  0
LINE
  8
_0-1_作画層１
  6
CONTINUOUS
 62
    7
 10
7.4990330219020791
 20
160.21831338706323
 11
5.4671751952787133
 21
162.2501712136866
  0
LINE
  8
_0-1_作画層１
  6
CONTINUOUS
 62
    7
 10
7.4990330219020791
 20
160.35973474330052
 11
5.6085965515160012
 21
162.2501712136866
  0
LINE
  8
_0-1_作画層１
  6
CONTINUOUS
 62
    7
 10
7.4990330219020791
 20
160.50115609953781
 11
5.7500179077533176
 21
162.2501712136866
  0
LINE
  8
_0-1_作画層１
  6
CONTINUOUS
 62
    7
 10
7.4990330219020791
 20
160.64257745577513
 11
5.8914392639906055
 21
162.2501712136866
  0
LINE
  8
_0-1_作画層１
  6
CONTINUOUS
 62
    7
 10
7.4990330219020791
 20
160.78399881201244
 11
6.0328606202279218
 21
162.2501712136866
  0
LINE
  8
_0-1_作画層１
  6
CONTINUOUS
 62
    7
 10
7.4990330219020791
 20
160.92542016824973
 11
6.1742819764652097
 21
162.2501712136866
  0
LINE
  8
_0-1_作画層１
  6
CONTINUOUS
 62
    7
 10
7.4990330219020791
 20
161.06684152448702
 11
6.315703332702526
 21
162.2501712136866
  0
LINE
  8
_0-1_作画層１
  6
CONTINUOUS
 62
    7
 10
7.4990330219020791
 20
161.20826288072433
 11
6.457124688939814
 21
162.2501712136866
  0
LINE
  8
_0-1_作画層１
  6
CONTINUOUS
 62
    7
 10
7.4990330219020791
 20
161.34968423696165
 11
6.5985460451771303
 21
162.2501712136866
  0
LINE
  8
_0-1_作画層１
  6
CONTINUOUS
 62
    7
 10
7.4990330219020791
 20
161.49110559319894
 11
6.7399674014144466
 21
162.2501712136866
  0
LINE
  8
_0-1_作画層１
  6
CONTINUOUS
 62
    7
 10
7.4990330219020791
 20
161.63252694943623
 11
6.8813887576517345
 21
162.2501712136866
  0
LINE
  8
_0-1_作画層１
  6
CONTINUOUS
 62
    7
 10
7.4990330219020791
 20
161.77394830567354
 11
7.0228101138890224
 21
162.2501712136866
  0
LINE
  8
_0-1_作画層１
  6
CONTINUOUS
 62
    7
 10
7.4990330219020791
 20
161.91536966191086
 11
7.1642314701263388
 21
162.2501712136866
  0
LINE
  8
_0-1_作画層１
  6
CONTINUOUS
 62
    7
 10
7.4990330219020791
 20
162.05679101814815
 11
7.3056528263636551
 21
162.2501712136866
  0
LINE
  8
_0-1_作画層１
  6
CONTINUOUS
 62
    7
 10
7.4990330219020791
 20
162.19821237438543
 11
7.447074182600943
 21
162.2501712136866
  0
LINE
  8
_0-1_作画層１
  6
CONTINUOUS
 62
    7
 10
2.5
 20
159.25285016286645
 11
2.5
 21
165.25285016286645
  0
LINE
  8
_0-1_作画層１
  6
CONTINUOUS
 62
    7
 10
2.5
 20
165.25285016286645
 11
-1
 21
165.25285016286645
  0
LINE
  8
_0-1_作画層１
  6
CONTINUOUS
 62
    7
 10
-1
 20
159.25285016286645
 11
2.5
 21
159.25285016286645
  0
LINE
  8
_0-1_作画層１
  6
CONTINUOUS
 62
    7
 10
-1
 20
165.25285016286645
 11
-1
 21
159.25285016286645
  0
LINE
  8
_0-1_作画層１
  6
CONTINUOUS
 62
    7
 10
2.4999999999999716
 20
162.25285016286645
 11
-1.0000000000000284
 21
162.25285016286645
  0
LINE
  8
_0-1_作画層１
  6
CONTINUOUS
 62
    7
 10
-0.9180051457519482
 20
159.25128951136088
 11
-0.9996622974779256
 21
159.33294666308686
  0
LINE
  8
_0-1_作画層１
  6
CONTINUOUS
 62
    7
 10
-0.7765837895146603
 20
159.25128951136088
 11
-0.9996622974779256
 21
159.47436801932417
  0
LINE
  8
_0-1_作画層１
  6
CONTINUOUS
 62
    7
 10
-0.635162433277344
 20
159.25128951136088
 11
-0.9996622974779256
 21
159.61578937556146
  0
LINE
  8
_0-1_作画層１
  6
CONTINUOUS
 62
    7
 10
-0.4937410770400561
 20
159.25128951136088
 11
-0.9996622974779256
 21
159.75721073179878
  0
LINE
  8
_0-1_作画層１
  6
CONTINUOUS
 62
    7
 10
-0.3523197208027397
 20
159.25128951136088
 11
-0.9996622974779256
 21
159.89863208803609
  0
LINE
  8
_0-1_作画層１
  6
CONTINUOUS
 62
    7
 10
-0.2108983645654234
 20
159.25128951136088
 11
-0.9996622974779256
 21
160.04005344427338
  0
LINE
  8
_0-1_作画層１
  6
CONTINUOUS
 62
    7
 10
-0.0694770083281355
 20
159.25128951136088
 11
-0.9996622974779256
 21
160.18147480051067
  0
LINE
  8
_0-1_作画層１
  6
CONTINUOUS
 62
    7
 10
0.0719443479091523
 20
159.25128951136088
 11
-0.9996622974779256
 21
160.32289615674799
  0
LINE
  8
_0-1_作画層１
  6
CONTINUOUS
 62
    7
 10
0.2133657041464687
 20
159.25128951136088
 11
-0.9996622974779256
 21
160.4643175129853
  0
LINE
  8
_0-1_作画層１
  6
CONTINUOUS
 62
    7
 10
0.354787060383785
 20
159.25128951136088
 11
-0.9996622974779256
 21
160.60573886922259
  0
LINE
  8
_0-1_作画層１
  6
CONTINUOUS
 62
    7
 10
0.4962084166210729
 20
159.25128951136088
 11
-0.9996622974779256
 21
160.74716022545988
  0
LINE
  8
_0-1_作画層１
  6
CONTINUOUS
 62
    7
 10
0.6376297728583608
 20
159.25128951136088
 11
-0.9996622974779256
 21
160.88858158169717
  0
LINE
  8
_0-1_作画層１
  6
CONTINUOUS
 62
    7
 10
0.7790511290956772
 20
159.25128951136088
 11
-0.9996622974779256
 21
161.03000293793451
  0
LINE
  8
_0-1_作画層１
  6
CONTINUOUS
 62
    7
 10
0.9204724853329651
 20
159.25128951136088
 11
-0.9996622974779256
 21
161.1714242941718
  0
LINE
  8
_0-1_作画層１
  6
CONTINUOUS
 62
    7
 10
1.0618938415702814
 20
159.25128951136088
 11
-0.9996622974779256
 21
161.31284565040909
  0
LINE
  8
_0-1_作画層１
  6
CONTINUOUS
 62
    7
 10
1.2033151978075693
 20
159.25128951136088
 11
-0.9996622974779256
 21
161.4542670066464
  0
LINE
  8
_0-1_作画層１
  6
CONTINUOUS
 62
    7
 10
1.3447365540448857
 20
159.25128951136088
 11
-0.9996622974779256
 21
161.59568836288372
  0
LINE
  8
_0-1_作画層１
  6
CONTINUOUS
 62
    7
 10
1.486157910282202
 20
159.25128951136088
 11
-0.9996622974779256
 21
161.73710971912101
  0
LINE
  8
_0-1_作画層１
  6
CONTINUOUS
 62
    7
 10
1.6275792665194899
 20
159.25128951136088
 11
-0.9996622974779256
 21
161.8785310753583
  0
LINE
  8
_0-1_作画層１
  6
CONTINUOUS
 62
    7
 10
1.7690006227567778
 20
159.25128951136088
 11
-0.9996622974779256
 21
162.01995243159561
  0
LINE
  8
_0-1_作画層１
  6
CONTINUOUS
 62
    7
 10
1.9104219789940942
 20
159.25128951136088
 11
-0.9996622974779256
 21
162.16137378783293
  0
LINE
  8
_0-1_作画層１
  6
CONTINUOUS
 62
    7
 10
2.0518433352314105
 20
159.25128951136088
 11
-0.9470383670943078
 21
162.2501712136866
  0
LINE
  8
_0-1_作画層１
  6
CONTINUOUS
 62
    7
 10
2.1932646914686984
 20
159.25128951136088
 11
-0.8056170108570199
 21
162.2501712136866
  0
LINE
  8
_0-1_作画層１
  6
CONTINUOUS
 62
    7
 10
2.3346860477060147
 20
159.25128951136088
 11
-0.664195654619732
 21
162.2501712136866
  0
LINE
  8
_0-1_作画層１
  6
CONTINUOUS
 62
    7
 10
2.4761074039433026
 20
159.25128951136088
 11
-0.5227742983824157
 21
162.2501712136866
  0
LINE
  8
_0-1_作画層１
  6
CONTINUOUS
 62
    7
 10
2.4990330219020791
 20
159.36978524963939
 11
-0.3813529421450994
 21
162.2501712136866
  0
LINE
  8
_0-1_作画層１
  6
CONTINUOUS
 62
    7
 10
2.4990330219020791
 20
159.51120660587668
 11
-0.2399315859078115
 21
162.2501712136866
  0
LINE
  8
_0-1_作画層１
  6
CONTINUOUS
 62
    7
 10
2.4990330219020791
 20
159.652627962114
 11
-0.0985102296705235
 21
162.2501712136866
  0
LINE
  8
_0-1_作画層１
  6
CONTINUOUS
 62
    7
 10
2.4990330219020791
 20
159.79404931835131
 11
0.0429111265667927
 21
162.2501712136866
  0
LINE
  8
_0-1_作画層１
  6
CONTINUOUS
 62
    7
 10
2.4990330219020791
 20
159.9354706745886
 11
0.184332482804109
 21
162.2501712136866
  0
LINE
  8
_0-1_作画層１
  6
CONTINUOUS
 62
    7
 10
2.4990330219020791
 20
160.07689203082592
 11
0.3257538390413969
 21
162.2501712136866
  0
LINE
  8
_0-1_作画層１
  6
CONTINUOUS
 62
    7
 10
2.4990330219020791
 20
160.21831338706323
 11
0.4671751952787133
 21
162.2501712136866
  0
LINE
  8
_0-1_作画層１
  6
CONTINUOUS
 62
    7
 10
2.4990330219020791
 20
160.35973474330052
 11
0.6085965515160012
 21
162.2501712136866
  0
LINE
  8
_0-1_作画層１
  6
CONTINUOUS
 62
    7
 10
2.4990330219020791
 20
160.50115609953781
 11
0.7500179077533175
 21
162.2501712136866
  0
LINE
  8
_0-1_作画層１
  6
CONTINUOUS
 62
    7
 10
2.4990330219020791
 20
160.64257745577513
 11
0.8914392639906054
 21
162.2501712136866
  0
LINE
  8
_0-1_作画層１
  6
CONTINUOUS
 62
    7
 10
2.4990330219020791
 20
160.78399881201244
 11
1.0328606202279218
 21
162.2501712136866
  0
LINE
  8
_0-1_作画層１
  6
CONTINUOUS
 62
    7
 10
2.4990330219020791
 20
160.92542016824973
 11
1.1742819764652097
 21
162.2501712136866
  0
LINE
  8
_0-1_作画層１
  6
CONTINUOUS
 62
    7
 10
2.4990330219020791
 20
161.06684152448702
 11
1.315703332702526
 21
162.2501712136866
  0
LINE
  8
_0-1_作画層１
  6
CONTINUOUS
 62
    7
 10
2.4990330219020791
 20
161.20826288072433
 11
1.457124688939814
 21
162.2501712136866
  0
LINE
  8
_0-1_作画層１
  6
CONTINUOUS
 62
    7
 10
2.4990330219020791
 20
161.34968423696165
 11
1.5985460451771303
 21
162.2501712136866
  0
LINE
  8
_0-1_作画層１
  6
CONTINUOUS
 62
    7
 10
2.4990330219020791
 20
161.49110559319894
 11
1.7399674014144466
 21
162.2501712136866
  0
LINE
  8
_0-1_作画層１
  6
CONTINUOUS
 62
    7
 10
2.4990330219020791
 20
161.63252694943623
 11
1.8813887576517345
 21
162.2501712136866
  0
LINE
  8
_0-1_作画層１
  6
CONTINUOUS
 62
    7
 10
2.4990330219020791
 20
161.77394830567354
 11
2.0228101138890224
 21
162.2501712136866
  0
LINE
  8
_0-1_作画層１
  6
CONTINUOUS
 62
    7
 10
2.4990330219020791
 20
161.91536966191086
 11
2.1642314701263388
 21
162.2501712136866
  0
LINE
  8
_0-1_作画層１
  6
CONTINUOUS
 62
    7
 10
2.4990330219020791
 20
162.05679101814815
 11
2.3056528263636551
 21
162.2501712136866
  0
LINE
  8
_0-1_作画層１
  6
CONTINUOUS
 62
    7
 10
2.4990330219020791
 20
162.19821237438543
 11
2.447074182600943
 21
162.2501712136866
  0
LINE
  8
_0-1_作画層１
  6
CONTINUOUS
 62
    7
 10
-1
 20
159.25285016286645
 11
1.7500000000000284
 21
159.25285016286645
  0
LINE
  8
_0-1_作画層１
  6
CONTINUOUS
 62
    7
 10
4
 20
159.25285016286645
 11
7.0000000000000284
 21
159.25285016286645
  0
LINE
  8
_0-1_作画層１
  6
CONTINUOUS
 62
    7
 10
9
 20
159.25285016286645
 11
12.250000000000028
 21
159.25285016286645
  0
TEXT
  8
_0-7_注記層１
 62
    7
 10
14.25
 20
156.75
 40
2
 41
1
 50
0
  1
OFF
  0
LINE
  8
_0-1_作画層１
  6
CONTINUOUS
 62
    7
 10
16.949999999999989
 20
134.34999999999999
 11
23.549999999999997
 21
134.34999999999999
  0
LINE
  8
_0-1_作画層１
  6
CONTINUOUS
 62
    7
 10
23.549999999999997
 20
134.34999999999999
 11
23.549999999999997
 21
138.94999999999999
  0
LINE
  8
_0-1_作画層１
  6
CONTINUOUS
 62
    7
 10
23.549999999999997
 20
138.94999999999999
 11
16.949999999999989
 21
138.94999999999999
  0
LINE
  8
_0-1_作画層１
  6
CONTINUOUS
 62
    7
 10
16.949999999999989
 20
138.94999999999999
 11
16.949999999999989
 21
134.34999999999999
  0
LINE
  8
_0-1_作画層１
  6
CONTINUOUS
 62
    7
 10
25.950000000000003
 20
134.34999999999999
 11
32.549999999999997
 21
134.34999999999999
  0
LINE
  8
_0-1_作画層１
  6
CONTINUOUS
 62
    7
 10
32.549999999999997
 20
134.34999999999999
 11
32.549999999999997
 21
138.94999999999999
  0
LINE
  8
_0-1_作画層１
  6
CONTINUOUS
 62
    7
 10
32.549999999999997
 20
138.94999999999999
 11
25.950000000000003
 21
138.94999999999999
  0
LINE
  8
_0-1_作画層１
  6
CONTINUOUS
 62
    7
 10
25.950000000000003
 20
138.94999999999999
 11
25.950000000000003
 21
134.34999999999999
  0
LINE
  8
_0-1_作画層１
  6
CONTINUOUS
 62
    7
 10
16.949999999999989
 20
143.34999999999999
 11
23.549999999999997
 21
143.34999999999999
  0
LINE
  8
_0-1_作画層１
  6
CONTINUOUS
 62
    7
 10
23.549999999999997
 20
143.34999999999999
 11
23.549999999999997
 21
147.94999999999999
  0
LINE
  8
_0-1_作画層１
  6
CONTINUOUS
 62
    7
 10
23.549999999999997
 20
147.94999999999999
 11
16.949999999999989
 21
147.94999999999999
  0
LINE
  8
_0-1_作画層１
  6
CONTINUOUS
 62
    7
 10
16.949999999999989
 20
147.94999999999999
 11
16.949999999999989
 21
143.34999999999999
  0
LINE
  8
_0-1_作画層１
  6
CONTINUOUS
 62
    7
 10
25.950000000000003
 20
143.34999999999999
 11
32.549999999999997
 21
143.34999999999999
  0
LINE
  8
_0-1_作画層１
  6
CONTINUOUS
 62
    7
 10
32.549999999999997
 20
143.34999999999999
 11
32.549999999999997
 21
147.94999999999999
  0
LINE
  8
_0-1_作画層１
  6
CONTINUOUS
 62
    7
 10
32.549999999999997
 20
147.94999999999999
 11
25.950000000000003
 21
147.94999999999999
  0
LINE
  8
_0-1_作画層１
  6
CONTINUOUS
 62
    7
 10
25.950000000000003
 20
147.94999999999999
 11
25.950000000000003
 21
143.34999999999999
  0
TEXT
  8
_0-7_注記層１
 62
    7
 10
17.748534201954385
 20
139.5
 40
2.6000000000000001
 41
1
 50
0
  1
WEEK
  0
TEXT
  8
_0-7_注記層１
 62
    7
 10
28.652931596091179
 20
139.5
 40
2.6000000000000001
 41
1
 50
0
  1
C
  0
TEXT
  8
_0-7_注記層１
 62
    7
 10
19.048534201954396
 20
148.5
 40
2.6000000000000001
 41
1
 50
0
  1
ON
  0
TEXT
  8
_0-7_注記層１
 62
    7
 10
27.352931596091182
 20
148.5
 40
2.6000000000000001
 41
1
 50
0
  1
OFF
  0
LINE
  8
_0-1_作画層１
  6
CONTINUOUS
 62
    7
 10
14.549999999999983
 20
134.34999999999999
 11
7.9499999999999886
 21
134.34999999999999
  0
LINE
  8
_0-1_作画層１
  6
CONTINUOUS
 62
    7
 10
7.9499999999999886
 20
134.34999999999999
 11
7.9499999999999886
 21
138.94999999999999
  0
LINE
  8
_0-1_作画層１
  6
CONTINUOUS
 62
    7
 10
7.9499999999999886
 20
138.94999999999999
 11
14.550000000000011
 21
138.94999999999999
  0
LINE
  8
_0-1_作画層１
  6
CONTINUOUS
 62
    7
 10
14.550000000000011
 20
138.94999999999999
 11
14.549999999999983
 21
134.34999999999999
  0
LINE
  8
_0-1_作画層１
  6
CONTINUOUS
 62
    7
 10
5.5499999999999829
 20
134.34999999999999
 11
-1.0500000000000114
 21
134.34999999999999
  0
LINE
  8
_0-1_作画層１
  6
CONTINUOUS
 62
    7
 10
-1.0500000000000114
 20
134.34999999999999
 11
-1.0500000000000114
 21
138.94999999999999
  0
LINE
  8
_0-1_作画層１
  6
CONTINUOUS
 62
    7
 10
-1.0500000000000114
 20
138.94999999999999
 11
5.5500000000000114
 21
138.94999999999999
  0
LINE
  8
_0-1_作画層１
  6
CONTINUOUS
 62
    7
 10
5.5500000000000114
 20
138.94999999999999
 11
5.5499999999999829
 21
134.34999999999999
  0
LINE
  8
_0-1_作画層１
  6
CONTINUOUS
 62
    7
 10
14.550000000000011
 20
143.34999999999999
 11
7.9499999999999886
 21
143.34999999999999
  0
LINE
  8
_0-1_作画層１
  6
CONTINUOUS
 62
    7
 10
7.9499999999999886
 20
143.34999999999999
 11
7.9499999999999886
 21
147.94999999999999
  0
LINE
  8
_0-1_作画層１
  6
CONTINUOUS
 62
    7
 10
7.9499999999999886
 20
147.94999999999999
 11
14.550000000000011
 21
147.94999999999999
  0
LINE
  8
_0-1_作画層１
  6
CONTINUOUS
 62
    7
 10
14.550000000000011
 20
147.94999999999999
 11
14.550000000000011
 21
143.34999999999999
  0
LINE
  8
_0-1_作画層１
  6
CONTINUOUS
 62
    7
 10
5.5500000000000114
 20
143.34999999999999
 11
-1.0500000000000114
 21
143.34999999999999
  0
LINE
  8
_0-1_作画層１
  6
CONTINUOUS
 62
    7
 10
-1.0500000000000114
 20
143.34999999999999
 11
-1.0500000000000114
 21
147.94999999999999
  0
LINE
  8
_0-1_作画層１
  6
CONTINUOUS
 62
    7
 10
-1.0500000000000114
 20
147.94999999999999
 11
5.5500000000000114
 21
147.94999999999999
  0
LINE
  8
_0-1_作画層１
  6
CONTINUOUS
 62
    7
 10
5.5500000000000114
 20
147.94999999999999
 11
5.5500000000000114
 21
143.34999999999999
  0
TEXT
  8
_0-7_注記層１
 62
    7
 10
-9.625
 20
151.25
 40
2.5
 41
1
 50
0
  1
SUNAO
  0
LINE
  8
_0-1_作画層１
  6
CONTINUOUS
 62
    7
 10
-5.8404832347139859
 20
151.61365877712032
 11
-5.829811739270923
 21
151.60411497733551
  0
LINE
  8
_0-1_作画層１
  6
CONTINUOUS
 62
    7
 10
-5.829811739270923
 20
151.60411497733551
 11
-5.8208330799915302
 21
151.59650206589563
  0
LINE
  8
_0-1_作画層１
  6
CONTINUOUS
 62
    7
 10
-5.8208330799915302
 20
151.59650206589563
 11
-5.809620306637612
 21
151.58716361055474
  0
LINE
  8
_0-1_作画層１
  6
CONTINUOUS
 62
    7
 10
-5.809620306637612
 20
151.58716361055474
 11
-5.796319289432148
 21
151.57622595916064
  0
LINE
  8
_0-1_作画層１
  6
CONTINUOUS
 62
    7
 10
-5.796319289432148
 20
151.57622595916064
 11
-5.7810758985982034
 21
151.5638154595614
  0
LINE
  8
_0-1_作画層１
  6
CONTINUOUS
 62
    7
 10
-5.7810758985982034
 20
151.5638154595614
 11
-5.7640360043587293
 21
151.55005845960477
  0
LINE
  8
_0-1_作画層１
  6
CONTINUOUS
 62
    7
 10
-5.7640360043587293
 20
151.55005845960477
 11
-5.7453454769367625
 21
151.53508130713894
  0
LINE
  8
_0-1_作画層１
  6
CONTINUOUS
 62
    7
 10
-5.7453454769367625
 20
151.53508130713894
 11
-5.7251501865553678
 21
151.51901035001151
  0
LINE
  8
_0-1_作画層１
  6
CONTINUOUS
 62
    7
 10
-5.7251501865553678
 20
151.51901035001151
 11
-5.7035960034374398
 21
151.50197193607079
  0
LINE
  8
_0-1_作画層１
  6
CONTINUOUS
 62
    7
 10
-5.7035960034374398
 20
151.50197193607079
 11
-5.6808287978061287
 21
151.48409241316432
  0
LINE
  8
_0-1_作画層１
  6
CONTINUOUS
 62
    7
 10
-5.6808287978061287
 20
151.48409241316432
 11
-5.656994439884329
 21
151.46549812914034
  0
LINE
  8
_0-1_作画層１
  6
CONTINUOUS
 62
    7
 10
-5.656994439884329
 20
151.46549812914034
 11
-5.6322387998951342
 21
151.44631543184659
  0
LINE
  8
_0-1_作画層１
  6
CONTINUOUS
 62
    7
 10
-5.6322387998951342
 20
151.44631543184659
 11
-5.6067077480614955
 21
151.42667066913106
  0
LINE
  8
_0-1_作画層１
  6
CONTINUOUS
 62
    7
 10
-5.6067077480614955
 20
151.42667066913106
 11
-5.580547154606478
 21
151.40669018884165
  0
LINE
  8
_0-1_作画層１
  6
CONTINUOUS
 62
    7
 10
-5.580547154606478
 20
151.40669018884165
 11
-5.5539028897530898
 21
151.38650033882638
  0
LINE
  8
_0-1_作画層１
  6
CONTINUOUS
 62
    7
 10
-5.5539028897530898
 20
151.38650033882638
 11
-5.5269208237243106
 21
151.36622746693303
  0
LINE
  8
_0-1_作画層１
  6
CONTINUOUS
 62
    7
 10
-5.5269208237243106
 20
151.36622746693303
 11
-5.4997468267431486
 21
151.34599792100965
  0
LINE
  8
_0-1_作画層１
  6
CONTINUOUS
 62
    7
 10
-5.4997468267431486
 20
151.34599792100965
 11
-5.4725267690326689
 21
151.32593804890411
  0
LINE
  8
_0-1_作画層１
  6
CONTINUOUS
 62
    7
 10
-5.4725267690326689
 20
151.32593804890411
 11
-5.4454065208158227
 21
151.30617419846436
  0
LINE
  8
_0-1_作画層１
  6
CONTINUOUS
 62
    7
 10
-5.4454065208158227
 20
151.30617419846436
 11
-5.4185319523157034
 21
151.28683271753829
  0
LINE
  8
_0-1_作画層１
  6
CONTINUOUS
 62
    7
 10
-5.4185319523157034
 20
151.28683271753829
 11
-5.392048933755234
 21
151.26803995397387
  0
LINE
  8
_0-1_作画層１
  6
CONTINUOUS
 62
    7
 10
-5.392048933755234
 20
151.26803995397387
 11
-5.3661033353574794
 21
151.24992225561905
  0
LINE
  8
_0-1_作画層１
  6
CONTINUOUS
 62
    7
 10
-5.3661033353574794
 20
151.24992225561905
 11
-5.3408410273454479
 21
151.23260597032169
  0
LINE
  8
_0-1_作画層１
  6
CONTINUOUS
 62
    7
 10
-5.3408410273454479
 20
151.23260597032169
 11
-5.3164078799421191
 21
151.21621744592977
  0
LINE
  8
_0-1_作画層１
  6
CONTINUOUS
 62
    7
 10
-5.3164078799421191
 20
151.21621744592977
 11
-5.292949763370558
 21
151.20088303029115
  0
LINE
  8
_0-1_作画層１
  6
CONTINUOUS
 62
    7
 10
-5.292949763370558
 20
151.20088303029115
 11
-5.270612547853716
 21
151.18672907125384
  0
LINE
  8
_0-1_作画層１
  6
CONTINUOUS
 62
    7
 10
-5.270612547853716
 20
151.18672907125384
 11
-5.2495421036146865
 21
151.17388191666572
  0
LINE
  8
_0-1_作画層１
  6
CONTINUOUS
 62
    7
 10
-5.2495421036146865
 20
151.17388191666572
 11
-5.2298843008764209
 21
151.1624679143747
  0
LINE
  8
_0-1_作画層１
  6
CONTINUOUS
 62
    7
 10
-5.2298843008764209
 20
151.1624679143747
 11
-5.2117850098619272
 21
151.15261341222879
  0
LINE
  8
_0-1_作画層１
  6
CONTINUOUS
 62
    7
 10
-5.2117850098619272
 20
151.15261341222879
 11
-5.1675818794621478
 21
151.13038895114667
  0
LINE
  8
_0-1_作画層１
  6
CONTINUOUS
 62
    7
 10
-5.1675818794621478
 20
151.13038895114667
 11
-5.1433612679264797
 21
151.1188227771419
  0
LINE
  8
_0-1_作画層１
  6
CONTINUOUS
 62
    7
 10
-5.1433612679264797
 20
151.1188227771419
 11
-5.1178610929277681
 21
151.10700986459861
  0
LINE
  8
_0-1_作画層１
  6
CONTINUOUS
 62
    7
 10
-5.1178610929277681
 20
151.10700986459861
 11
-5.0911812050366052
 21
151.09499213134487
  0
LINE
  8
_0-1_作画層１
  6
CONTINUOUS
 62
    7
 10
-5.0911812050366052
 20
151.09499213134487
 11
-5.0634214548235263
 21
151.08281149520857
  0
LINE
  8
_0-1_作画層１
  6
CONTINUOUS
 62
    7
 10
-5.0634214548235263
 20
151.08281149520857
 11
-5.0346816928592375
 21
151.07050987401777
  0
LINE
  8
_0-1_作画層１
  6
CONTINUOUS
 62
    7
 10
-5.0346816928592375
 20
151.07050987401777
 11
-5.0050617697142457
 21
151.05812918560054
  0
LINE
  8
_0-1_作画層１
  6
CONTINUOUS
 62
    7
 10
-5.0050617697142457
 20
151.05812918560054
 11
-4.9746615359591431
 21
151.04571134778467
  0
LINE
  8
_0-1_作画層１
  6
CONTINUOUS
 62
    7
 10
-4.9746615359591431
 20
151.04571134778467
 11
-4.943580842164522
 21
151.03329827839846
  0
LINE
  8
_0-1_作画層１
  6
CONTINUOUS
 62
    7
 10
-4.943580842164522
 20
151.03329827839846
 11
-4.9119195389010031
 21
151.02093189526957
  0
LINE
  8
_0-1_作画層１
  6
CONTINUOUS
 62
    7
 10
-4.9119195389010031
 20
151.02093189526957
 11
-4.8797774767391502
 21
151.00865411622627
  0
LINE
  8
_0-1_作画層１
  6
CONTINUOUS
 62
    7
 10
-4.8797774767391502
 20
151.00865411622627
 11
-4.847254506249584
 21
150.99650685909643
  0
LINE
  8
_0-1_作画層１
  6
CONTINUOUS
 62
    7
 10
-4.847254506249584
 20
150.99650685909643
 11
-4.8144504780028399
 21
150.98453204170801
  0
LINE
  8
_0-1_作画層１
  6
CONTINUOUS
 62
    7
 10
-4.8144504780028399
 20
150.98453204170801
 11
-4.7814652425695954
 21
150.97277158188905
  0
LINE
  8
_0-1_作画層１
  6
CONTINUOUS
 62
    7
 10
-4.7814652425695954
 20
150.97277158188905
 11
-4.7483986505203575
 21
150.96126739746757
  0
LINE
  8
_0-1_作画層１
  6
CONTINUOUS
 62
    7
 10
-4.7483986505203575
 20
150.96126739746757
 11
-4.7153505524257469
 21
150.95006140627149
  0
LINE
  8
_0-1_作画層１
  6
CONTINUOUS
 62
    7
 10
-4.7153505524257469
 20
150.95006140627149
 11
-4.6824207988563842
 21
150.93919552612888
  0
LINE
  8
_0-1_作画層１
  6
CONTINUOUS
 62
    7
 10
-4.6824207988563842
 20
150.93919552612888
 11
-4.6497092403828333
 21
150.92871167486771
  0
LINE
  8
_0-1_作画層１
  6
CONTINUOUS
 62
    7
 10
-4.6497092403828333
 20
150.92871167486771
 11
-4.617315727575658
 21
150.91865177031599
  0
LINE
  8
_0-1_作画層１
  6
CONTINUOUS
 62
    7
 10
-4.617315727575658
 20
150.91865177031599
 11
-4.5853401110055074
 21
150.90905773030164
  0
LINE
  8
_0-1_作画層１
  6
CONTINUOUS
 62
    7
 10
-4.5853401110055074
 20
150.90905773030164
 11
-4.5538822412429454
 21
150.89997147265277
  0
LINE
  8
_0-1_作画層１
  6
CONTINUOUS
 62
    7
 10
-4.5538822412429454
 20
150.89997147265277
 11
-4.5230419688585357
 21
150.89143491519735
  0
LINE
  8
_0-1_作画層１
  6
CONTINUOUS
 62
    7
 10
-4.5230419688585357
 20
150.89143491519735
 11
-4.4929191444228991
 21
150.88348997576327
  0
LINE
  8
_0-1_作画層１
  6
CONTINUOUS
 62
    7
 10
-4.4929191444228991
 20
150.88348997576327
 11
-4.4636136185066277
 21
150.87617857217865
  0
LINE
  8
_0-1_作画層１
  6
CONTINUOUS
 62
    7
 10
-4.4636136185066277
 20
150.87617857217865
 11
-4.435225241680314
 21
150.86954262227138
  0
LINE
  8
_0-1_作画層１
  6
CONTINUOUS
 62
    7
 10
-4.435225241680314
 20
150.86954262227138
 11
-4.40785386451455
 21
150.86362404386955
  0
LINE
  8
_0-1_作画層１
  6
CONTINUOUS
 62
    7
 10
-4.40785386451455
 20
150.86362404386955
 11
-4.3815993375798996
 21
150.85846475480108
  0
LINE
  8
_0-1_作画層１
  6
CONTINUOUS
 62
    7
 10
-4.3815993375798996
 20
150.85846475480108
 11
-4.356561511447012
 21
150.85410667289398
  0
LINE
  8
_0-1_作画層１
  6
CONTINUOUS
 62
    7
 10
-4.356561511447012
 20
150.85410667289398
 11
-4.3328402366863941
 21
150.85059171597632
  0
LINE
  8
_0-1_作画層１
  6
CONTINUOUS
 62
    7
 10
-4.3328402366863941
 20
150.85059171597632
 11
-4.2607272694284859
 21
150.84277676254953
  0
LINE
  8
_0-1_作画層１
  6
CONTINUOUS
 62
    7
 10
-4.2607272694284859
 20
150.84277676254953
 11
-4.2215182694704936
 21
150.83976830612409
  0
LINE
  8
_0-1_作画層１
  6
CONTINUOUS
 62
    7
 10
-4.2215182694704936
 20
150.83976830612409
 11
-4.1804204499264017
 21
150.83734306111359
  0
LINE
  8
_0-1_作画層１
  6
CONTINUOUS
 62
    7
 10
-4.1804204499264017
 20
150.83734306111359
 11
-4.1375934542712685
 21
150.83548892593532
  0
LINE
  8
_0-1_作画層１
  6
CONTINUOUS
 62
    7
 10
-4.1375934542712685
 20
150.83548892593532
 11
-4.0931969259800383
 21
150.83419379900658
  0
LINE
  8
_0-1_作画層１
  6
CONTINUOUS
 62
    7
 10
-4.0931969259800383
 20
150.83419379900658
 11
-4.0473905085277124
 21
150.83344557874443
  0
LINE
  8
_0-1_作画層１
  6
CONTINUOUS
 62
    7
 10
-4.0473905085277124
 20
150.83344557874443
 11
-4.0003338453892638
 21
150.83323216356646
  0
LINE
  8
_0-1_作画層１
  6
CONTINUOUS
 62
    7
 10
-4.0003338453892638
 20
150.83323216356646
 11
-3.9521865800396938
 21
150.8335414518896
  0
LINE
  8
_0-1_作画層１
  6
CONTINUOUS
 62
    7
 10
-3.9521865800396938
 20
150.8335414518896
 11
-3.9031083559539184
 21
150.83436134213139
  0
LINE
  8
_0-1_作画層１
  6
CONTINUOUS
 62
    7
 10
-3.9031083559539184
 20
150.83436134213139
 11
-3.8532588166070525
 21
150.83567973270883
  0
LINE
  8
_0-1_作画層１
  6
CONTINUOUS
 62
    7
 10
-3.8532588166070525
 20
150.83567973270883
 11
-3.8027976054739554
 21
150.83748452203932
  0
LINE
  8
_0-1_作画層１
  6
CONTINUOUS
 62
    7
 10
-3.8027976054739554
 20
150.83748452203932
 11
-3.7518843660296852
 21
150.83976360854007
  0
LINE
  8
_0-1_作画層１
  6
CONTINUOUS
 62
    7
 10
-3.7518843660296852
 20
150.83976360854007
 11
-3.7006787417491864
 21
150.84250489062842
  0
LINE
  8
_0-1_作画層１
  6
CONTINUOUS
 62
    7
 10
-3.7006787417491864
 20
150.84250489062842
 11
-3.6493403761074887
 21
150.84569626672152
  0
LINE
  8
_0-1_作画層１
  6
CONTINUOUS
 62
    7
 10
-3.6493403761074887
 20
150.84569626672152
 11
-3.5980289125795366
 21
150.84932563523665
  0
LINE
  8
_0-1_作画層１
  6
CONTINUOUS
 62
    7
 10
-3.5980289125795366
 20
150.84932563523665
 11
-3.5469039946403313
 21
150.85338089459106
  0
LINE
  8
_0-1_作画層１
  6
CONTINUOUS
 62
    7
 10
-3.5469039946403313
 20
150.85338089459106
 11
-3.4961252657648458
 21
150.85784994320204
  0
LINE
  8
_0-1_作画層１
  6
CONTINUOUS
 62
    7
 10
-3.4961252657648458
 20
150.85784994320204
 11
-3.445852369428053
 21
150.86272067948681
  0
LINE
  8
_0-1_作画層１
  6
CONTINUOUS
 62
    7
 10
-3.445852369428053
 20
150.86272067948681
 11
-3.3962449491049824
 21
150.86798100186269
  0
LINE
  8
_0-1_作画層１
  6
CONTINUOUS
 62
    7
 10
-3.3962449491049824
 20
150.86798100186269
 11
-3.3474626482706071
 21
150.87361880874684
  0
LINE
  8
_0-1_作画層１
  6
CONTINUOUS
 62
    7
 10
-3.3474626482706071
 20
150.87361880874684
 11
-3.2996651103998715
 21
150.87962199855656
  0
LINE
  8
_0-1_作画層１
  6
CONTINUOUS
 62
    7
 10
-3.2996651103998715
 20
150.87962199855656
 11
-3.2530119789678054
 21
150.88597846970919
  0
LINE
  8
_0-1_作画層１
  6
CONTINUOUS
 62
    7
 10
-3.2530119789678054
 20
150.88597846970919
 11
-3.2076628974493815
 21
150.89267612062184
  0
LINE
  8
_0-1_作画層１
  6
CONTINUOUS
 62
    7
 10
-3.2076628974493815
 20
150.89267612062184
 11
-3.1637775093195728
 21
150.89970284971187
  0
LINE
  8
_0-1_作画層１
  6
CONTINUOUS
 62
    7
 10
-3.1637775093195728
 20
150.89970284971187
 11
-3.1215154580533522
 21
150.90704655539651
  0
LINE
  8
_0-1_作画層１
  6
CONTINUOUS
 62
    7
 10
-3.1215154580533522
 20
150.90704655539651
 11
-3.0810363871257209
 21
150.91469513609297
  0
LINE
  8
_0-1_作画層１
  6
CONTINUOUS
 62
    7
 10
-3.0810363871257209
 20
150.91469513609297
 11
-3.0424999400116803
 21
150.92263649021854
  0
LINE
  8
_0-1_作画層１
  6
CONTINUOUS
 62
    7
 10
-3.0424999400116803
 20
150.92263649021854
 11
-3.0060657601862033
 21
150.93085851619045
  0
LINE
  8
_0-1_作画層１
  6
CONTINUOUS
 62
    7
 10
-3.0060657601862033
 20
150.93085851619045
 11
-2.9718934911242627
 21
150.93934911242604
  0
LINE
  8
_0-1_作画層１
  6
CONTINUOUS
 62
    7
 10
-2.9718934911242627
 20
150.93934911242604
 11
-2.9332435733649049
 21
150.95030378391894
  0
LINE
  8
_0-1_作画層１
  6
CONTINUOUS
 62
    7
 10
-2.9332435733649049
 20
150.95030378391894
 11
-2.9124241658082326
 21
150.95679640157368
  0
LINE
  8
_0-1_作画層１
  6
CONTINUOUS
 62
    7
 10
-2.9124241658082326
 20
150.95679640157368
 11
-2.8907205300411647
 21
150.96392243283933
  0
LINE
  8
_0-1_作画層１
  6
CONTINUOUS
 62
    7
 10
-2.8907205300411647
 20
150.96392243283933
 11
-2.8682167192444581
 21
150.97164929696993
  0
LINE
  8
_0-1_作画層１
  6
CONTINUOUS
 62
    7
 10
-2.8682167192444581
 20
150.97164929696993
 11
-2.8449967865988128
 21
150.97994441321956
  0
LINE
  8
_0-1_作画層１
  6
CONTINUOUS
 62
    7
 10
-2.8449967865988128
 20
150.97994441321956
 11
-2.8211447852850711
 21
150.98877520084207
  0
LINE
  8
_0-1_作画層１
  6
CONTINUOUS
 62
    7
 10
-2.8211447852850711
 20
150.98877520084207
 11
-2.7967447684838476
 21
150.99810907909182
  0
LINE
  8
_0-1_作画層１
  6
CONTINUOUS
 62
    7
 10
-2.7967447684838476
 20
150.99810907909182
 11
-2.7718807893759276
 21
151.00791346722258
  0
LINE
  8
_0-1_作画層１
  6
CONTINUOUS
 62
    7
 10
-2.7718807893759276
 20
151.00791346722258
 11
-2.7466369011420397
 21
151.01815578448858
  0
LINE
  8
_0-1_作画層１
  6
CONTINUOUS
 62
    7
 10
-2.7466369011420397
 20
151.01815578448858
 11
-2.7210971569629407
 21
151.02880345014367
  0
LINE
  8
_0-1_作画層１
  6
CONTINUOUS
 62
    7
 10
-2.7210971569629407
 20
151.02880345014367
 11
-2.6953456100193023
 21
151.03982388344204
  0
LINE
  8
_0-1_作画層１
  6
CONTINUOUS
 62
    7
 10
-2.6953456100193023
 20
151.03982388344204
 11
-2.6694663134919381
 21
151.05118450363761
  0
LINE
  8
_0-1_作画層１
  6
CONTINUOUS
 62
    7
 10
-2.6694663134919381
 20
151.05118450363761
 11
-2.6435433205615482
 21
151.06285272998457
  0
LINE
  8
_0-1_作画層１
  6
CONTINUOUS
 62
    7
 10
-2.6435433205615482
 20
151.06285272998457
 11
-2.617660684408861
 21
151.07479598173686
  0
LINE
  8
_0-1_作画層１
  6
CONTINUOUS
 62
    7
 10
-2.617660684408861
 20
151.07479598173686
 11
-2.5919024582146335
 21
151.0869816781485
  0
LINE
  8
_0-1_作画層１
  6
CONTINUOUS
 62
    7
 10
-2.5919024582146335
 20
151.0869816781485
 11
-2.5663526951595372
 21
151.09937723847355
  0
LINE
  8
_0-1_作画層１
  6
CONTINUOUS
 62
    7
 10
-2.5663526951595372
 20
151.09937723847355
 11
-2.5410954484243859
 21
151.11195008196606
  0
LINE
  8
_0-1_作画層１
  6
CONTINUOUS
 62
    7
 10
-2.5410954484243859
 20
151.11195008196606
 11
-2.5162147711898797
 21
151.12466762788009
  0
LINE
  8
_0-1_作画層１
  6
CONTINUOUS
 62
    7
 10
-2.5162147711898797
 20
151.12466762788009
 11
-2.4917947166367469
 21
151.13749729546967
  0
LINE
  8
_0-1_作画層１
  6
CONTINUOUS
 62
    7
 10
-2.4917947166367469
 20
151.13749729546967
 11
-2.4679193379457729
 21
151.15040650398879
  0
LINE
  8
_0-1_作画層１
  6
CONTINUOUS
 62
    7
 10
-2.4679193379457729
 20
151.15040650398879
 11
-2.4446726882976009
 21
151.16336267269151
  0
LINE
  8
_0-1_作画層１
  6
CONTINUOUS
 62
    7
 10
-2.4446726882976009
 20
151.16336267269151
 11
-2.4221388208730161
 21
151.17633322083196
  0
LINE
  8
_0-1_作画層１
  6
CONTINUOUS
 62
    7
 10
-2.4221388208730161
 20
151.17633322083196
 11
-2.4004017888527756
 21
151.18928556766406
  0
LINE
  8
_0-1_作画層１
  6
CONTINUOUS
 62
    7
 10
-2.4004017888527756
 20
151.18928556766406
 11
-2.3795456454175792
 21
151.20218713244185
  0
LINE
  8
_0-1_作画層１
  6
CONTINUOUS
 62
    7
 10
-2.3795456454175792
 20
151.20218713244185
 11
-2.3596544437481839
 21
151.21500533441946
  0
LINE
  8
_0-1_作画層１
  6
CONTINUOUS
 62
    7
 10
-2.3596544437481839
 20
151.21500533441946
 11
-2.3408122370253182
 21
151.22770759285083
  0
LINE
  8
_0-1_作画層１
  6
CONTINUOUS
 62
    7
 10
-2.3408122370253182
 20
151.22770759285083
 11
-2.3231030784297104
 21
151.24026132699009
  0
LINE
  8
_0-1_作画層１
  6
CONTINUOUS
 62
    7
 10
-2.3231030784297104
 20
151.24026132699009
 11
-2.3066110211420892
 21
151.25263395609122
  0
LINE
  8
_0-1_作画層１
  6
CONTINUOUS
 62
    7
 10
-2.3066110211420892
 20
151.25263395609122
 11
-2.2914201183431828
 21
151.26479289940829
  0
LINE
  8
_0-1_作画層１
  6
CONTINUOUS
 62
    7
 10
-2.2914201183431828
 20
151.26479289940829
 11
-2.2334528594428775
 21
151.31599640511865
  0
LINE
  8
_0-1_作画層１
  6
CONTINUOUS
 62
    7
 10
-2.2334528594428775
 20
151.31599640511865
 11
-2.2043746775367765
 21
151.34392710126792
  0
LINE
  8
_0-1_作画層１
  6
CONTINUOUS
 62
    7
 10
-2.2043746775367765
 20
151.34392710126792
 11
-2.1752364270116118
 21
151.37333736139217
  0
LINE
  8
_0-1_作画層１
  6
CONTINUOUS
 62
    7
 10
-2.1752364270116118
 20
151.37333736139217
 11
-2.1460403326310598
 21
151.40417238682571
  0
LINE
  8
_0-1_作画層１
  6
CONTINUOUS
 62
    7
 10
-2.1460403326310598
 20
151.40417238682571
 11
-2.1167886191587968
 21
151.43637737890279
  0
LINE
  8
_0-1_作画層１
  6
CONTINUOUS
 62
    7
 10
-2.1167886191587968
 20
151.43637737890279
 11
-2.0874835113584709
 21
151.46989753895761
  0
LINE
  8
_0-1_作画層１
  6
CONTINUOUS
 62
    7
 10
-2.0874835113584709
 20
151.46989753895761
 11
-2.05812723399373
 21
151.50467806832461
  0
LINE
  8
_0-1_作画層１
  6
CONTINUOUS
 62
    7
 10
-2.05812723399373
 20
151.50467806832461
 11
-2.0287220118283074
 21
151.54066416833786
  0
LINE
  8
_0-1_作画層１
  6
CONTINUOUS
 62
    7
 10
-2.0287220118283074
 20
151.54066416833786
 11
-1.9992700696258225
 21
151.57780104033174
  0
LINE
  8
_0-1_作画層１
  6
CONTINUOUS
 62
    7
 10
-1.9992700696258225
 20
151.57780104033174
 11
-1.9697736321499804
 21
151.61603388564035
  0
LINE
  8
_0-1_作画層１
  6
CONTINUOUS
 62
    7
 10
-1.9697736321499804
 20
151.61603388564035
 11
-1.9402349241643719
 21
151.65530790559816
  0
LINE
  8
_0-1_作画層１
  6
CONTINUOUS
 62
    7
 10
-1.9402349241643719
 20
151.65530790559816
 11
-1.9106561704327873
 21
151.69556830153928
  0
LINE
  8
_0-1_作画層１
  6
CONTINUOUS
 62
    7
 10
-1.9106561704327873
 20
151.69556830153928
 11
-1.8810395957187893
 21
151.73676027479803
  0
LINE
  8
_0-1_作画層１
  6
CONTINUOUS
 62
    7
 10
-1.8810395957187893
 20
151.73676027479803
 11
-1.8513874247860826
 21
151.77882902670859
  0
LINE
  8
_0-1_作画層１
  6
CONTINUOUS
 62
    7
 10
-1.8513874247860826
 20
151.77882902670859
 11
-1.8217018823983722
 21
151.82171975860535
  0
LINE
  8
_0-1_作画層１
  6
CONTINUOUS
 62
    7
 10
-1.8217018823983722
 20
151.82171975860535
 11
-1.7919851933192774
 21
151.86537767182247
  0
LINE
  8
_0-1_作画層１
  6
CONTINUOUS
 62
    7
 10
-1.7919851933192774
 20
151.86537767182247
 11
-1.7622395823124748
 21
151.90974796769422
  0
LINE
  8
_0-1_作画層１
  6
CONTINUOUS
 62
    7
 10
-1.7622395823124748
 20
151.90974796769422
 11
-1.7324672741416407
 21
151.95477584755491
  0
LINE
  8
_0-1_作画層１
  6
CONTINUOUS
 62
    7
 10
-1.7324672741416407
 20
151.95477584755491
 11
-1.7026704935704799
 21
152.00040651273875
  0
LINE
  8
_0-1_作画層１
  6
CONTINUOUS
 62
    7
 10
-1.7026704935704799
 20
152.00040651273875
 11
-1.6728514653626121
 21
152.04658516457994
  0
LINE
  8
_0-1_作画層１
  6
CONTINUOUS
 62
    7
 10
-1.6728514653626121
 20
152.04658516457994
 11
-1.6430124142817419
 21
152.09325700441286
  0
LINE
  8
_0-1_作画層１
  6
CONTINUOUS
 62
    7
 10
-1.6430124142817419
 20
152.09325700441286
 11
-1.6131555650914891
 21
152.14036723357177
  0
LINE
  8
_0-1_作画層１
  6
CONTINUOUS
 62
    7
 10
-1.6131555650914891
 20
152.14036723357177
 11
-1.5832831425555582
 21
152.1878610533908
  0
LINE
  8
_0-1_作画層１
  6
CONTINUOUS
 62
    7
 10
-1.5832831425555582
 20
152.1878610533908
 11
-1.5533973714376259
 21
152.23568366520431
  0
LINE
  8
_0-1_作画層１
  6
CONTINUOUS
 62
    7
 10
-1.5533973714376259
 20
152.23568366520431
 11
-1.52350047650134
 21
152.28378027034648
  0
LINE
  8
_0-1_作画層１
  6
CONTINUOUS
 62
    7
 10
-1.52350047650134
 20
152.28378027034648
 11
-1.493594682510377
 21
152.33209607015169
  0
LINE
  8
_0-1_作画層１
  6
CONTINUOUS
 62
    7
 10
-1.493594682510377
 20
152.33209607015169
 11
-1.4636822142284132
 21
152.38057626595406
  0
LINE
  8
_0-1_作画層１
  6
CONTINUOUS
 62
    7
 10
-1.4636822142284132
 20
152.38057626595406
 11
-1.433765296419125
 21
152.42916605908792
  0
LINE
  8
_0-1_作画層１
  6
CONTINUOUS
 62
    7
 10
-1.433765296419125
 20
152.42916605908792
 11
-1.4038461538461604
 21
152.47781065088756
  0
LINE
  8
_0-1_作画層１
  6
CONTINUOUS
 62
    7
 10
-11.142504930966481
 20
153.66740631163708
 11
-11.143191424048467
 21
153.67717612119361
  0
LINE
  8
_0-1_作画層１
  6
CONTINUOUS
 62
    7
 10
-11.143191424048467
 20
153.67717612119361
 11
-11.143241192642705
 21
153.6852828017563
  0
LINE
  8
_0-1_作画層１
  6
CONTINUOUS
 62
    7
 10
-11.143241192642705
 20
153.6852828017563
 11
-11.143091094104449
 21
153.69535224318562
  0
LINE
  8
_0-1_作画層１
  6
CONTINUOUS
 62
    7
 10
-11.143091094104449
 20
153.69535224318562
 11
-11.142737967057798
 21
153.70724562823941
  0
LINE
  8
_0-1_作画層１
  6
CONTINUOUS
 62
    7
 10
-11.142737967057798
 20
153.70724562823941
 11
-11.142178650126766
 21
153.72082413967533
  0
LINE
  8
_0-1_作画層１
  6
CONTINUOUS
 62
    7
 10
-11.142178650126766
 20
153.72082413967533
 11
-11.141409981935396
 21
153.73594896025119
  0
LINE
  8
_0-1_作画層１
  6
CONTINUOUS
 62
    7
 10
-11.141409981935396
 20
153.73594896025119
 11
-11.14042880110776
 21
153.75248127272494
  0
LINE
  8
_0-1_作画層１
  6
CONTINUOUS
 62
    7
 10
-11.14042880110776
 20
153.75248127272494
 11
-11.13923194626787
 21
153.77028225985407
  0
LINE
  8
_0-1_作画層１
  6
CONTINUOUS
 62
    7
 10
-11.13923194626787
 20
153.77028225985407
 11
-11.13781625603977
 21
153.78921310439668
  0
LINE
  8
_0-1_作画層１
  6
CONTINUOUS
 62
    7
 10
-11.13781625603977
 20
153.78921310439668
 11
-11.136178569047559
 21
153.80913498911016
  0
LINE
  8
_0-1_作画層１
  6
CONTINUOUS
 62
    7
 10
-11.136178569047559
 20
153.80913498911016
 11
-11.134315723915222
 21
153.82990909675263
  0
LINE
  8
_0-1_作画層１
  6
CONTINUOUS
 62
    7
 10
-11.134315723915222
 20
153.82990909675263
 11
-11.132224559266831
 21
153.85139661008168
  0
LINE
  8
_0-1_作画層１
  6
CONTINUOUS
 62
    7
 10
-11.132224559266831
 20
153.85139661008168
 11
-11.1299019137264
 21
153.87345871185514
  0
LINE
  8
_0-1_作画層１
  6
CONTINUOUS
 62
    7
 10
-11.1299019137264
 20
153.87345871185514
 11
-11.127344625917999
 21
153.8959565848308
  0
LINE
  8
_0-1_作画層１
  6
CONTINUOUS
 62
    7
 10
-11.127344625917999
 20
153.8959565848308
 11
-11.1245495344657
 21
153.91875141176638
  0
LINE
  8
_0-1_作画層１
  6
CONTINUOUS
 62
    7
 10
-11.1245495344657
 20
153.91875141176638
 11
-11.121513477993517
 21
153.94170437541965
  0
LINE
  8
_0-1_作画層１
  6
CONTINUOUS
 62
    7
 10
-11.121513477993517
 20
153.94170437541965
 11
-11.118233295125492
 21
153.96467665854851
  0
LINE
  8
_0-1_作画層１
  6
CONTINUOUS
 62
    7
 10
-11.118233295125492
 20
153.96467665854851
 11
-11.114705824485668
 21
153.9875294439106
  0
LINE
  8
_0-1_作画層１
  6
CONTINUOUS
 62
    7
 10
-11.114705824485668
 20
153.9875294439106
 11
-11.110927904698087
 21
154.01012391426377
  0
LINE
  8
_0-1_作画層１
  6
CONTINUOUS
 62
    7
 10
-11.110927904698087
 20
154.01012391426377
 11
-11.106896374386849
 21
154.0323212523657
  0
LINE
  8
_0-1_作画層１
  6
CONTINUOUS
 62
    7
 10
-11.106896374386849
 20
154.0323212523657
 11
-11.102608072175883
 21
154.05398264097431
  0
LINE
  8
_0-1_作画層１
  6
CONTINUOUS
 62
    7
 10
-11.102608072175883
 20
154.05398264097431
 11
-11.098059836689345
 21
154.07496926284733
  0
LINE
  8
_0-1_作画層１
  6
CONTINUOUS
 62
    7
 10
-11.098059836689345
 20
154.07496926284733
 11
-11.093248506551248
 21
154.09514230074242
  0
LINE
  8
_0-1_作画層１
  6
CONTINUOUS
 62
    7
 10
-11.093248506551248
 20
154.09514230074242
 11
-11.088170920385608
 21
154.11436293741747
  0
LINE
  8
_0-1_作画層１
  6
CONTINUOUS
 62
    7
 10
-11.088170920385608
 20
154.11436293741747
 11
-11.082823916816494
 21
154.13249235563023
  0
LINE
  8
_0-1_作画層１
  6
CONTINUOUS
 62
    7
 10
-11.082823916816494
 20
154.13249235563023
 11
-11.077204334467979
 21
154.14939173813846
  0
LINE
  8
_0-1_作画層１
  6
CONTINUOUS
 62
    7
 10
-11.077204334467979
 20
154.14939173813846
 11
-11.071309011964047
 21
154.16492226769998
  0
LINE
  8
_0-1_作画層１
  6
CONTINUOUS
 62
    7
 10
-11.071309011964047
 20
154.16492226769998
 11
-11.06513478792877
 21
154.17894512707244
  0
LINE
  8
_0-1_作画層１
  6
CONTINUOUS
 62
    7
 10
-11.06513478792877
 20
154.17894512707244
 11
-11.05867850098619
 21
154.19132149901381
  0
LINE
  8
_0-1_作画層１
  6
CONTINUOUS
 62
    7
 10
-11.05867850098619
 20
154.19132149901381
 11
-11.023829949118976
 21
154.24617799742899
  0
LINE
  8
_0-1_作画層１
  6
CONTINUOUS
 62
    7
 10
-11.023829949118976
 20
154.24617799742899
 11
-11.003230125612646
 21
154.27487226746015
  0
LINE
  8
_0-1_作画層１
  6
CONTINUOUS
 62
    7
 10
-11.003230125612646
 20
154.27487226746015
 11
-10.980678644028274
 21
154.30426877400879
  0
LINE
  8
_0-1_作画層１
  6
CONTINUOUS
 62
    7
 10
-10.980678644028274
 20
154.30426877400879
 11
-10.956299534593654
 21
154.33426118405126
  0
LINE
  8
_0-1_作画層１
  6
CONTINUOUS
 62
    7
 10
-10.956299534593654
 20
154.33426118405126
 11
-10.930216827536555
 21
154.36474316456381
  0
LINE
  8
_0-1_作画層１
  6
CONTINUOUS
 62
    7
 10
-10.930216827536555
 20
154.36474316456381
 11
-10.902554553084826
 21
154.39560838252268
  0
LINE
  8
_0-1_作画層１
  6
CONTINUOUS
 62
    7
 10
-10.902554553084826
 20
154.39560838252268
 11
-10.873436741466207
 21
154.4267505049045
  0
LINE
  8
_0-1_作画層１
  6
CONTINUOUS
 62
    7
 10
-10.873436741466207
 20
154.4267505049045
 11
-10.84298742290855
 21
154.45806319868524
  0
LINE
  8
_0-1_作画層１
  6
CONTINUOUS
 62
    7
 10
-10.84298742290855
 20
154.45806319868524
 11
-10.811330627639592
 21
154.48944013084153
  0
LINE
  8
_0-1_作画層１
  6
CONTINUOUS
 62
    7
 10
-10.811330627639592
 20
154.48944013084153
 11
-10.778590385887213
 21
154.52077496834937
  0
LINE
  8
_0-1_作画層１
  6
CONTINUOUS
 62
    7
 10
-10.778590385887213
 20
154.52077496834937
 11
-10.744890727879152
 21
154.55196137818535
  0
LINE
  8
_0-1_作画層１
  6
CONTINUOUS
 62
    7
 10
-10.744890727879152
 20
154.55196137818535
 11
-10.710355683843233
 21
154.58289302732564
  0
LINE
  8
_0-1_作画層１
  6
CONTINUOUS
 62
    7
 10
-10.710355683843233
 20
154.58289302732564
 11
-10.675109284007249
 21
154.61346358274662
  0
LINE
  8
_0-1_作画層１
  6
CONTINUOUS
 62
    7
 10
-10.675109284007249
 20
154.61346358274662
 11
-10.639275558599024
 21
154.64356671142465
  0
LINE
  8
_0-1_作画層１
  6
CONTINUOUS
 62
    7
 10
-10.639275558599024
 20
154.64356671142465
 11
-10.602978537846326
 21
154.67309608033597
  0
LINE
  8
_0-1_作画層１
  6
CONTINUOUS
 62
    7
 10
-10.602978537846326
 20
154.67309608033597
 11
-10.566342251976948
 21
154.70194535645686
  0
LINE
  8
_0-1_作画層１
  6
CONTINUOUS
 62
    7
 10
-10.566342251976948
 20
154.70194535645686
 11
-10.529490731218743
 21
154.73000820676376
  0
LINE
  8
_0-1_作画層１
  6
CONTINUOUS
 62
    7
 10
-10.529490731218743
 20
154.73000820676376
 11
-10.492548005799449
 21
154.75717829823293
  0
LINE
  8
_0-1_作画層１
  6
CONTINUOUS
 62
    7
 10
-10.492548005799449
 20
154.75717829823293
 11
-10.455638105946917
 21
154.78334929784069
  0
LINE
  8
_0-1_作画層１
  6
CONTINUOUS
 62
    7
 10
-10.455638105946917
 20
154.78334929784069
 11
-10.418885061888915
 21
154.80841487256333
  0
LINE
  8
_0-1_作画層１
  6
CONTINUOUS
 62
    7
 10
-10.418885061888915
 20
154.80841487256333
 11
-10.382412903853265
 21
154.83226868937723
  0
LINE
  8
_0-1_作画層１
  6
CONTINUOUS
 62
    7
 10
-10.382412903853265
 20
154.83226868937723
 11
-10.346345662067705
 21
154.85480441525874
  0
LINE
  8
_0-1_作画層１
  6
CONTINUOUS
 62
    7
 10
-10.346345662067705
 20
154.85480441525874
 11
-10.310807366760116
 21
154.87591571718406
  0
LINE
  8
_0-1_作画層１
  6
CONTINUOUS
 62
    7
 10
-10.310807366760116
 20
154.87591571718406
 11
-10.275922048158264
 21
154.8954962621296
  0
LINE
  8
_0-1_作画層１
  6
CONTINUOUS
 62
    7
 10
-10.275922048158264
 20
154.8954962621296
 11
-10.241813736489945
 21
154.91343971707164
  0
LINE
  8
_0-1_作画層１
  6
CONTINUOUS
 62
    7
 10
-10.241813736489945
 20
154.91343971707164
 11
-10.208606461982981
 21
154.92963974898652
  0
LINE
  8
_0-1_作画層１
  6
CONTINUOUS
 62
    7
 10
-10.208606461982981
 20
154.92963974898652
 11
-10.17642425486514
 21
154.94399002485054
  0
LINE
  8
_0-1_作画層１
  6
CONTINUOUS
 62
    7
 10
-10.17642425486514
 20
154.94399002485054
 11
-10.145391145364243
 21
154.95638421164006
  0
LINE
  8
_0-1_作画層１
  6
CONTINUOUS
 62
    7
 10
-10.145391145364243
 20
154.95638421164006
 11
-10.115631163708088
 21
154.96671597633136
  0
LINE
  8
_0-1_作画層１
  6
CONTINUOUS
 62
    7
 10
-10.115631163708088
 20
154.96671597633136
 11
-10.055286433016505
 21
154.98246810763143
  0
LINE
  8
_0-1_作画層１
  6
CONTINUOUS
 62
    7
 10
-10.055286433016505
 20
154.98246810763143
 11
-10.022120743775048
 21
154.98880880631998
  0
LINE
  8
_0-1_作画層１
  6
CONTINUOUS
 62
    7
 10
-10.022120743775048
 20
154.98880880631998
 11
-9.9871604688082414
 21
154.99416465519977
  0
LINE
  8
_0-1_作画層１
  6
CONTINUOUS
 62
    7
 10
-9.9871604688082414
 20
154.99416465519977
 11
-9.9505563307699276
 21
154.99856470039521
  0
LINE
  8
_0-1_作画層１
  6
CONTINUOUS
 62
    7
 10
-9.9505563307699276
 20
154.99856470039521
 11
-9.9124590523138636
 21
155.00203798803057
  0
LINE
  8
_0-1_作画層１
  6
CONTINUOUS
 62
    7
 10
-9.9124590523138636
 20
155.00203798803057
 11
-9.8730193560939483
 21
155.00461356422994
  0
LINE
  8
_0-1_作画層１
  6
CONTINUOUS
 62
    7
 10
-9.8730193560939483
 20
155.00461356422994
 11
-9.8323879647639103
 21
155.00632047511789
  0
LINE
  8
_0-1_作画層１
  6
CONTINUOUS
 62
    7
 10
-9.8323879647639103
 20
155.00632047511789
 11
-9.7907156009776486
 21
155.00718776681839
  0
LINE
  8
_0-1_作画層１
  6
CONTINUOUS
 62
    7
 10
-9.7907156009776486
 20
155.00718776681839
 11
-9.7481529873888917
 21
155.00724448545606
  0
LINE
  8
_0-1_作画層１
  6
CONTINUOUS
 62
    7
 10
-9.7481529873888917
 20
155.00724448545606
 11
-9.7048508466515955
 21
155.00651967715478
  0
LINE
  8
_0-1_作画層１
  6
CONTINUOUS
 62
    7
 10
-9.7048508466515955
 20
155.00651967715478
 11
-9.66095990141946
 21
155.0050423880391
  0
LINE
  8
_0-1_作画層１
  6
CONTINUOUS
 62
    7
 10
-9.66095990141946
 20
155.0050423880391
 11
-9.6166308743463276
 21
155.00284166423324
  0
LINE
  8
_0-1_作画層１
  6
CONTINUOUS
 62
    7
 10
-9.6166308743463276
 20
155.00284166423324
 11
-9.5720144880860687
 21
154.9999465518614
  0
LINE
  8
_0-1_作画層１
  6
CONTINUOUS
 62
    7
 10
-9.5720144880860687
 20
154.9999465518614
 11
-9.5272614652924403
 21
154.99638609704789
  0
LINE
  8
_0-1_作画層１
  6
CONTINUOUS
 62
    7
 10
-9.5272614652924403
 20
154.99638609704789
 11
-9.4825225286193131
 21
154.99218934591701
  0
LINE
  8
_0-1_作画層１
  6
CONTINUOUS
 62
    7
 10
-9.4825225286193131
 20
154.99218934591701
 11
-9.4379484007204724
 21
154.98738534459298
  0
LINE
  8
_0-1_作画層１
  6
CONTINUOUS
 62
    7
 10
-9.4379484007204724
 20
154.98738534459298
 11
-9.3936898042497319
 21
154.98200313920012
  0
LINE
  8
_0-1_作画層１
  6
CONTINUOUS
 62
    7
 10
-9.3936898042497319
 20
154.98200313920012
 11
-9.3498974618609623
 21
154.97607177586269
  0
LINE
  8
_0-1_作画層１
  6
CONTINUOUS
 62
    7
 10
-9.3498974618609623
 20
154.97607177586269
 11
-9.3067220962079205
 21
154.969620300705
  0
LINE
  8
_0-1_作画層１
  6
CONTINUOUS
 62
    7
 10
-9.3067220962079205
 20
154.969620300705
 11
-9.2643144299444771
 21
154.9626777598512
  0
LINE
  8
_0-1_作画層１
  6
CONTINUOUS
 62
    7
 10
-9.2643144299444771
 20
154.9626777598512
 11
-9.222825185724389
 21
154.95527319942568
  0
LINE
  8
_0-1_作画層１
  6
CONTINUOUS
 62
    7
 10
-9.222825185724389
 20
154.95527319942568
 11
-9.182405086201527
 21
154.94743566555272
  0
LINE
  8
_0-1_作画層１
  6
CONTINUOUS
 62
    7
 10
-9.182405086201527
 20
154.94743566555272
 11
-9.1432048540297046
 21
154.93919420435651
  0
LINE
  8
_0-1_作画層１
  6
CONTINUOUS
 62
    7
 10
-9.1432048540297046
 20
154.93919420435651
 11
-9.1053752118627074
 21
154.93057786196135
  0
LINE
  8
_0-1_作画層１
  6
CONTINUOUS
 62
    7
 10
-9.1053752118627074
 20
154.93057786196135
 11
-9.0690668823544058
 21
154.92161568449154
  0
LINE
  8
_0-1_作画層１
  6
CONTINUOUS
 62
    7
 10
-9.0690668823544058
 20
154.92161568449154
 11
-9.0344305881585569
 21
154.91233671807132
  0
LINE
  8
_0-1_作画層１
  6
CONTINUOUS
 62
    7
 10
-9.0344305881585569
 20
154.91233671807132
 11
-9.0016170519290597
 21
154.90277000882503
  0
LINE
  8
_0-1_作画層１
  6
CONTINUOUS
 62
    7
 10
-9.0016170519290597
 20
154.90277000882503
 11
-8.9707769963196711
 21
154.89294460287681
  0
LINE
  8
_0-1_作画層１
  6
CONTINUOUS
 62
    7
 10
-8.9707769963196711
 20
154.89294460287681
 11
-8.9420611439842332
 21
154.88288954635109
  0
LINE
  8
_0-1_作画層１
  6
CONTINUOUS
 62
    7
 10
-8.9420611439842332
 20
154.88288954635109
 11
-8.8463101732425002
 21
154.84376482200884
  0
LINE
  8
_0-1_作画層１
  6
CONTINUOUS
 62
    7
 10
-8.8463101732425002
 20
154.84376482200884
 11
-8.7974674953479735
 21
154.82103489988069
  0
LINE
  8
_0-1_作画層１
  6
CONTINUOUS
 62
    7
 10
-8.7974674953479735
 20
154.82103489988069
 11
-8.7480103657325117
 21
154.7962926455445
  0
LINE
  8
_0-1_作画層１
  6
CONTINUOUS
 62
    7
 10
-8.7480103657325117
 20
154.7962926455445
 11
-8.6979615418673006
 21
154.76961258982286
  0
LINE
  8
_0-1_作画層１
  6
CONTINUOUS
 62
    7
 10
-8.6979615418673006
 20
154.76961258982286
 11
-8.6473437812234124
 21
154.74106926353824
  0
LINE
  8
_0-1_作画層１
  6
CONTINUOUS
 62
    7
 10
-8.6473437812234124
 20
154.74106926353824
 11
-8.596179841272118
 21
154.71073719751308
  0
LINE
  8
_0-1_作画層１
  6
CONTINUOUS
 62
    7
 10
-8.596179841272118
 20
154.71073719751308
 11
-8.5444924794844326
 21
154.67869092257018
  0
LINE
  8
_0-1_作画層１
  6
CONTINUOUS
 62
    7
 10
-8.5444924794844326
 20
154.67869092257018
 11
-8.4923044533315988
 21
154.64500496953173
  0
LINE
  8
_0-1_作画層１
  6
CONTINUOUS
 62
    7
 10
-8.4923044533315988
 20
154.64500496953173
 11
-8.4396385202846602
 21
154.60975386922053
  0
LINE
  8
_0-1_作画層１
  6
CONTINUOUS
 62
    7
 10
-8.4396385202846602
 20
154.60975386922053
 11
-8.3865174378148595
 21
154.57301215245883
  0
LINE
  8
_0-1_作画層１
  6
CONTINUOUS
 62
    7
 10
-8.3865174378148595
 20
154.57301215245883
 11
-8.3329639633932686
 21
154.53485435006934
  0
LINE
  8
_0-1_作画層１
  6
CONTINUOUS
 62
    7
 10
-8.3329639633932686
 20
154.53485435006934
 11
-8.2790008544910734
 21
154.49535499287447
  0
LINE
  8
_0-1_作画層１
  6
CONTINUOUS
 62
    7
 10
-8.2790008544910734
 20
154.49535499287447
 11
-8.2246508685794311
 21
154.45458861169686
  0
LINE
  8
_0-1_作画層１
  6
CONTINUOUS
 62
    7
 10
-8.2246508685794311
 20
154.45458861169686
 11
-8.1699367631294422
 21
154.41262973735891
  0
LINE
  8
_0-1_作画層１
  6
CONTINUOUS
 62
    7
 10
-8.1699367631294422
 20
154.41262973735891
 11
-8.1148812956122924
 21
154.36955290068317
  0
LINE
  8
_0-1_作画層１
  6
CONTINUOUS
 62
    7
 10
-8.1148812956122924
 20
154.36955290068317
 11
-8.0595072234991108
 21
154.32543263249218
  0
LINE
  8
_0-1_作画層１
  6
CONTINUOUS
 62
    7
 10
-8.0595072234991108
 20
154.32543263249218
 11
-8.003837304261026
 21
154.28034346360849
  0
LINE
  8
_0-1_作画層１
  6
CONTINUOUS
 62
    7
 10
-8.003837304261026
 20
154.28034346360849
 11
-7.9478942953691956
 21
154.23435992485457
  0
LINE
  8
_0-1_作画層１
  6
CONTINUOUS
 62
    7
 10
-7.9478942953691956
 20
154.23435992485457
 11
-7.8917009542947767
 21
154.18755654705294
  0
LINE
  8
_0-1_作画層１
  6
CONTINUOUS
 62
    7
 10
-7.8917009542947767
 20
154.18755654705294
 11
-7.8352800385089267
 21
154.14000786102608
  0
LINE
  8
_0-1_作画層１
  6
CONTINUOUS
 62
    7
 10
-7.8352800385089267
 20
154.14000786102608
 11
-7.7786543054827462
 21
154.09178839759656
  0
LINE
  8
_0-1_作画層１
  6
CONTINUOUS
 62
    7
 10
-7.7786543054827462
 20
154.09178839759656
 11
-7.7218465126874207
 21
154.04297268758697
  0
LINE
  8
_0-1_作画層１
  6
CONTINUOUS
 62
    7
 10
-7.7218465126874207
 20
154.04297268758697
 11
-7.6648794175940793
 21
153.99363526181969
  0
LINE
  8
_0-1_作画層１
  6
CONTINUOUS
 62
    7
 10
-7.6648794175940793
 20
153.99363526181969
 11
-7.6077757776738508
 21
153.94385065111732
  0
LINE
  8
_0-1_作画層１
  6
CONTINUOUS
 62
    7
 10
-7.6077757776738508
 20
153.94385065111732
 11
-7.550558350397921
 21
153.89369338630235
  0
LINE
  8
_0-1_作画層１
  6
CONTINUOUS
 62
    7
 10
-7.550558350397921
 20
153.89369338630235
 11
-7.4932498932373619
 21
153.84323799819731
  0
LINE
  8
_0-1_作画層１
  6
CONTINUOUS
 62
    7
 10
-7.4932498932373619
 20
153.84323799819731
 11
-7.4358731636634161
 21
153.79255901762465
  0
LINE
  8
_0-1_作画層１
  6
CONTINUOUS
 62
    7
 10
-7.4358731636634161
 20
153.79255901762465
 11
-7.3784509191471557
 21
153.74173097540699
  0
LINE
  8
_0-1_作画層１
  6
CONTINUOUS
 62
    7
 10
-7.3784509191471557
 20
153.74173097540699
 11
-7.3210059171597663
 21
153.69082840236686
  0
TEXT
  8
_0-7_注記層１
 62
    7
 10
1.5470684039088098
 20
148.5
 40
2.6000000000000001
 41
1
 50
0
  1
H
  0
TEXT
  8
_0-7_注記層１
 62
    7
 10
10.501465798045615
 20
148.5
 40
2.6000000000000001
 41
1
 50
0
  1
M
  0
TEXT
  8
_0-7_注記層１
 62
    7
 10
0.2470684039088268
 20
139.5
 40
2.6000000000000001
 41
1
 50
0
  1
SET
  0
TEXT
  8
_0-7_注記層１
 62
    7
 10
9.8514657980456377
 20
139.5
 40
2.6000000000000001
 41
1
 50
0
  1
MV
  0
ARC
  8
_0-1_作画層１
  6
CONTINUOUS
 62
    7
 10
-13.75
 20
191.75000000000003
 40
1.9999999999999716
 50
89.999999999999588
 51
180.0000000000008
  0
ARC
  8
_0-1_作画層１
  6
CONTINUOUS
 62
    7
 10
45.250000000000028
 20
191.75000000000003
 40
1.9999999999999716
 50
359.9999999999992
 51
90.000000000000782
  0
LINE
  8
_0-1_作画層１
  6
CONTINUOUS
 62
    7
 10
46.749999998029637
 20
193.75
 11
-15.25000000197042
 21
193.75
  0
ARC
  8
_0-1_作画層１
  6
CONTINUOUS
 62
    7
 10
45.250000000000028
 20
132.74999999999997
 40
1.9999999999999716
 50
269.9999999999992
 51
0.0000000000007887
  0
ARC
  8
_0-1_作画層１
  6
CONTINUOUS
 62
    7
 10
-13.75
 20
132.74999999999997
 40
1.9999999999999858
 50
179.99999999999918
 51
270.0000000000004
  0
LINE
  8
_0-1_作画層１
  6
CONTINUOUS
 62
    7
 10
-15.75
 20
131.25000000197039
 11
-15.75
 21
193.25000000197042
  0
LINE
  8
_0-1_作画層１
  6
CONTINUOUS
 62
    7
 10
47.25
 20
131.24999999802961
 11
47.25
 21
193.24999999802961
  0
LINE
  8
_0-1_作画層１
  6
CONTINUOUS
 62
    7
 10
46.75000000197042
 20
130.75
 11
-15.249999997979501
 21
130.75
  0
LINE
  8
_0-1_作画層１
  6
CONTINUOUS
 62
    7
 10
-7.75
 20
134.25285016286645
 11
-4.25
 21
134.25285016286645
  0
LINE
  8
_0-1_作画層１
  6
CONTINUOUS
 62
    7
 10
-4.25
 20
142.75285016286645
 11
-7.75
 21
142.75285016286645
  0
LINE
  8
_0-1_作画層１
  6
CONTINUOUS
 62
    7
 10
-4.25
 20
142.75285016286645
 11
-4.25
 21
134.25285016286645
  0
LINE
  8
_0-1_作画層１
  6
CONTINUOUS
 62
    7
 10
-7.75
 20
142.75285016286645
 11
-7.75
 21
134.25285016286645
  0
TEXT
  8
_0-7_注記層１
 62
    7
 10
-13.75
 20
134.5
 40
2.5
 41
1
 50
0
  1
PROG
  0
LINE
  8
_0-1_作画層１
  6
CONTINUOUS
 62
    7
 10
39.25
 20
134.25285016286645
 11
35.75
 21
134.25285016286645
  0
LINE
  8
_0-1_作画層１
  6
CONTINUOUS
 62
    7
 10
35.75
 20
142.75285016286645
 11
39.25
 21
142.75285016286645
  0
LINE
  8
_0-1_作画層１
  6
CONTINUOUS
 62
    7
 10
35.75
 20
142.75285016286645
 11
35.75
 21
134.25285016286645
  0
LINE
  8
_0-1_作画層１
  6
CONTINUOUS
 62
    7
 10
39.25
 20
142.75285016286645
 11
39.25
 21
134.25285016286645
  0
ARC
  8
_0-1_作画層１
  6
CONTINUOUS
 62
    7
 10
-13.75
 20
191.75
 40
1
 50
89.99999999999919
 51
180
  0
LINE
  8
_0-1_作画層１
  6
CONTINUOUS
 62
    7
 10
-13.75
 20
192.75
 11
45.25
 21
192.75
  0
ARC
  8
_0-1_作画層１
  6
CONTINUOUS
 62
    7
 10
45.250000000000014
 20
191.75000000000003
 40
0.9999999999999712
 50
359.99999999999835
 51
90.00000000000081
  0
LINE
  8
_0-1_作画層１
  6
CONTINUOUS
 62
    7
 10
46.25
 20
191.75
 11
46.25
 21
132.75
  0
ARC
  8
_0-1_作画層１
  6
CONTINUOUS
 62
    7
 10
45.250000000000014
 20
132.74999999999997
 40
0.9999999999999853
 50
269.9999999999992
 51
0.0000000000016284
  0
LINE
  8
_0-1_作画層１
  6
CONTINUOUS
 62
    7
 10
45.25
 20
131.75
 11
-13.75
 21
131.75
  0
LINE
  8
_0-1_作画層１
  6
CONTINUOUS
 62
    7
 10
-14.75
 20
191.75
 11
-14.75
 21
132.75
  0
ARC
  8
_0-1_作画層１
  6
CONTINUOUS
 62
    7
 10
-13.75
 20
132.75
 40
1
 50
180
 51
270.0000000000008
  0
ARC
  8
_0-1_作画層１
  6
CONTINUOUS
 62
    7
 10
-6.75
 20
188.05000000000001
 40
1
 50
89.99999999999919
 51
180
  0
LINE
  8
_0-1_作画層１
  6
CONTINUOUS
 62
    7
 10
-6.75
 20
189.05000000000001
 11
38.25
 21
189.05000000000001
  0
ARC
  8
_0-1_作画層１
  6
CONTINUOUS
 62
    7
 10
38.250000000000014
 20
188.05000000000004
 40
0.9999999999999712
 50
359.99999999999835
 51
90.00000000000081
  0
ARC
  8
_0-1_作画層１
  6
CONTINUOUS
 62
    7
 10
38.250000000000014
 20
176.54999999999998
 40
0.9999999999999853
 50
269.9999999999992
 51
0.0000000000016284
  0
LINE
  8
_0-1_作画層１
  6
CONTINUOUS
 62
    7
 10
38.25
 20
175.55000000000001
 11
-6.75
 21
175.55000000000001
  0
ARC
  8
_0-1_作画層１
  6
CONTINUOUS
 62
    7
 10
-6.75
 20
176.55000000000001
 40
1
 50
180
 51
270.0000000000008
  0
ARC
  8
_0-1_作画層１
  6
CONTINUOUS
 62
    7
 10
-1.5
 20
187.05000000000001
 40
1
 50
89.99999999999919
 51
180
  0
ARC
  8
_0-1_作画層１
  6
CONTINUOUS
 62
    7
 10
-1.5
 20
177.55000000000001
 40
0.9999999999999853
 50
180
 51
270.0000000000008
  0
LINE
  8
_0-1_作画層１
  6
CONTINUOUS
 62
    7
 10
-1.5
 20
176.55000000000001
 11
33
 21
176.55000000000001
  0
ARC
  8
_0-1_作画層１
  6
CONTINUOUS
 62
    7
 10
33.000000000000014
 20
177.54999999999998
 40
0.9999999999999712
 50
269.9999999999992
 51
0.0000000000016284
  0
LINE
  8
_0-1_作画層１
  6
CONTINUOUS
 62
    7
 10
34
 20
177.55000000000001
 11
34
 21
187.05000000000001
  0
LINE
  8
_0-1_作画層１
  6
CONTINUOUS
 62
    7
 10
-1.5
 20
188.05000000000001
 11
33
 21
188.05000000000001
  0
ARC
  8
_0-1_作画層１
  6
CONTINUOUS
 62
    7
 10
33.000000000000014
 20
187.05000000000004
 40
0.9999999999999853
 50
359.99999999999835
 51
90.00000000000081
  0
CIRCLE
  8
_0-1_作画層１
  6
CONTINUOUS
 62
    7
 10
-7.75
 20
162.25
 40
1.25
  0
TEXT
  8
_0-7_注記層１
 62
    7
 10
-2.1999999999999886
 20
168
 40
2.6000000000000001
 41
1
 50
0
  1
SUN
  0
TEXT
  8
_0-7_注記層１
 62
    7
 10
3.3000000000000114
 20
168
 40
2.6000000000000001
 41
1
 50
0
  1
MON
  0
TEXT
  8
_0-7_注記層１
 62
    7
 10
8.8000000000000114
 20
168
 40
2.6000000000000001
 41
1
 50
0
  1
TUE
  0
TEXT
  8
_0-7_注記層１
 62
    7
 10
14.050000000000011
 20
168
 40
2.6000000000000001
 41
1
 50
0
  1
WED
  0
TEXT
  8
_0-7_注記層１
 62
    7
 10
19.300000000000011
 20
168
 40
2.6000000000000001
 41
1
 50
0
  1
THU
  0
TEXT
  8
_0-7_注記層１
 62
    7
 10
24.299999999999997
 20
168
 40
2.6000000000000001
 41
1
 50
0
  1
FRI
  0
TEXT
  8
_0-7_注記層１
 62
    7
 10
29.549999999999997
 20
168
 40
2.6000000000000001
 41
1
 50
0
  1
SAT
  0
CIRCLE
  8
_0-1_作画層１
  6
CONTINUOUS
 62
    7
 10
-0.25
 20
172.75
 40
1
  0
CIRCLE
  8
_0-1_作画層１
  6
CONTINUOUS
 62
    7
 10
4.9499999999999886
 20
172.75
 40
1
  0
CIRCLE
  8
_0-1_作画層１
  6
CONTINUOUS
 62
    7
 10
10.150000000000006
 20
172.75
 40
1
  0
CIRCLE
  8
_0-1_作画層１
  6
CONTINUOUS
 62
    7
 10
15.350000000000023
 20
172.75
 40
1
  0
CIRCLE
  8
_0-1_作画層１
  6
CONTINUOUS
 62
    7
 10
20.550000000000011
 20
172.75
 40
1
  0
CIRCLE
  8
_0-1_作画層１
  6
CONTINUOUS
 62
    7
 10
25.750000000000014
 20
172.75
 40
1
  0
CIRCLE
  8
_0-1_作画層１
  6
CONTINUOUS
 62
    7
 10
30.950000000000017
 20
172.75
 40
1
  0
LINE
  8
_0-1_作画層１
  6
CENTER
 62
    7
 10
15.75
 20
203.25
 11
15.75
 21
121.25
  0
LINE
  8
_0-1_作画層１
  6
CONTINUOUS
 62
    7
 10
39.25
 20
188.05000000000001
 11
39.25
 21
181.25
  0
LINE
  8
_0-1_作画層１
  6
CONTINUOUS
 62
    7
 10
39.25
 20
176.55000000000001
 11
39.25
 21
177.70710059171597
  0
LINE
  8
_0-1_作画層１
  6
CONTINUOUS
 62
    7
 10
34
 20
179.46646942800788
 11
36.661982248520715
 21
179.46646942800788
  0
LINE
  8
_0-1_作画層１
  6
CENTER
 62
    7
 10
154.75
 20
162.25
 11
72.25
 21
162.25
  0
LINE
  8
_0-1_作画層１
  6
CONTINUOUS
 62
    7
 10
89.25
 20
198.25
 11
89.25
 21
126.25
  0
INSERT
  2
-002-_D2
  8
_0-9_寸法線層１
 10
-55.25
 20
-38.75
 41
1
 42
1
 50
0
  0
LINE
  8
_0-1_作画層１
  6
CONTINUOUS
 62
    7
 10
89.25
 20
196
 11
149.25
 21
196
  0
LINE
  8
_0-1_作画層１
  6
CONTINUOUS
 62
    7
 10
89.25
 20
128.5
 11
149.25
 21
128.5
  0
INSERT
  2
-003-_D3
  8
_0-9_寸法線層１
 10
-55.25
 20
-38.75
 41
1
 42
1
 50
0
  0
LINE
  8
_0-1_作画層１
  6
CONTINUOUS
 62
    7
 10
89.25
 20
198.25
 11
88.75
 21
198.25
  0
LINE
  8
_0-1_作画層１
  6
CONTINUOUS
 62
    7
 10
89.25
 20
126.25
 11
88.75
 21
126.25
  0
ARC
  8
_0-1_作画層１
  6
CONTINUOUS
 62
    7
 10
80.249999999999972
 20
197.25000000000003
 40
0.9999999999999712
 50
89.99999999999838
 51
180.00000000000162
  0
LINE
  8
_0-1_作画層１
  6
CONTINUOUS
 62
    7
 10
87.75
 20
197.25
 11
80.25
 21
197.25
  0
ARC
  8
_0-1_作画層１
  6
CONTINUOUS
 62
    7
 10
80.249999999999972
 20
127.24999999999997
 40
0.9999999999999712
 50
179.99999999999838
 51
270.00000000000159
  0
LINE
  8
_0-1_作画層１
  6
CONTINUOUS
 62
    7
 10
87.75
 20
127.25
 11
80.25
 21
127.25
  0
LINE
  8
_0-1_作画層１
  6
CONTINUOUS
 62
    7
 10
79.25
 20
127.24999999999997
 11
79.25
 21
197.25
  0
LINE
  8
_0-1_作画層１
  6
CONTINUOUS
 62
    7
 10
80.25
 20
127.25
 11
80.25
 21
197.25
  0
LINE
  8
_0-1_作画層１
  6
CONTINUOUS
 62
    7
 10
89.25
 20
198.25
 11
80.25
 21
198.25
  0
LINE
  8
_0-1_作画層１
  6
CONTINUOUS
 62
    7
 10
89.25
 20
126.25
 11
80.25
 21
126.25
  0
LINE
  8
_0-1_作画層１
  6
CONTINUOUS
 62
    7
 10
87.75
 20
126.25
 11
87.75
 21
198.25
  0
LINE
  8
_0-1_作画層１
  6
CONTINUOUS
 62
    7
 10
83.75
 20
127.25
 11
83.75
 21
197.25
  0
LINE
  8
_0-1_作画層１
  6
CONTINUOUS
 62
    7
 10
136.94999999999999
 20
146.75
 11
149.25
 21
146.75
  0
LINE
  8
_0-1_作画層１
  6
CONTINUOUS
 62
    7
 10
136.94999999999999
 20
177.75
 11
149.25
 21
177.75
  0
LINE
  8
_0-1_作画層１
  6
CONTINUOUS
 62
    7
 10
149.25
 20
177.75
 11
149.25
 21
196
  0
LINE
  8
_0-1_作画層１
  6
CONTINUOUS
 62
    7
 10
149.25
 20
146.75
 11
149.25
 21
128.5
  0
LINE
  8
_0-1_作画層１
  6
CONTINUOUS
 62
    7
 10
147.25
 20
146.75
 11
147.25
 21
177.75
  0
LINE
  8
_0-1_作画層１
  6
CONTINUOUS
 62
    7
 10
136.94999999999999
 20
146.75
 11
136.94999999999999
 21
177.75
  0
LINE
  8
_0-1_作画層１
  6
CONTINUOUS
 62
    7
 10
123.44999999999999
 20
152.25
 11
123.44999999999999
 21
172.25
  0
LINE
  8
_0-1_作画層１
  6
CONTINUOUS
 62
    7
 10
89.25
 20
174.4145569620253
 11
123.44999999999999
 21
172.25
  0
LINE
  8
_0-1_作画層１
  6
CONTINUOUS
 62
    7
 10
89.25
 20
150.0854430379747
 11
123.44999999999999
 21
152.25
  0
LINE
  8
_0-1_作画層１
  6
CONTINUOUS
 62
    7
 10
123.44999999999999
 20
152.25
 11
136.94999999999999
 21
152.25
  0
LINE
  8
_0-1_作画層１
  6
CONTINUOUS
 62
    7
 10
123.44999999999999
 20
172.25
 11
136.94999999999999
 21
172.25
  0
LINE
  8
_0-1_作画層１
  6
CONTINUOUS
 62
    7
 10
122.94999999999999
 20
152.21835443037975
 11
122.94999999999999
 21
172.25
  0
LINE
  8
_0-1_作画層１
  6
CONTINUOUS
 62
    7
 10
122.44999999999999
 20
152.18670886075947
 11
122.44999999999999
 21
172.31329113924053
  0
LINE
  8
_0-1_作画層１
  6
CONTINUOUS
 62
    7
 10
121.94999999999999
 20
152.15506329113921
 11
121.94999999999999
 21
172.34493670886079
  0
LINE
  8
_0-1_作画層１
  6
CONTINUOUS
 62
    7
 10
121.44999999999999
 20
152.12341772151896
 11
121.44999999999999
 21
172.37658227848104
  0
LINE
  8
_0-1_作画層１
  6
CONTINUOUS
 62
    7
 10
120.94999999999999
 20
152.09177215189871
 11
120.94999999999999
 21
172.40822784810129
  0
LINE
  8
_0-1_作画層１
  6
CONTINUOUS
 62
    7
 10
120.44999999999999
 20
152.06012658227846
 11
120.44999999999999
 21
172.43987341772154
  0
LINE
  8
_0-1_作画層１
  6
CONTINUOUS
 62
    7
 10
119.94999999999999
 20
152.0284810126582
 11
119.94999999999999
 21
172.4715189873418
  0
LINE
  8
_0-1_作画層１
  6
CONTINUOUS
 62
    7
 10
119.44999999999999
 20
151.99683544303795
 11
119.44999999999999
 21
172.50316455696205
  0
LINE
  8
_0-1_作画層１
  6
CONTINUOUS
 62
    7
 10
118.94999999999999
 20
151.9651898734177
 11
118.94999999999999
 21
172.5348101265823
  0
LINE
  8
_0-1_作画層１
  6
CONTINUOUS
 62
    7
 10
118.44999999999999
 20
151.93354430379745
 11
118.44999999999999
 21
172.56645569620255
  0
LINE
  8
_0-1_作画層１
  6
CONTINUOUS
 62
    7
 10
117.94999999999999
 20
151.90189873417719
 11
117.94999999999999
 21
172.59810126582281
  0
LINE
  8
_0-1_作画層１
  6
CONTINUOUS
 62
    7
 10
117.44999999999999
 20
151.87025316455694
 11
117.44999999999999
 21
172.62974683544306
  0
LINE
  8
_0-1_作画層１
  6
CONTINUOUS
 62
    7
 10
116.94999999999999
 20
151.83860759493669
 11
116.94999999999999
 21
172.66139240506331
  0
LINE
  8
_0-1_作画層１
  6
CONTINUOUS
 62
    7
 10
116.44999999999999
 20
151.80696202531644
 11
116.44999999999999
 21
172.69303797468356
  0
LINE
  8
_0-1_作画層１
  6
CONTINUOUS
 62
    7
 10
115.94999999999999
 20
151.77531645569618
 11
115.94999999999999
 21
172.72468354430382
  0
LINE
  8
_0-1_作画層１
  6
CONTINUOUS
 62
    7
 10
115.44999999999999
 20
151.74367088607593
 11
115.44999999999999
 21
172.75632911392407
  0
LINE
  8
_0-1_作画層１
  6
CONTINUOUS
 62
    7
 10
114.94999999999999
 20
151.71202531645568
 11
114.94999999999999
 21
172.78797468354432
  0
LINE
  8
_0-1_作画層１
  6
CONTINUOUS
 62
    7
 10
114.44999999999999
 20
151.68037974683543
 11
114.44999999999999
 21
172.81962025316457
  0
LINE
  8
_0-1_作画層１
  6
CONTINUOUS
 62
    7
 10
113.94999999999999
 20
151.64873417721518
 11
113.94999999999999
 21
172.85126582278482
  0
LINE
  8
_0-1_作画層１
  6
CONTINUOUS
 62
    7
 10
113.44999999999999
 20
151.61708860759492
 11
113.44999999999999
 21
172.88291139240508
  0
LINE
  8
_0-1_作画層１
  6
CONTINUOUS
 62
    7
 10
112.94999999999999
 20
151.58544303797467
 11
112.94999999999999
 21
172.91455696202533
  0
LINE
  8
_0-1_作画層１
  6
CONTINUOUS
 62
    7
 10
112.44999999999999
 20
151.55379746835442
 11
112.44999999999999
 21
172.94620253164558
  0
LINE
  8
_0-1_作画層１
  6
CONTINUOUS
 62
    7
 10
111.94999999999999
 20
151.52215189873417
 11
111.94999999999999
 21
172.97784810126583
  0
LINE
  8
_0-1_作画層１
  6
CONTINUOUS
 62
    7
 10
111.44999999999999
 20
151.49050632911391
 11
111.44999999999999
 21
173.00949367088609
  0
LINE
  8
_0-1_作画層１
  6
CONTINUOUS
 62
    7
 10
110.94999999999999
 20
151.45886075949366
 11
110.94999999999999
 21
173.04113924050634
  0
LINE
  8
_0-1_作画層１
  6
CONTINUOUS
 62
    7
 10
110.44999999999999
 20
151.42721518987341
 11
110.44999999999999
 21
173.07278481012659
  0
LINE
  8
_0-1_作画層１
  6
CONTINUOUS
 62
    7
 10
109.94999999999999
 20
151.39556962025316
 11
109.94999999999999
 21
173.10443037974684
  0
LINE
  8
_0-1_作画層１
  6
CONTINUOUS
 62
    7
 10
109.44999999999999
 20
151.3639240506329
 11
109.44999999999999
 21
173.1360759493671
  0
LINE
  8
_0-1_作画層１
  6
CONTINUOUS
 62
    7
 10
108.94999999999999
 20
151.33227848101265
 11
108.94999999999999
 21
173.16772151898735
  0
LINE
  8
_0-1_作画層１
  6
CONTINUOUS
 62
    7
 10
108.44999999999999
 20
151.3006329113924
 11
108.44999999999999
 21
173.1993670886076
  0
LINE
  8
_0-1_作画層１
  6
CONTINUOUS
 62
    7
 10
107.94999999999999
 20
151.26898734177215
 11
107.94999999999999
 21
173.23101265822785
  0
LINE
  8
_0-1_作画層１
  6
CONTINUOUS
 62
    7
 10
136.95000000000002
 20
169.375
 11
136.95000000000002
 21
175.625
  0
ARC
  8
_0-1_作画層１
  6
CONTINUOUS
 62
    7
 10
138.92800000000005
 20
170.87499999999997
 40
1.4999999999999716
 50
269.99999999999886
 51
0.0000000000010941
  0
LINE
  8
_0-1_作画層１
  6
CONTINUOUS
 62
    7
 10
140.42800000000003
 20
170.875
 11
140.42800000000003
 21
174.125
  0
ARC
  8
_0-1_作画層１
  6
CONTINUOUS
 62
    7
 10
138.92800000000005
 20
174.12500000000003
 40
1.4999999999999716
 50
359.99999999999892
 51
90.000000000001094
  0
LINE
  8
_0-1_作画層１
  6
CONTINUOUS
 62
    7
 10
138.92800000000003
 20
169.375
 11
138.42800000000003
 21
169.375
  0
ARC
  8
_0-1_作画層１
  6
CONTINUOUS
 62
    7
 10
138.42800000000003
 20
169.875
 40
0.5
 50
180
 51
270
  0
LINE
  8
_0-1_作画層１
  6
CONTINUOUS
 62
    7
 10
137.92800000000003
 20
169.875
 11
137.92800000000003
 21
175.125
  0
LINE
  8
_0-1_作画層１
  6
CONTINUOUS
 62
    7
 10
138.92800000000003
 20
175.625
 11
138.42800000000003
 21
175.625
  0
ARC
  8
_0-1_作画層１
  6
CONTINUOUS
 62
    7
 10
138.42800000000003
 20
175.125
 40
0.5
 50
90
 51
180
  0
LINE
  8
_0-1_作画層１
  6
CONTINUOUS
 62
    7
 10
137.57560000000001
 20
168.90000000000001
 11
137.57560000000001
 21
169.56936467622052
  0
ARC
  8
_0-1_作画層１
  6
CONTINUOUS
 62
    7
 10
138.07559999999992
 20
169.56936467622052
 40
0.4999999999999146
 50
153.41295146815898
 51
180
  0
LINE
  8
_0-1_作画層１
  6
CONTINUOUS
 62
    7
 10
136.95000000000002
 20
168.90000000000001
 11
136.95000000000002
 21
169.91878727923338
  0
ARC
  8
_0-1_作画層１
  6
CONTINUOUS
 62
    7
 10
137.44999999999879
 20
169.91878727923353
 40
0.4999999999987779
 50
161.54855157696767
 51
180.00000000001629
  0
LINE
  8
_0-1_作画層１
  6
CONTINUOUS
 62
    7
 10
136.97570390306819
 20
170.07703775296167
 11
137.23709609693185
 21
170.86046224703836
  0
ARC
  8
_0-1_作画層１
  6
CONTINUOUS
 62
    7
 10
136.76280000000017
 20
171.01871272076659
 40
0.499999999999836
 50
341.54855157699745
 51
0.000000000006501
  0
LINE
  8
_0-1_作画層１
  6
CONTINUOUS
 62
    7
 10
137.62847228598065
 20
169.79314315453291
 11
137.83552771401938
 21
170.20685684546709
  0
ARC
  8
_0-1_作画層１
  6
CONTINUOUS
 62
    7
 10
137.3884000000001
 20
170.43063532377948
 40
0.4999999999999136
 50
333.41295146815895
 51
0
  0
LINE
  8
_0-1_作画層１
  6
CONTINUOUS
 62
    7
 10
137.2628
 20
171.01871272076664
 11
137.2628
 21
173.98128727923338
  0
ARC
  8
_0-1_作画層１
  6
CONTINUOUS
 62
    7
 10
136.76280000000017
 20
173.98128727923344
 40
0.4999999999998295
 50
359.99999999999352
 51
18.45144842300245
  0
LINE
  8
_0-1_作画層１
  6
CONTINUOUS
 62
    7
 10
137.23709609693185
 20
174.13953775296167
 11
136.97570390306819
 21
174.92296224703836
  0
LINE
  8
_0-1_作画層１
  6
CONTINUOUS
 62
    7
 10
136.95000000000002
 20
175.9375
 11
136.95000000000002
 21
175.08121272076664
  0
ARC
  8
_0-1_作画層１
  6
CONTINUOUS
 62
    7
 10
137.44999999999882
 20
175.0812127207665
 40
0.4999999999988116
 50
179.99999999998371
 51
198.45144842303131
  0
ARC
  8
_0-1_作画層１
  6
CONTINUOUS
 62
    7
 10
138.07559999999992
 20
175.11813532377948
 40
0.4999999999999146
 50
180
 51
206.58704853184105
  0
LINE
  8
_0-1_作画層１
  6
CONTINUOUS
 62
    7
 10
137.62847228598065
 20
174.89435684546709
 11
137.83552771401938
 21
174.48064315453291
  0
LINE
  8
_0-1_作画層１
  6
CONTINUOUS
 62
    7
 10
137.88840000000002
 20
170.43063532377948
 11
137.88840000000002
 21
174.25686467622052
  0
ARC
  8
_0-1_作画層１
  6
CONTINUOUS
 62
    7
 10
137.3884000000001
 20
174.25686467622052
 40
0.4999999999999136
 50
0
 51
26.587048531841049
  0
LINE
  8
_0-1_作画層１
  6
CONTINUOUS
 62
    7
 10
137.57560000000001
 20
175.89999999999998
 11
137.57560000000001
 21
175.11813532377948
  0
LINE
  8
_0-1_作画層１
  6
CONTINUOUS
 62
    7
 10
136.95000000000002
 20
159.375
 11
136.95000000000002
 21
165.625
  0
ARC
  8
_0-1_作画層１
  6
CONTINUOUS
 62
    7
 10
138.92800000000005
 20
160.87499999999997
 40
1.4999999999999716
 50
269.99999999999886
 51
0.0000000000010941
  0
LINE
  8
_0-1_作画層１
  6
CONTINUOUS
 62
    7
 10
140.42800000000003
 20
160.875
 11
140.42800000000003
 21
164.125
  0
ARC
  8
_0-1_作画層１
  6
CONTINUOUS
 62
    7
 10
138.92800000000005
 20
164.12500000000003
 40
1.4999999999999716
 50
359.99999999999892
 51
90.000000000001094
  0
LINE
  8
_0-1_作画層１
  6
CONTINUOUS
 62
    7
 10
138.92800000000003
 20
159.375
 11
138.42800000000003
 21
159.375
  0
ARC
  8
_0-1_作画層１
  6
CONTINUOUS
 62
    7
 10
138.42800000000003
 20
159.875
 40
0.5
 50
180
 51
270
  0
LINE
  8
_0-1_作画層１
  6
CONTINUOUS
 62
    7
 10
137.92800000000003
 20
159.875
 11
137.92800000000003
 21
165.125
  0
LINE
  8
_0-1_作画層１
  6
CONTINUOUS
 62
    7
 10
138.92800000000003
 20
165.625
 11
138.42800000000003
 21
165.625
  0
ARC
  8
_0-1_作画層１
  6
CONTINUOUS
 62
    7
 10
138.42800000000003
 20
165.125
 40
0.5
 50
90
 51
180
  0
LINE
  8
_0-1_作画層１
  6
CONTINUOUS
 62
    7
 10
137.57560000000001
 20
158.90000000000001
 11
137.57560000000001
 21
159.56936467622052
  0
ARC
  8
_0-1_作画層１
  6
CONTINUOUS
 62
    7
 10
138.07559999999992
 20
159.56936467622052
 40
0.4999999999999146
 50
153.41295146815898
 51
180
  0
LINE
  8
_0-1_作画層１
  6
CONTINUOUS
 62
    7
 10
136.95000000000002
 20
158.90000000000001
 11
136.95000000000002
 21
159.91878727923338
  0
ARC
  8
_0-1_作画層１
  6
CONTINUOUS
 62
    7
 10
137.44999999999879
 20
159.91878727923353
 40
0.4999999999987779
 50
161.54855157696767
 51
180.00000000001629
  0
LINE
  8
_0-1_作画層１
  6
CONTINUOUS
 62
    7
 10
136.97570390306819
 20
160.07703775296167
 11
137.23709609693185
 21
160.86046224703836
  0
ARC
  8
_0-1_作画層１
  6
CONTINUOUS
 62
    7
 10
136.76280000000017
 20
161.01871272076659
 40
0.499999999999836
 50
341.54855157699745
 51
0.000000000006501
  0
LINE
  8
_0-1_作画層１
  6
CONTINUOUS
 62
    7
 10
137.62847228598065
 20
159.79314315453291
 11
137.83552771401938
 21
160.20685684546709
  0
ARC
  8
_0-1_作画層１
  6
CONTINUOUS
 62
    7
 10
137.3884000000001
 20
160.43063532377948
 40
0.4999999999999136
 50
333.41295146815895
 51
0
  0
LINE
  8
_0-1_作画層１
  6
CONTINUOUS
 62
    7
 10
137.2628
 20
161.01871272076664
 11
137.2628
 21
163.98128727923338
  0
ARC
  8
_0-1_作画層１
  6
CONTINUOUS
 62
    7
 10
136.76280000000017
 20
163.98128727923344
 40
0.4999999999998295
 50
359.99999999999352
 51
18.45144842300245
  0
LINE
  8
_0-1_作画層１
  6
CONTINUOUS
 62
    7
 10
137.23709609693185
 20
164.13953775296167
 11
136.97570390306819
 21
164.92296224703836
  0
LINE
  8
_0-1_作画層１
  6
CONTINUOUS
 62
    7
 10
136.95000000000002
 20
165.9375
 11
136.95000000000002
 21
165.08121272076664
  0
ARC
  8
_0-1_作画層１
  6
CONTINUOUS
 62
    7
 10
137.44999999999882
 20
165.0812127207665
 40
0.4999999999988116
 50
179.99999999998371
 51
198.45144842303131
  0
ARC
  8
_0-1_作画層１
  6
CONTINUOUS
 62
    7
 10
138.07559999999992
 20
165.11813532377948
 40
0.4999999999999146
 50
180
 51
206.58704853184105
  0
LINE
  8
_0-1_作画層１
  6
CONTINUOUS
 62
    7
 10
137.62847228598065
 20
164.89435684546709
 11
137.83552771401938
 21
164.48064315453291
  0
LINE
  8
_0-1_作画層１
  6
CONTINUOUS
 62
    7
 10
137.88840000000002
 20
160.43063532377948
 11
137.88840000000002
 21
164.25686467622052
  0
ARC
  8
_0-1_作画層１
  6
CONTINUOUS
 62
    7
 10
137.3884000000001
 20
164.25686467622052
 40
0.4999999999999136
 50
0
 51
26.587048531841049
  0
LINE
  8
_0-1_作画層１
  6
CONTINUOUS
 62
    7
 10
137.57560000000001
 20
165.90000000000001
 11
137.57560000000001
 21
165.11813532377948
  0
LINE
  8
_0-1_作画層１
  6
CONTINUOUS
 62
    7
 10
136.94999999999999
 20
149.375
 11
136.95000000000002
 21
155.625
  0
ARC
  8
_0-1_作画層１
  6
CONTINUOUS
 62
    7
 10
138.92800000000003
 20
150.87499999999997
 40
1.4999999999999716
 50
269.99999999999886
 51
0.0000000000010941
  0
LINE
  8
_0-1_作画層１
  6
CONTINUOUS
 62
    7
 10
140.428
 20
150.875
 11
140.42800000000003
 21
154.125
  0
ARC
  8
_0-1_作画層１
  6
CONTINUOUS
 62
    7
 10
138.92800000000005
 20
154.12500000000003
 40
1.4999999999999716
 50
359.99999999999892
 51
90.000000000001094
  0
LINE
  8
_0-1_作画層１
  6
CONTINUOUS
 62
    7
 10
138.928
 20
149.375
 11
138.428
 21
149.375
  0
ARC
  8
_0-1_作画層１
  6
CONTINUOUS
 62
    7
 10
138.428
 20
149.875
 40
0.5
 50
180
 51
270
  0
LINE
  8
_0-1_作画層１
  6
CONTINUOUS
 62
    7
 10
137.928
 20
149.875
 11
137.92800000000003
 21
155.125
  0
LINE
  8
_0-1_作画層１
  6
CONTINUOUS
 62
    7
 10
138.92800000000003
 20
155.625
 11
138.42800000000003
 21
155.625
  0
ARC
  8
_0-1_作画層１
  6
CONTINUOUS
 62
    7
 10
138.42800000000003
 20
155.125
 40
0.5
 50
90
 51
180
  0
LINE
  8
_0-1_作画層１
  6
CONTINUOUS
 62
    7
 10
137.57559999999998
 20
148.90000000000001
 11
137.57559999999998
 21
149.56936467622052
  0
ARC
  8
_0-1_作画層１
  6
CONTINUOUS
 62
    7
 10
138.07559999999989
 20
149.56936467622052
 40
0.4999999999999146
 50
153.41295146815898
 51
180
  0
LINE
  8
_0-1_作画層１
  6
CONTINUOUS
 62
    7
 10
136.94999999999999
 20
148.90000000000001
 11
136.94999999999999
 21
149.91878727923338
  0
ARC
  8
_0-1_作画層１
  6
CONTINUOUS
 62
    7
 10
137.44999999999879
 20
149.91878727923353
 40
0.4999999999988061
 50
161.54855157696863
 51
180.00000000001626
  0
LINE
  8
_0-1_作画層１
  6
CONTINUOUS
 62
    7
 10
136.97570390306817
 20
150.07703775296167
 11
137.23709609693182
 21
150.86046224703836
  0
ARC
  8
_0-1_作画層１
  6
CONTINUOUS
 62
    7
 10
136.76280000000014
 20
151.01871272076659
 40
0.499999999999836
 50
341.54855157699745
 51
0.000000000006501
  0
LINE
  8
_0-1_作画層１
  6
CONTINUOUS
 62
    7
 10
137.62847228598062
 20
149.79314315453291
 11
137.83552771401935
 21
150.20685684546709
  0
ARC
  8
_0-1_作画層１
  6
CONTINUOUS
 62
    7
 10
137.38840000000008
 20
150.43063532377948
 40
0.4999999999999136
 50
333.41295146815895
 51
0
  0
LINE
  8
_0-1_作画層１
  6
CONTINUOUS
 62
    7
 10
137.26279999999997
 20
151.01871272076664
 11
137.2628
 21
153.98128727923338
  0
ARC
  8
_0-1_作画層１
  6
CONTINUOUS
 62
    7
 10
136.76280000000017
 20
153.98128727923344
 40
0.4999999999998295
 50
359.99999999999352
 51
18.45144842300245
  0
LINE
  8
_0-1_作画層１
  6
CONTINUOUS
 62
    7
 10
137.23709609693185
 20
154.13953775296167
 11
136.97570390306819
 21
154.92296224703836
  0
LINE
  8
_0-1_作画層１
  6
CONTINUOUS
 62
    7
 10
136.95000000000002
 20
155.9375
 11
136.95000000000002
 21
155.08121272076664
  0
ARC
  8
_0-1_作画層１
  6
CONTINUOUS
 62
    7
 10
137.44999999999882
 20
155.0812127207665
 40
0.4999999999988116
 50
179.99999999998371
 51
198.45144842303131
  0
ARC
  8
_0-1_作画層１
  6
CONTINUOUS
 62
    7
 10
138.07559999999992
 20
155.11813532377948
 40
0.4999999999999146
 50
180
 51
206.58704853184105
  0
LINE
  8
_0-1_作画層１
  6
CONTINUOUS
 62
    7
 10
137.62847228598065
 20
154.89435684546709
 11
137.83552771401938
 21
154.48064315453291
  0
LINE
  8
_0-1_作画層１
  6
CONTINUOUS
 62
    7
 10
137.88839999999999
 20
150.43063532377948
 11
137.88840000000002
 21
154.25686467622052
  0
ARC
  8
_0-1_作画層１
  6
CONTINUOUS
 62
    7
 10
137.3884000000001
 20
154.25686467622052
 40
0.4999999999999136
 50
0
 51
26.587048531841049
  0
LINE
  8
_0-1_作画層１
  6
CONTINUOUS
 62
    7
 10
137.57560000000001
 20
155.90000000000001
 11
137.57560000000001
 21
155.11813532377948
  0
LINE
  8
_0-1_作画層１
  6
CONTINUOUS
 62
    7
 10
146.35557280900008
 20
146.75
 11
146.35557280900008
 21
177.75
  0
LINE
  8
_0-1_作画層１
  6
CONTINUOUS
 62
    7
 10
145.95000000000002
 20
165.90000000000001
 11
145.95000000000002
 21
168.90000000000001
  0
LINE
  8
_0-1_作画層１
  6
CONTINUOUS
 62
    7
 10
145.95000000000002
 20
155.90000000000001
 11
145.95000000000002
 21
158.90000000000001
  0
LINE
  8
_0-1_作画層１
  6
CONTINUOUS
 62
    7
 10
145.94999999999999
 20
146.75
 11
145.94999999999999
 21
148.90000000000001
  0
LINE
  8
_0-1_作画層１
  6
CONTINUOUS
 62
    7
 10
145.95000000000002
 20
177.75
 11
145.95000000000002
 21
175.89999999999998
  0
LINE
  8
_0-1_作画層１
  6
CONTINUOUS
 62
    7
 10
145.95000000000002
 20
165.90000000000001
 11
136.95000000000002
 21
165.90000000000001
  0
LINE
  8
_0-1_作画層１
  6
CONTINUOUS
 62
    7
 10
145.95000000000002
 20
168.90000000000001
 11
136.95000000000002
 21
168.90000000000001
  0
LINE
  8
_0-1_作画層１
  6
CONTINUOUS
 62
    7
 10
145.95000000000002
 20
175.89999999999998
 11
136.95000000000002
 21
175.89999999999998
  0
LINE
  8
_0-1_作画層１
  6
CONTINUOUS
 62
    7
 10
145.94999999999999
 20
148.90000000000001
 11
136.94999999999999
 21
148.90000000000001
  0
LINE
  8
_0-1_作画層１
  6
CONTINUOUS
 62
    7
 10
145.94999999999999
 20
158.90000000000001
 11
136.95000000000002
 21
158.90000000000001
  0
LINE
  8
_0-1_作画層１
  6
CONTINUOUS
 62
    7
 10
145.94999999999999
 20
155.90000000000001
 11
136.95000000000002
 21
155.90000000000001
  0
LINE
  8
_0-1_作画層１
  6
CONTINUOUS
 62
    7
 10
86.285016286644975
 20
160.0223941368078
 11
86.285016286644975
 21
164.5223941368078
  0
LINE
  8
_0-1_作画層１
  6
CONTINUOUS
 62
    7
 10
86.285016286644975
 20
164.5223941368078
 11
83.785016286644975
 21
164.5223941368078
  0
LINE
  8
_0-1_作画層１
  6
CONTINUOUS
 62
    7
 10
83.785016286644975
 20
164.5223941368078
 11
83.785016286644975
 21
160.0223941368078
  0
LINE
  8
_0-1_作画層１
  6
CONTINUOUS
 62
    7
 10
83.785016286644975
 20
160.0223941368078
 11
86.285016286644975
 21
160.0223941368078
  0
INSERT
  2
-004-_D4
  8
_0-9_寸法線層１
 10
-55.25
 20
-38.75
 41
1
 42
1
 50
0
  0
LINE
  8
_0-1_作画層１
  6
CENTER
 62
    7
 10
15.75
 20
21.75
 11
15.75
 21
104.25
  0
LINE
  8
_0-1_作画層１
  6
CONTINUOUS
 62
    7
 10
51.75
 20
87.25
 11
-20.25
 21
87.25
  0
LINE
  8
_0-1_作画層１
  6
CONTINUOUS
 62
    7
 10
49.5
 20
87.25
 11
49.5
 21
27.250000000000014
  0
LINE
  8
_0-1_作画層１
  6
CONTINUOUS
 62
    7
 10
-18
 20
87.25
 11
-18
 21
27.25
  0
LINE
  8
_0-1_作画層１
  6
CONTINUOUS
 62
    7
 10
51.75
 20
87.25
 11
51.75
 21
87.75
  0
LINE
  8
_0-1_作画層１
  6
CONTINUOUS
 62
    7
 10
-20.25
 20
87.25
 11
-20.25
 21
87.75
  0
ARC
  8
_0-1_作画層１
  6
CONTINUOUS
 62
    7
 10
50.750000000000014
 20
96.250000000000028
 40
0.9999999999999712
 50
359.99999999999835
 51
90.00000000000081
  0
LINE
  8
_0-1_作画層１
  6
CONTINUOUS
 62
    7
 10
50.75
 20
88.75
 11
50.75
 21
96.25
  0
ARC
  8
_0-1_作画層１
  6
CONTINUOUS
 62
    7
 10
-19.250000000000028
 20
96.250000000000028
 40
0.9999999999999712
 50
89.999999999998778
 51
180.00000000000162
  0
LINE
  8
_0-1_作画層１
  6
CONTINUOUS
 62
    7
 10
-19.25
 20
88.75
 11
-19.25
 21
96.25
  0
LINE
  8
_0-1_作画層１
  6
CONTINUOUS
 62
    7
 10
-19.250000000000028
 20
97.25
 11
50.75
 21
97.25
  0
LINE
  8
_0-1_作画層１
  6
CONTINUOUS
 62
    7
 10
-19.25
 20
96.25
 11
50.75
 21
96.25
  0
LINE
  8
_0-1_作画層１
  6
CONTINUOUS
 62
    7
 10
51.75
 20
87.25
 11
51.75
 21
96.25
  0
LINE
  8
_0-1_作画層１
  6
CONTINUOUS
 62
    7
 10
-20.25
 20
87.25
 11
-20.25
 21
96.25
  0
LINE
  8
_0-1_作画層１
  6
CONTINUOUS
 62
    7
 10
-20.25
 20
88.75
 11
51.75
 21
88.75
  0
LINE
  8
_0-1_作画層１
  6
CONTINUOUS
 62
    7
 10
-19.25
 20
92.75
 11
50.75
 21
92.75
  0
LINE
  8
_0-1_作画層１
  6
CONTINUOUS
 62
    7
 10
13.522394136807804
 20
90.214983713355025
 11
18.022394136807804
 21
90.214983713355025
  0
LINE
  8
_0-1_作画層１
  6
CONTINUOUS
 62
    7
 10
18.022394136807804
 20
90.214983713355025
 11
18.022394136807804
 21
92.714983713355025
  0
LINE
  8
_0-1_作画層１
  6
CONTINUOUS
 62
    7
 10
18.022394136807804
 20
92.714983713355025
 11
13.522394136807804
 21
92.714983713355025
  0
LINE
  8
_0-1_作画層１
  6
CONTINUOUS
 62
    7
 10
13.522394136807804
 20
92.714983713355025
 11
13.522394136807804
 21
90.214983713355025
  0
LINE
  8
_0-1_作画層１
  6
CONTINUOUS
 62
    7
 10
49.5
 20
27.25
 11
-18
 21
27.25
  0
LINE
  8
_0-1_作画層１
  6
CONTINUOUS
 62
    7
 10
4.6200000000000045
 20
185.76999999999998
 11
4.6200000000000045
 21
182.46999999999997
  0
LINE
  8
_0-1_作画層１
  6
CONTINUOUS
 62
    7
 10
4.6200000000000045
 20
185.76999999999998
 11
4.9499999999999886
 21
186.09999999999997
  0
LINE
  8
_0-1_作画層１
  6
CONTINUOUS
 62
    7
 10
4.9499999999999886
 20
186.09999999999997
 11
5.2800000000000011
 21
185.76999999999998
  0
LINE
  8
_0-1_作画層１
  6
CONTINUOUS
 62
    7
 10
5.2800000000000011
 20
185.76999999999998
 11
5.2800000000000011
 21
182.46999999999997
  0
LINE
  8
_0-1_作画層１
  6
CONTINUOUS
 62
    7
 10
4.6200000000000045
 20
182.46999999999997
 11
4.9499999999999886
 21
182.13999999999996
  0
LINE
  8
_0-1_作画層１
  6
CONTINUOUS
 62
    7
 10
5.2800000000000011
 20
182.46999999999997
 11
4.9499999999999886
 21
182.13999999999996
  0
LINE
  8
_0-1_作画層１
  6
CONTINUOUS
 62
    7
 10
4.9216904755831479
 20
182.16830952441683
 11
5.2800000000000011
 21
182.52661904883365
  0
LINE
  8
_0-1_作画層１
  6
CONTINUOUS
 62
    7
 10
4.8283523804665265
 20
182.26164761953342
 11
5.2800000000000011
 21
182.71329523906689
  0
LINE
  8
_0-1_作画層１
  6
CONTINUOUS
 62
    7
 10
4.7350142853499335
 20
182.35498571465004
 11
5.2800000000000011
 21
182.89997142930011
  0
LINE
  8
_0-1_作画層１
  6
CONTINUOUS
 62
    7
 10
4.6416761902332837
 20
182.44832380976669
 11
5.2800000000000011
 21
183.08664761953341
  0
LINE
  8
_0-1_作画層１
  6
CONTINUOUS
 62
    7
 10
4.6200000000000045
 20
182.61332380976665
 11
5.2800000000000011
 21
183.27332380976659
  0
LINE
  8
_0-1_作画層１
  6
CONTINUOUS
 62
    7
 10
4.6200000000000045
 20
182.79999999999987
 11
5.2800000000000011
 21
183.45999999999987
  0
LINE
  8
_0-1_作画層１
  6
CONTINUOUS
 62
    7
 10
4.6200000000000045
 20
182.98667619023308
 11
5.2800000000000011
 21
183.64667619023311
  0
LINE
  8
_0-1_作画層１
  6
CONTINUOUS
 62
    7
 10
4.6200000000000045
 20
183.17335238046635
 11
5.2800000000000011
 21
183.83335238046629
  0
LINE
  8
_0-1_作画層１
  6
CONTINUOUS
 62
    7
 10
4.6200000000000045
 20
183.36002857069951
 11
5.2800000000000011
 21
184.02002857069957
  0
LINE
  8
_0-1_作画層１
  6
CONTINUOUS
 62
    7
 10
4.6200000000000045
 20
183.54670476093278
 11
5.2800000000000011
 21
184.20670476093272
  0
LINE
  8
_0-1_作画層１
  6
CONTINUOUS
 62
    7
 10
4.6200000000000045
 20
183.73338095116605
 11
5.2800000000000011
 21
184.39338095116605
  0
LINE
  8
_0-1_作画層１
  6
CONTINUOUS
 62
    7
 10
4.6200000000000045
 20
183.92005714139927
 11
5.2800000000000011
 21
184.58005714139927
  0
LINE
  8
_0-1_作画層１
  6
CONTINUOUS
 62
    7
 10
4.6200000000000045
 20
184.10673333163254
 11
5.2800000000000011
 21
184.76673333163254
  0
LINE
  8
_0-1_作画層１
  6
CONTINUOUS
 62
    7
 10
4.6200000000000045
 20
184.29340952186575
 11
5.2800000000000011
 21
184.95340952186581
  0
LINE
  8
_0-1_作画層１
  6
CONTINUOUS
 62
    7
 10
4.6200000000000045
 20
184.48008571209903
 11
5.2800000000000011
 21
185.14008571209902
  0
LINE
  8
_0-1_作画層１
  6
CONTINUOUS
 62
    7
 10
4.6200000000000045
 20
184.6667619023323
 11
5.2800000000000011
 21
185.32676190233229
  0
LINE
  8
_0-1_作画層１
  6
CONTINUOUS
 62
    7
 10
4.6200000000000045
 20
184.85343809256545
 11
5.2800000000000011
 21
185.51343809256545
  0
LINE
  8
_0-1_作画層１
  6
CONTINUOUS
 62
    7
 10
4.6200000000000045
 20
185.04011428279873
 11
5.2800000000000011
 21
185.70011428279872
  0
LINE
  8
_0-1_作画層１
  6
CONTINUOUS
 62
    7
 10
4.6200000000000045
 20
185.22679047303194
 11
5.2216047634839811
 21
185.828395236516
  0
LINE
  8
_0-1_作画層１
  6
CONTINUOUS
 62
    7
 10
4.6200000000000045
 20
185.41346666326518
 11
5.1282666683673597
 21
185.92173333163259
  0
LINE
  8
_0-1_作画層１
  6
CONTINUOUS
 62
    7
 10
4.6200000000000045
 20
185.60014285349843
 11
5.0349285732507383
 21
186.01507142674919
  0
LINE
  8
_0-1_作画層１
  6
CONTINUOUS
 62
    7
 10
4.6200000000000045
 20
181.80999999999995
 11
4.6200000000000045
 21
178.50999999999993
  0
LINE
  8
_0-1_作画層１
  6
CONTINUOUS
 62
    7
 10
4.6200000000000045
 20
181.80999999999995
 11
4.9499999999999886
 21
182.13999999999996
  0
LINE
  8
_0-1_作画層１
  6
CONTINUOUS
 62
    7
 10
4.9499999999999886
 20
182.13999999999996
 11
5.2800000000000011
 21
181.80999999999995
  0
LINE
  8
_0-1_作画層１
  6
CONTINUOUS
 62
    7
 10
5.2800000000000011
 20
181.80999999999995
 11
5.2800000000000011
 21
178.50999999999993
  0
LINE
  8
_0-1_作画層１
  6
CONTINUOUS
 62
    7
 10
4.6200000000000045
 20
178.50999999999993
 11
4.9499999999999886
 21
178.17999999999998
  0
LINE
  8
_0-1_作画層１
  6
CONTINUOUS
 62
    7
 10
5.2800000000000011
 20
178.50999999999993
 11
4.9499999999999886
 21
178.17999999999998
  0
LINE
  8
_0-1_作画層１
  6
CONTINUOUS
 62
    7
 10
4.9216904755831479
 20
178.20830952441685
 11
5.2800000000000011
 21
178.56661904883367
  0
LINE
  8
_0-1_作画層１
  6
CONTINUOUS
 62
    7
 10
4.8283523804665265
 20
178.30164761953341
 11
5.2800000000000011
 21
178.75329523906694
  0
LINE
  8
_0-1_作画層１
  6
CONTINUOUS
 62
    7
 10
4.7350142853499335
 20
178.39498571465006
 11
5.2800000000000011
 21
178.9399714293001
  0
LINE
  8
_0-1_作画層１
  6
CONTINUOUS
 62
    7
 10
4.6416761902332837
 20
178.48832380976665
 11
5.2800000000000011
 21
179.12664761953343
  0
LINE
  8
_0-1_作画層１
  6
CONTINUOUS
 62
    7
 10
4.6200000000000045
 20
178.65332380976662
 11
5.2800000000000011
 21
179.31332380976664
  0
LINE
  8
_0-1_作画層１
  6
CONTINUOUS
 62
    7
 10
4.6200000000000045
 20
178.83999999999986
 11
5.2800000000000011
 21
179.49999999999986
  0
LINE
  8
_0-1_作画層１
  6
CONTINUOUS
 62
    7
 10
4.6200000000000045
 20
179.0266761902331
 11
5.2800000000000011
 21
179.68667619023307
  0
LINE
  8
_0-1_作画層１
  6
CONTINUOUS
 62
    7
 10
4.6200000000000045
 20
179.21335238046632
 11
5.2800000000000011
 21
179.87335238046634
  0
LINE
  8
_0-1_作画層１
  6
CONTINUOUS
 62
    7
 10
4.6200000000000045
 20
179.40002857069953
 11
5.2800000000000011
 21
180.06002857069953
  0
LINE
  8
_0-1_作画層１
  6
CONTINUOUS
 62
    7
 10
4.6200000000000045
 20
179.58670476093275
 11
5.2800000000000011
 21
180.2467047609328
  0
LINE
  8
_0-1_作画層１
  6
CONTINUOUS
 62
    7
 10
4.6200000000000045
 20
179.77338095116602
 11
5.2800000000000011
 21
180.43338095116604
  0
LINE
  8
_0-1_作画層１
  6
CONTINUOUS
 62
    7
 10
4.6200000000000045
 20
179.96005714139929
 11
5.2800000000000011
 21
180.62005714139929
  0
LINE
  8
_0-1_作画層１
  6
CONTINUOUS
 62
    7
 10
4.6200000000000045
 20
180.14673333163256
 11
5.2800000000000011
 21
180.80673333163253
  0
LINE
  8
_0-1_作画層１
  6
CONTINUOUS
 62
    7
 10
4.6200000000000045
 20
180.33340952186578
 11
5.2800000000000011
 21
180.99340952186577
  0
LINE
  8
_0-1_作画層１
  6
CONTINUOUS
 62
    7
 10
4.6200000000000045
 20
180.52008571209905
 11
5.2800000000000011
 21
181.18008571209901
  0
LINE
  8
_0-1_作画層１
  6
CONTINUOUS
 62
    7
 10
4.6200000000000045
 20
180.70676190233226
 11
5.2800000000000011
 21
181.36676190233229
  0
LINE
  8
_0-1_作画層１
  6
CONTINUOUS
 62
    7
 10
4.6200000000000045
 20
180.89343809256548
 11
5.2800000000000011
 21
181.55343809256547
  0
LINE
  8
_0-1_作画層１
  6
CONTINUOUS
 62
    7
 10
4.6200000000000045
 20
181.08011428279869
 11
5.2800000000000011
 21
181.74011428279874
  0
LINE
  8
_0-1_作画層１
  6
CONTINUOUS
 62
    7
 10
4.6200000000000045
 20
181.26679047303196
 11
5.2216047634839811
 21
181.86839523651597
  0
LINE
  8
_0-1_作画層１
  6
CONTINUOUS
 62
    7
 10
4.6200000000000045
 20
181.45346666326523
 11
5.1282666683673597
 21
181.96173333163262
  0
LINE
  8
_0-1_作画層１
  6
CONTINUOUS
 62
    7
 10
4.6200000000000045
 20
181.64014285349845
 11
5.0349285732507383
 21
182.05507142674918
  0
LINE
  8
_0-1_作画層１
  6
CONTINUOUS
 62
    7
 10
7.6200000000000045
 20
185.76999999999998
 11
7.6200000000000045
 21
182.46999999999997
  0
LINE
  8
_0-1_作画層１
  6
CONTINUOUS
 62
    7
 10
8.2800000000000011
 20
185.76999999999998
 11
8.2800000000000011
 21
182.46999999999997
  0
LINE
  8
_0-1_作画層１
  6
CONTINUOUS
 62
    7
 10
7.6200000000000045
 20
182.46999999999997
 11
7.9499999999999886
 21
182.13999999999996
  0
LINE
  8
_0-1_作画層１
  6
CONTINUOUS
 62
    7
 10
8.2800000000000011
 20
182.46999999999997
 11
7.9499999999999886
 21
182.13999999999996
  0
LINE
  8
_0-1_作画層１
  6
CONTINUOUS
 62
    7
 10
7.9216904755831479
 20
182.16830952441683
 11
8.2800000000000011
 21
182.52661904883365
  0
LINE
  8
_0-1_作画層１
  6
CONTINUOUS
 62
    7
 10
7.8283523804665265
 20
182.26164761953342
 11
8.2800000000000011
 21
182.71329523906689
  0
LINE
  8
_0-1_作画層１
  6
CONTINUOUS
 62
    7
 10
7.7350142853499335
 20
182.35498571465004
 11
8.2800000000000011
 21
182.89997142930011
  0
LINE
  8
_0-1_作画層１
  6
CONTINUOUS
 62
    7
 10
7.6416761902332553
 20
182.44832380976669
 11
8.2800000000000011
 21
183.08664761953341
  0
LINE
  8
_0-1_作画層１
  6
CONTINUOUS
 62
    7
 10
7.6200000000000045
 20
182.61332380976665
 11
8.2800000000000011
 21
183.27332380976659
  0
LINE
  8
_0-1_作画層１
  6
CONTINUOUS
 62
    7
 10
7.6200000000000045
 20
182.79999999999987
 11
8.2800000000000011
 21
183.45999999999987
  0
LINE
  8
_0-1_作画層１
  6
CONTINUOUS
 62
    7
 10
7.6200000000000045
 20
182.98667619023308
 11
8.2800000000000011
 21
183.64667619023311
  0
LINE
  8
_0-1_作画層１
  6
CONTINUOUS
 62
    7
 10
7.6200000000000045
 20
183.17335238046635
 11
8.2800000000000011
 21
183.83335238046629
  0
LINE
  8
_0-1_作画層１
  6
CONTINUOUS
 62
    7
 10
7.6200000000000045
 20
183.36002857069951
 11
8.2800000000000011
 21
184.02002857069957
  0
LINE
  8
_0-1_作画層１
  6
CONTINUOUS
 62
    7
 10
7.6200000000000045
 20
183.54670476093278
 11
8.2800000000000011
 21
184.20670476093272
  0
LINE
  8
_0-1_作画層１
  6
CONTINUOUS
 62
    7
 10
7.6200000000000045
 20
183.73338095116605
 11
8.2800000000000011
 21
184.39338095116605
  0
LINE
  8
_0-1_作画層１
  6
CONTINUOUS
 62
    7
 10
7.6200000000000045
 20
183.92005714139927
 11
8.2800000000000011
 21
184.58005714139927
  0
LINE
  8
_0-1_作画層１
  6
CONTINUOUS
 62
    7
 10
7.6200000000000045
 20
184.10673333163254
 11
8.2800000000000011
 21
184.76673333163254
  0
LINE
  8
_0-1_作画層１
  6
CONTINUOUS
 62
    7
 10
7.6200000000000045
 20
184.29340952186575
 11
8.2800000000000011
 21
184.95340952186581
  0
LINE
  8
_0-1_作画層１
  6
CONTINUOUS
 62
    7
 10
7.6200000000000045
 20
184.48008571209903
 11
8.2800000000000011
 21
185.14008571209902
  0
LINE
  8
_0-1_作画層１
  6
CONTINUOUS
 62
    7
 10
7.6200000000000045
 20
184.6667619023323
 11
8.2800000000000011
 21
185.32676190233229
  0
LINE
  8
_0-1_作画層１
  6
CONTINUOUS
 62
    7
 10
7.6200000000000045
 20
184.85343809256545
 11
8.2800000000000011
 21
185.51343809256545
  0
LINE
  8
_0-1_作画層１
  6
CONTINUOUS
 62
    7
 10
7.6200000000000045
 20
185.04011428279873
 11
8.2800000000000011
 21
185.70011428279872
  0
LINE
  8
_0-1_作画層１
  6
CONTINUOUS
 62
    7
 10
7.6200000000000045
 20
185.22679047303194
 11
8.2216047634839811
 21
185.828395236516
  0
LINE
  8
_0-1_作画層１
  6
CONTINUOUS
 62
    7
 10
7.6200000000000045
 20
185.41346666326518
 11
8.1282666683673597
 21
185.92173333163259
  0
LINE
  8
_0-1_作画層１
  6
CONTINUOUS
 62
    7
 10
7.6200000000000045
 20
185.60014285349843
 11
8.0349285732507383
 21
186.01507142674919
  0
LINE
  8
_0-1_作画層１
  6
CONTINUOUS
 62
    7
 10
7.6200000000000045
 20
181.80999999999995
 11
7.6200000000000045
 21
178.50999999999993
  0
LINE
  8
_0-1_作画層１
  6
CONTINUOUS
 62
    7
 10
7.6200000000000045
 20
181.80999999999995
 11
7.9499999999999886
 21
182.13999999999996
  0
LINE
  8
_0-1_作画層１
  6
CONTINUOUS
 62
    7
 10
7.9499999999999886
 20
182.13999999999996
 11
8.2800000000000011
 21
181.80999999999995
  0
LINE
  8
_0-1_作画層１
  6
CONTINUOUS
 62
    7
 10
8.2800000000000011
 20
181.80999999999995
 11
8.2800000000000011
 21
178.50999999999993
  0
LINE
  8
_0-1_作画層１
  6
CONTINUOUS
 62
    7
 10
7.6200000000000045
 20
178.50999999999993
 11
7.9499999999999886
 21
178.17999999999998
  0
LINE
  8
_0-1_作画層１
  6
CONTINUOUS
 62
    7
 10
8.2800000000000011
 20
178.50999999999993
 11
7.9499999999999886
 21
178.17999999999998
  0
LINE
  8
_0-1_作画層１
  6
CONTINUOUS
 62
    7
 10
7.9216904755831479
 20
178.20830952441685
 11
8.2800000000000011
 21
178.56661904883367
  0
LINE
  8
_0-1_作画層１
  6
CONTINUOUS
 62
    7
 10
7.8283523804665265
 20
178.30164761953341
 11
8.2800000000000011
 21
178.75329523906694
  0
LINE
  8
_0-1_作画層１
  6
CONTINUOUS
 62
    7
 10
7.7350142853499335
 20
178.39498571465006
 11
8.2800000000000011
 21
178.9399714293001
  0
LINE
  8
_0-1_作画層１
  6
CONTINUOUS
 62
    7
 10
7.6416761902332553
 20
178.48832380976665
 11
8.2800000000000011
 21
179.12664761953343
  0
LINE
  8
_0-1_作画層１
  6
CONTINUOUS
 62
    7
 10
7.6200000000000045
 20
178.65332380976662
 11
8.2800000000000011
 21
179.31332380976664
  0
LINE
  8
_0-1_作画層１
  6
CONTINUOUS
 62
    7
 10
7.6200000000000045
 20
178.83999999999986
 11
8.2800000000000011
 21
179.49999999999986
  0
LINE
  8
_0-1_作画層１
  6
CONTINUOUS
 62
    7
 10
7.6200000000000045
 20
179.0266761902331
 11
8.2800000000000011
 21
179.68667619023307
  0
LINE
  8
_0-1_作画層１
  6
CONTINUOUS
 62
    7
 10
7.6200000000000045
 20
179.21335238046632
 11
8.2800000000000011
 21
179.87335238046634
  0
LINE
  8
_0-1_作画層１
  6
CONTINUOUS
 62
    7
 10
7.6200000000000045
 20
179.40002857069953
 11
8.2800000000000011
 21
180.06002857069953
  0
LINE
  8
_0-1_作画層１
  6
CONTINUOUS
 62
    7
 10
7.6200000000000045
 20
179.58670476093275
 11
8.2800000000000011
 21
180.2467047609328
  0
LINE
  8
_0-1_作画層１
  6
CONTINUOUS
 62
    7
 10
7.6200000000000045
 20
179.77338095116602
 11
8.2800000000000011
 21
180.43338095116604
  0
LINE
  8
_0-1_作画層１
  6
CONTINUOUS
 62
    7
 10
7.6200000000000045
 20
179.96005714139929
 11
8.2800000000000011
 21
180.62005714139929
  0
LINE
  8
_0-1_作画層１
  6
CONTINUOUS
 62
    7
 10
7.6200000000000045
 20
180.14673333163256
 11
8.2800000000000011
 21
180.80673333163253
  0
LINE
  8
_0-1_作画層１
  6
CONTINUOUS
 62
    7
 10
7.6200000000000045
 20
180.33340952186578
 11
8.2800000000000011
 21
180.99340952186577
  0
LINE
  8
_0-1_作画層１
  6
CONTINUOUS
 62
    7
 10
7.6200000000000045
 20
180.52008571209905
 11
8.2800000000000011
 21
181.18008571209901
  0
LINE
  8
_0-1_作画層１
  6
CONTINUOUS
 62
    7
 10
7.6200000000000045
 20
180.70676190233226
 11
8.2800000000000011
 21
181.36676190233229
  0
LINE
  8
_0-1_作画層１
  6
CONTINUOUS
 62
    7
 10
7.6200000000000045
 20
180.89343809256548
 11
8.2800000000000011
 21
181.55343809256547
  0
LINE
  8
_0-1_作画層１
  6
CONTINUOUS
 62
    7
 10
7.6200000000000045
 20
181.08011428279869
 11
8.2800000000000011
 21
181.74011428279874
  0
LINE
  8
_0-1_作画層１
  6
CONTINUOUS
 62
    7
 10
7.6200000000000045
 20
181.26679047303196
 11
8.2216047634839811
 21
181.86839523651597
  0
LINE
  8
_0-1_作画層１
  6
CONTINUOUS
 62
    7
 10
7.6200000000000045
 20
181.45346666326523
 11
8.1282666683673597
 21
181.96173333163262
  0
LINE
  8
_0-1_作画層１
  6
CONTINUOUS
 62
    7
 10
7.6200000000000045
 20
181.64014285349845
 11
8.0349285732507383
 21
182.05507142674918
  0
LINE
  8
_0-1_作画層１
  6
CONTINUOUS
 62
    7
 10
8.25
 20
186.09999999999997
 11
8.5800000000000125
 21
185.76999999999998
  0
LINE
  8
_0-1_作画層１
  6
CONTINUOUS
 62
    7
 10
8.5800000000000409
 20
185.77000000000004
 11
11.880000000000052
 21
185.77000000000004
  0
LINE
  8
_0-1_作画層１
  6
CONTINUOUS
 62
    7
 10
8.5800000000000409
 20
185.77000000000004
 11
8.2500000000000284
 21
186.09999999999999
  0
LINE
  8
_0-1_作画層１
  6
CONTINUOUS
 62
    7
 10
8.2500000000000284
 20
186.09999999999999
 11
8.5800000000000409
 21
186.43000000000001
  0
LINE
  8
_0-1_作画層１
  6
CONTINUOUS
 62
    7
 10
8.5800000000000409
 20
186.43000000000001
 11
11.880000000000052
 21
186.43000000000001
  0
LINE
  8
_0-1_作画層１
  6
CONTINUOUS
 62
    7
 10
11.880000000000052
 20
185.77000000000004
 11
12.210000000000036
 21
186.09999999999999
  0
LINE
  8
_0-1_作画層１
  6
CONTINUOUS
 62
    7
 10
11.880000000000052
 20
186.43000000000001
 11
12.210000000000036
 21
186.09999999999999
  0
LINE
  8
_0-1_作画層１
  6
CONTINUOUS
 62
    7
 10
12.181690475583167
 20
186.07169047558318
 11
11.823380951166314
 21
186.43000000000001
  0
LINE
  8
_0-1_作画層１
  6
CONTINUOUS
 62
    7
 10
12.088352380466603
 20
185.97835238046656
 11
11.6367047609331
 21
186.43000000000001
  0
LINE
  8
_0-1_作画層１
  6
CONTINUOUS
 62
    7
 10
11.995014285349953
 20
185.88501428534991
 11
11.450028570699885
 21
186.43000000000001
  0
LINE
  8
_0-1_作画層１
  6
CONTINUOUS
 62
    7
 10
11.901676190233331
 20
185.79167619023329
 11
11.263352380466586
 21
186.43000000000001
  0
LINE
  8
_0-1_作画層１
  6
CONTINUOUS
 62
    7
 10
11.736676190233368
 20
185.77000000000004
 11
11.076676190233371
 21
186.43000000000001
  0
LINE
  8
_0-1_作画層１
  6
CONTINUOUS
 62
    7
 10
11.550000000000125
 20
185.77000000000004
 11
10.890000000000157
 21
186.43000000000001
  0
LINE
  8
_0-1_作画層１
  6
CONTINUOUS
 62
    7
 10
11.363323809766882
 20
185.77000000000004
 11
10.703323809766914
 21
186.43000000000001
  0
LINE
  8
_0-1_作画層１
  6
CONTINUOUS
 62
    7
 10
11.176647619533668
 20
185.77000000000004
 11
10.516647619533671
 21
186.43000000000001
  0
LINE
  8
_0-1_作画層１
  6
CONTINUOUS
 62
    7
 10
10.989971429300454
 20
185.77000000000004
 11
10.329971429300457
 21
186.43000000000001
  0
LINE
  8
_0-1_作画層１
  6
CONTINUOUS
 62
    7
 10
10.803295239067211
 20
185.77000000000004
 11
10.143295239067243
 21
186.43000000000001
  0
LINE
  8
_0-1_作画層１
  6
CONTINUOUS
 62
    7
 10
10.616619048833968
 20
185.77000000000004
 11
9.956619048833943
 21
186.43000000000001
  0
LINE
  8
_0-1_作画層１
  6
CONTINUOUS
 62
    7
 10
10.429942858600725
 20
185.77000000000004
 11
9.7699428586007002
 21
186.43000000000001
  0
LINE
  8
_0-1_作画層１
  6
CONTINUOUS
 62
    7
 10
10.243266668367454
 20
185.77000000000004
 11
9.5832666683674574
 21
186.43000000000001
  0
LINE
  8
_0-1_作画層１
  6
CONTINUOUS
 62
    7
 10
10.05659047813424
 20
185.77000000000004
 11
9.3965904781342147
 21
186.43000000000001
  0
LINE
  8
_0-1_作画層１
  6
CONTINUOUS
 62
    7
 10
9.8699142879009969
 20
185.77000000000004
 11
9.2099142879009719
 21
186.43000000000001
  0
LINE
  8
_0-1_作画層１
  6
CONTINUOUS
 62
    7
 10
9.6832380976677257
 20
185.77000000000004
 11
9.0232380976677291
 21
186.43000000000001
  0
LINE
  8
_0-1_作画層１
  6
CONTINUOUS
 62
    7
 10
9.4965619074345398
 20
185.77000000000004
 11
8.8365619074345432
 21
186.43000000000001
  0
LINE
  8
_0-1_作画層１
  6
CONTINUOUS
 62
    7
 10
9.309885717201297
 20
185.77000000000004
 11
8.649885717201272
 21
186.43000000000001
  0
LINE
  8
_0-1_作画層１
  6
CONTINUOUS
 62
    7
 10
9.1232095269680258
 20
185.77000000000004
 11
8.5216047634840209
 21
186.37160476348399
  0
LINE
  8
_0-1_作画層１
  6
CONTINUOUS
 62
    7
 10
8.9365333367348114
 20
185.77000000000004
 11
8.4282666683673995
 21
186.27826666836739
  0
LINE
  8
_0-1_作画層１
  6
CONTINUOUS
 62
    7
 10
8.7498571465015402
 20
185.77000000000004
 11
8.3349285732508065
 21
186.18492857325072
  0
LINE
  8
_0-1_作画層１
  6
CONTINUOUS
 62
    7
 10
7.6200000000000045
 20
185.76999999999998
 11
7.9499999999999886
 21
186.09999999999997
  0
LINE
  8
_0-1_作画層１
  6
CONTINUOUS
 62
    7
 10
7.9499999999999886
 20
186.09999999999997
 11
8.2800000000000011
 21
185.76999999999998
  0
LINE
  8
_0-1_作画層１
  6
CONTINUOUS
 62
    7
 10
8.2800000000000296
 20
185.77000000000004
 11
7.9500000000000455
 21
186.09999999999999
  0
LINE
  8
_0-1_作画層１
  6
CONTINUOUS
 62
    7
 10
8.25
 20
178.29999999999995
 11
8.5800000000000125
 21
177.96999999999997
  0
LINE
  8
_0-1_作画層１
  6
CONTINUOUS
 62
    7
 10
8.5800000000000409
 20
177.97000000000003
 11
11.880000000000052
 21
177.97000000000003
  0
LINE
  8
_0-1_作画層１
  6
CONTINUOUS
 62
    7
 10
8.5800000000000409
 20
177.97000000000003
 11
8.2500000000000284
 21
178.30000000000001
  0
LINE
  8
_0-1_作画層１
  6
CONTINUOUS
 62
    7
 10
8.2500000000000284
 20
178.30000000000001
 11
8.5800000000000409
 21
178.63000000000002
  0
LINE
  8
_0-1_作画層１
  6
CONTINUOUS
 62
    7
 10
8.5800000000000409
 20
178.63000000000002
 11
11.880000000000052
 21
178.63000000000002
  0
LINE
  8
_0-1_作画層１
  6
CONTINUOUS
 62
    7
 10
11.880000000000052
 20
177.97000000000003
 11
12.210000000000036
 21
178.30000000000001
  0
LINE
  8
_0-1_作画層１
  6
CONTINUOUS
 62
    7
 10
11.880000000000052
 20
178.63000000000002
 11
12.210000000000036
 21
178.30000000000001
  0
LINE
  8
_0-1_作画層１
  6
CONTINUOUS
 62
    7
 10
12.181690475583167
 20
178.27169047558317
 11
11.823380951166314
 21
178.63000000000002
  0
LINE
  8
_0-1_作画層１
  6
CONTINUOUS
 62
    7
 10
12.088352380466603
 20
178.17835238046655
 11
11.6367047609331
 21
178.63000000000002
  0
LINE
  8
_0-1_作画層１
  6
CONTINUOUS
 62
    7
 10
11.995014285349953
 20
178.08501428534993
 11
11.450028570699885
 21
178.63000000000002
  0
LINE
  8
_0-1_作画層１
  6
CONTINUOUS
 62
    7
 10
11.901676190233331
 20
177.99167619023328
 11
11.263352380466586
 21
178.63000000000002
  0
LINE
  8
_0-1_作画層１
  6
CONTINUOUS
 62
    7
 10
11.736676190233368
 20
177.97000000000003
 11
11.076676190233371
 21
178.63000000000002
  0
LINE
  8
_0-1_作画層１
  6
CONTINUOUS
 62
    7
 10
11.550000000000125
 20
177.97000000000003
 11
10.890000000000157
 21
178.63000000000002
  0
LINE
  8
_0-1_作画層１
  6
CONTINUOUS
 62
    7
 10
11.363323809766882
 20
177.97000000000003
 11
10.703323809766914
 21
178.63000000000002
  0
LINE
  8
_0-1_作画層１
  6
CONTINUOUS
 62
    7
 10
11.176647619533668
 20
177.97000000000003
 11
10.516647619533671
 21
178.63000000000002
  0
LINE
  8
_0-1_作画層１
  6
CONTINUOUS
 62
    7
 10
10.989971429300454
 20
177.97000000000003
 11
10.329971429300457
 21
178.63000000000002
  0
LINE
  8
_0-1_作画層１
  6
CONTINUOUS
 62
    7
 10
10.803295239067211
 20
177.97000000000003
 11
10.143295239067243
 21
178.63000000000002
  0
LINE
  8
_0-1_作画層１
  6
CONTINUOUS
 62
    7
 10
10.616619048833968
 20
177.97000000000003
 11
9.956619048833943
 21
178.63000000000002
  0
LINE
  8
_0-1_作画層１
  6
CONTINUOUS
 62
    7
 10
10.429942858600725
 20
177.97000000000003
 11
9.7699428586007002
 21
178.63000000000002
  0
LINE
  8
_0-1_作画層１
  6
CONTINUOUS
 62
    7
 10
10.243266668367454
 20
177.97000000000003
 11
9.5832666683674574
 21
178.63000000000002
  0
LINE
  8
_0-1_作画層１
  6
CONTINUOUS
 62
    7
 10
10.05659047813424
 20
177.97000000000003
 11
9.3965904781342147
 21
178.63000000000002
  0
LINE
  8
_0-1_作画層１
  6
CONTINUOUS
 62
    7
 10
9.8699142879009969
 20
177.97000000000003
 11
9.2099142879009719
 21
178.63000000000002
  0
LINE
  8
_0-1_作画層１
  6
CONTINUOUS
 62
    7
 10
9.6832380976677257
 20
177.97000000000003
 11
9.0232380976677291
 21
178.63000000000002
  0
LINE
  8
_0-1_作画層１
  6
CONTINUOUS
 62
    7
 10
9.4965619074345398
 20
177.97000000000003
 11
8.8365619074345432
 21
178.63000000000002
  0
LINE
  8
_0-1_作画層１
  6
CONTINUOUS
 62
    7
 10
9.309885717201297
 20
177.97000000000003
 11
8.649885717201272
 21
178.63000000000002
  0
LINE
  8
_0-1_作画層１
  6
CONTINUOUS
 62
    7
 10
9.1232095269680258
 20
177.97000000000003
 11
8.5216047634840209
 21
178.571604763484
  0
LINE
  8
_0-1_作画層１
  6
CONTINUOUS
 62
    7
 10
8.9365333367348114
 20
177.97000000000003
 11
8.4282666683673995
 21
178.47826666836741
  0
LINE
  8
_0-1_作画層１
  6
CONTINUOUS
 62
    7
 10
8.7498571465015402
 20
177.97000000000003
 11
8.3349285732508065
 21
178.38492857325073
  0
LINE
  8
_0-1_作画層１
  6
CONTINUOUS
 62
    7
 10
12.120000000000005
 20
185.76999999999998
 11
12.120000000000005
 21
182.46999999999997
  0
LINE
  8
_0-1_作画層１
  6
CONTINUOUS
 62
    7
 10
12.780000000000001
 20
185.76999999999998
 11
12.780000000000001
 21
182.46999999999997
  0
LINE
  8
_0-1_作画層１
  6
CONTINUOUS
 62
    7
 10
12.120000000000005
 20
182.46999999999997
 11
12.449999999999989
 21
182.13999999999996
  0
LINE
  8
_0-1_作画層１
  6
CONTINUOUS
 62
    7
 10
12.780000000000001
 20
182.46999999999997
 11
12.449999999999989
 21
182.13999999999996
  0
LINE
  8
_0-1_作画層１
  6
CONTINUOUS
 62
    7
 10
12.421690475583148
 20
182.16830952441683
 11
12.780000000000001
 21
182.52661904883365
  0
LINE
  8
_0-1_作画層１
  6
CONTINUOUS
 62
    7
 10
12.328352380466526
 20
182.26164761953342
 11
12.780000000000001
 21
182.71329523906689
  0
LINE
  8
_0-1_作画層１
  6
CONTINUOUS
 62
    7
 10
12.235014285349934
 20
182.35498571465004
 11
12.780000000000001
 21
182.89997142930011
  0
LINE
  8
_0-1_作画層１
  6
CONTINUOUS
 62
    7
 10
12.141676190233255
 20
182.44832380976669
 11
12.780000000000001
 21
183.08664761953341
  0
LINE
  8
_0-1_作画層１
  6
CONTINUOUS
 62
    7
 10
12.120000000000005
 20
182.61332380976665
 11
12.780000000000001
 21
183.27332380976659
  0
LINE
  8
_0-1_作画層１
  6
CONTINUOUS
 62
    7
 10
12.120000000000005
 20
182.79999999999987
 11
12.780000000000001
 21
183.45999999999987
  0
LINE
  8
_0-1_作画層１
  6
CONTINUOUS
 62
    7
 10
12.120000000000005
 20
182.98667619023308
 11
12.780000000000001
 21
183.64667619023311
  0
LINE
  8
_0-1_作画層１
  6
CONTINUOUS
 62
    7
 10
12.120000000000005
 20
183.17335238046635
 11
12.780000000000001
 21
183.83335238046629
  0
LINE
  8
_0-1_作画層１
  6
CONTINUOUS
 62
    7
 10
12.120000000000005
 20
183.36002857069951
 11
12.780000000000001
 21
184.02002857069957
  0
LINE
  8
_0-1_作画層１
  6
CONTINUOUS
 62
    7
 10
12.120000000000005
 20
183.54670476093278
 11
12.780000000000001
 21
184.20670476093272
  0
LINE
  8
_0-1_作画層１
  6
CONTINUOUS
 62
    7
 10
12.120000000000005
 20
183.73338095116605
 11
12.780000000000001
 21
184.39338095116605
  0
LINE
  8
_0-1_作画層１
  6
CONTINUOUS
 62
    7
 10
12.120000000000005
 20
183.92005714139927
 11
12.780000000000001
 21
184.58005714139927
  0
LINE
  8
_0-1_作画層１
  6
CONTINUOUS
 62
    7
 10
12.120000000000005
 20
184.10673333163254
 11
12.780000000000001
 21
184.76673333163254
  0
LINE
  8
_0-1_作画層１
  6
CONTINUOUS
 62
    7
 10
12.120000000000005
 20
184.29340952186575
 11
12.780000000000001
 21
184.95340952186581
  0
LINE
  8
_0-1_作画層１
  6
CONTINUOUS
 62
    7
 10
12.120000000000005
 20
184.48008571209903
 11
12.780000000000001
 21
185.14008571209902
  0
LINE
  8
_0-1_作画層１
  6
CONTINUOUS
 62
    7
 10
12.120000000000005
 20
184.6667619023323
 11
12.780000000000001
 21
185.32676190233229
  0
LINE
  8
_0-1_作画層１
  6
CONTINUOUS
 62
    7
 10
12.120000000000005
 20
184.85343809256545
 11
12.780000000000001
 21
185.51343809256545
  0
LINE
  8
_0-1_作画層１
  6
CONTINUOUS
 62
    7
 10
12.120000000000005
 20
185.04011428279873
 11
12.780000000000001
 21
185.70011428279872
  0
LINE
  8
_0-1_作画層１
  6
CONTINUOUS
 62
    7
 10
12.120000000000005
 20
185.22679047303194
 11
12.721604763483981
 21
185.828395236516
  0
LINE
  8
_0-1_作画層１
  6
CONTINUOUS
 62
    7
 10
12.120000000000005
 20
185.41346666326518
 11
12.62826666836736
 21
185.92173333163259
  0
LINE
  8
_0-1_作画層１
  6
CONTINUOUS
 62
    7
 10
12.120000000000005
 20
185.60014285349843
 11
12.534928573250738
 21
186.01507142674919
  0
LINE
  8
_0-1_作画層１
  6
CONTINUOUS
 62
    7
 10
12.120000000000005
 20
185.76999999999998
 11
12.449999999999989
 21
186.09999999999997
  0
LINE
  8
_0-1_作画層１
  6
CONTINUOUS
 62
    7
 10
12.449999999999989
 20
186.09999999999997
 11
12.780000000000001
 21
185.76999999999998
  0
LINE
  8
_0-1_作画層１
  6
CONTINUOUS
 62
    7
 10
12.78000000000003
 20
185.77000000000004
 11
12.450000000000045
 21
186.09999999999999
  0
LINE
  8
_0-1_作画層１
  6
CONTINUOUS
 62
    7
 10
12.120000000000005
 20
181.86999999999998
 11
12.120000000000005
 21
178.56999999999999
  0
LINE
  8
_0-1_作画層１
  6
CONTINUOUS
 62
    7
 10
12.780000000000001
 20
181.86999999999998
 11
12.780000000000001
 21
178.56999999999999
  0
LINE
  8
_0-1_作画層１
  6
CONTINUOUS
 62
    7
 10
12.120000000000005
 20
178.56999999999999
 11
12.449999999999989
 21
178.23999999999995
  0
LINE
  8
_0-1_作画層１
  6
CONTINUOUS
 62
    7
 10
12.780000000000001
 20
178.56999999999999
 11
12.449999999999989
 21
178.23999999999995
  0
LINE
  8
_0-1_作画層１
  6
CONTINUOUS
 62
    7
 10
12.421690475583148
 20
178.26830952441682
 11
12.780000000000001
 21
178.62661904883367
  0
LINE
  8
_0-1_作画層１
  6
CONTINUOUS
 62
    7
 10
12.328352380466526
 20
178.36164761953341
 11
12.780000000000001
 21
178.81329523906689
  0
LINE
  8
_0-1_作画層１
  6
CONTINUOUS
 62
    7
 10
12.235014285349934
 20
178.45498571465004
 11
12.780000000000001
 21
178.9999714293001
  0
LINE
  8
_0-1_作画層１
  6
CONTINUOUS
 62
    7
 10
12.141676190233255
 20
178.54832380976669
 11
12.780000000000001
 21
179.1866476195334
  0
LINE
  8
_0-1_作画層１
  6
CONTINUOUS
 62
    7
 10
12.120000000000005
 20
178.71332380976665
 11
12.780000000000001
 21
179.37332380976659
  0
LINE
  8
_0-1_作画層１
  6
CONTINUOUS
 62
    7
 10
12.120000000000005
 20
178.89999999999986
 11
12.780000000000001
 21
179.55999999999986
  0
LINE
  8
_0-1_作画層１
  6
CONTINUOUS
 62
    7
 10
12.120000000000005
 20
179.08667619023308
 11
12.780000000000001
 21
179.74667619023313
  0
LINE
  8
_0-1_作画層１
  6
CONTINUOUS
 62
    7
 10
12.120000000000005
 20
179.27335238046635
 11
12.780000000000001
 21
179.93335238046629
  0
LINE
  8
_0-1_作画層１
  6
CONTINUOUS
 62
    7
 10
12.120000000000005
 20
179.46002857069954
 11
12.780000000000001
 21
180.12002857069956
  0
LINE
  8
_0-1_作画層１
  6
CONTINUOUS
 62
    7
 10
12.120000000000005
 20
179.64670476093278
 11
12.780000000000001
 21
180.30670476093275
  0
LINE
  8
_0-1_作画層１
  6
CONTINUOUS
 62
    7
 10
12.120000000000005
 20
179.83338095116605
 11
12.780000000000001
 21
180.49338095116605
  0
LINE
  8
_0-1_作画層１
  6
CONTINUOUS
 62
    7
 10
12.120000000000005
 20
180.02005714139926
 11
12.780000000000001
 21
180.68005714139926
  0
LINE
  8
_0-1_作画層１
  6
CONTINUOUS
 62
    7
 10
12.120000000000005
 20
180.20673333163253
 11
12.780000000000001
 21
180.86673333163253
  0
LINE
  8
_0-1_作画層１
  6
CONTINUOUS
 62
    7
 10
12.120000000000005
 20
180.39340952186575
 11
12.780000000000001
 21
181.0534095218658
  0
LINE
  8
_0-1_作画層１
  6
CONTINUOUS
 62
    7
 10
12.120000000000005
 20
180.58008571209902
 11
12.780000000000001
 21
181.24008571209902
  0
LINE
  8
_0-1_作画層１
  6
CONTINUOUS
 62
    7
 10
12.120000000000005
 20
180.76676190233229
 11
12.780000000000001
 21
181.42676190233229
  0
LINE
  8
_0-1_作画層１
  6
CONTINUOUS
 62
    7
 10
12.120000000000005
 20
180.95343809256548
 11
12.780000000000001
 21
181.61343809256545
  0
LINE
  8
_0-1_作画層１
  6
CONTINUOUS
 62
    7
 10
12.120000000000005
 20
181.14011428279872
 11
12.780000000000001
 21
181.80011428279872
  0
LINE
  8
_0-1_作画層１
  6
CONTINUOUS
 62
    7
 10
12.120000000000005
 20
181.32679047303196
 11
12.721604763483981
 21
181.928395236516
  0
LINE
  8
_0-1_作画層１
  6
CONTINUOUS
 62
    7
 10
12.120000000000005
 20
181.51346666326518
 11
12.62826666836736
 21
182.02173333163259
  0
LINE
  8
_0-1_作画層１
  6
CONTINUOUS
 62
    7
 10
12.120000000000005
 20
181.70014285349845
 11
12.534928573250738
 21
182.11507142674918
  0
LINE
  8
_0-1_作画層１
  6
CONTINUOUS
 62
    7
 10
12.120000000000005
 20
181.86999999999998
 11
12.449999999999989
 21
182.19999999999996
  0
LINE
  8
_0-1_作画層１
  6
CONTINUOUS
 62
    7
 10
12.449999999999989
 20
182.19999999999996
 11
12.780000000000001
 21
181.86999999999998
  0
LINE
  8
_0-1_作画層１
  6
CONTINUOUS
 62
    7
 10
12.78000000000003
 20
181.87000000000003
 11
12.450000000000045
 21
182.19999999999999
  0
LINE
  8
_0-1_作画層１
  6
CONTINUOUS
 62
    7
 10
19.949999999999989
 20
186.09999999999997
 11
20.280000000000001
 21
185.76999999999998
  0
LINE
  8
_0-1_作画層１
  6
CONTINUOUS
 62
    7
 10
20.28000000000003
 20
185.77000000000004
 11
23.580000000000041
 21
185.77000000000004
  0
LINE
  8
_0-1_作画層１
  6
CONTINUOUS
 62
    7
 10
20.28000000000003
 20
185.77000000000004
 11
19.950000000000045
 21
186.09999999999999
  0
LINE
  8
_0-1_作画層１
  6
CONTINUOUS
 62
    7
 10
19.950000000000045
 20
186.09999999999999
 11
20.28000000000003
 21
186.43000000000001
  0
LINE
  8
_0-1_作画層１
  6
CONTINUOUS
 62
    7
 10
20.28000000000003
 20
186.43000000000001
 11
23.580000000000041
 21
186.43000000000001
  0
LINE
  8
_0-1_作画層１
  6
CONTINUOUS
 62
    7
 10
23.580000000000041
 20
185.77000000000004
 11
23.910000000000053
 21
186.09999999999999
  0
LINE
  8
_0-1_作画層１
  6
CONTINUOUS
 62
    7
 10
23.580000000000041
 20
186.43000000000001
 11
23.910000000000053
 21
186.09999999999999
  0
LINE
  8
_0-1_作画層１
  6
CONTINUOUS
 62
    7
 10
23.88169047558317
 20
186.07169047558318
 11
23.523380951166331
 21
186.43000000000001
  0
LINE
  8
_0-1_作画層１
  6
CONTINUOUS
 62
    7
 10
23.788352380466591
 20
185.97835238046656
 11
23.336704760933102
 21
186.43000000000001
  0
LINE
  8
_0-1_作画層１
  6
CONTINUOUS
 62
    7
 10
23.695014285349956
 20
185.88501428534991
 11
23.150028570699888
 21
186.43000000000001
  0
LINE
  8
_0-1_作画層１
  6
CONTINUOUS
 62
    7
 10
23.601676190233349
 20
185.79167619023329
 11
22.963352380466603
 21
186.43000000000001
  0
LINE
  8
_0-1_作画層１
  6
CONTINUOUS
 62
    7
 10
23.436676190233356
 20
185.77000000000004
 11
22.776676190233374
 21
186.43000000000001
  0
LINE
  8
_0-1_作画層１
  6
CONTINUOUS
 62
    7
 10
23.250000000000142
 20
185.77000000000004
 11
22.59000000000016
 21
186.43000000000001
  0
LINE
  8
_0-1_作画層１
  6
CONTINUOUS
 62
    7
 10
23.063323809766885
 20
185.77000000000004
 11
22.403323809766903
 21
186.43000000000001
  0
LINE
  8
_0-1_作画層１
  6
CONTINUOUS
 62
    7
 10
22.876647619533657
 20
185.77000000000004
 11
22.216647619533688
 21
186.43000000000001
  0
LINE
  8
_0-1_作画層１
  6
CONTINUOUS
 62
    7
 10
22.689971429300442
 20
185.77000000000004
 11
22.02997142930046
 21
186.43000000000001
  0
LINE
  8
_0-1_作画層１
  6
CONTINUOUS
 62
    7
 10
22.503295239067228
 20
185.77000000000004
 11
21.843295239067245
 21
186.43000000000001
  0
LINE
  8
_0-1_作画層１
  6
CONTINUOUS
 62
    7
 10
22.316619048833971
 20
185.77000000000004
 11
21.65661904883396
 21
186.43000000000001
  0
LINE
  8
_0-1_作画層１
  6
CONTINUOUS
 62
    7
 10
22.129942858600714
 20
185.77000000000004
 11
21.469942858600703
 21
186.43000000000001
  0
LINE
  8
_0-1_作画層１
  6
CONTINUOUS
 62
    7
 10
21.943266668367457
 20
185.77000000000004
 11
21.283266668367446
 21
186.43000000000001
  0
LINE
  8
_0-1_作画層１
  6
CONTINUOUS
 62
    7
 10
21.756590478134243
 20
185.77000000000004
 11
21.096590478134232
 21
186.43000000000001
  0
LINE
  8
_0-1_作画層１
  6
CONTINUOUS
 62
    7
 10
21.569914287900986
 20
185.77000000000004
 11
20.909914287900975
 21
186.43000000000001
  0
LINE
  8
_0-1_作画層１
  6
CONTINUOUS
 62
    7
 10
21.383238097667729
 20
185.77000000000004
 11
20.723238097667718
 21
186.43000000000001
  0
LINE
  8
_0-1_作画層１
  6
CONTINUOUS
 62
    7
 10
21.196561907434543
 20
185.77000000000004
 11
20.536561907434532
 21
186.43000000000001
  0
LINE
  8
_0-1_作画層１
  6
CONTINUOUS
 62
    7
 10
21.009885717201286
 20
185.77000000000004
 11
20.349885717201289
 21
186.43000000000001
  0
LINE
  8
_0-1_作画層１
  6
CONTINUOUS
 62
    7
 10
20.823209526968043
 20
185.77000000000004
 11
20.221604763484009
 21
186.37160476348399
  0
LINE
  8
_0-1_作画層１
  6
CONTINUOUS
 62
    7
 10
20.636533336734814
 20
185.77000000000004
 11
20.128266668367417
 21
186.27826666836739
  0
LINE
  8
_0-1_作画層１
  6
CONTINUOUS
 62
    7
 10
20.449857146501529
 20
185.77000000000004
 11
20.034928573250795
 21
186.18492857325072
  0
LINE
  8
_0-1_作画層１
  6
CONTINUOUS
 62
    7
 10
19.949999999999989
 20
178.29999999999995
 11
20.280000000000001
 21
177.96999999999997
  0
LINE
  8
_0-1_作画層１
  6
CONTINUOUS
 62
    7
 10
20.28000000000003
 20
177.97000000000003
 11
23.580000000000041
 21
177.97000000000003
  0
LINE
  8
_0-1_作画層１
  6
CONTINUOUS
 62
    7
 10
20.28000000000003
 20
177.97000000000003
 11
19.950000000000045
 21
178.30000000000001
  0
LINE
  8
_0-1_作画層１
  6
CONTINUOUS
 62
    7
 10
19.950000000000045
 20
178.30000000000001
 11
20.28000000000003
 21
178.63000000000002
  0
LINE
  8
_0-1_作画層１
  6
CONTINUOUS
 62
    7
 10
20.28000000000003
 20
178.63000000000002
 11
23.580000000000041
 21
178.63000000000002
  0
LINE
  8
_0-1_作画層１
  6
CONTINUOUS
 62
    7
 10
23.580000000000041
 20
177.97000000000003
 11
23.910000000000053
 21
178.30000000000001
  0
LINE
  8
_0-1_作画層１
  6
CONTINUOUS
 62
    7
 10
23.580000000000041
 20
178.63000000000002
 11
23.910000000000053
 21
178.30000000000001
  0
LINE
  8
_0-1_作画層１
  6
CONTINUOUS
 62
    7
 10
23.88169047558317
 20
178.27169047558317
 11
23.523380951166331
 21
178.63000000000002
  0
LINE
  8
_0-1_作画層１
  6
CONTINUOUS
 62
    7
 10
23.788352380466591
 20
178.17835238046655
 11
23.336704760933102
 21
178.63000000000002
  0
LINE
  8
_0-1_作画層１
  6
CONTINUOUS
 62
    7
 10
23.695014285349956
 20
178.08501428534993
 11
23.150028570699888
 21
178.63000000000002
  0
LINE
  8
_0-1_作画層１
  6
CONTINUOUS
 62
    7
 10
23.601676190233349
 20
177.99167619023328
 11
22.963352380466603
 21
178.63000000000002
  0
LINE
  8
_0-1_作画層１
  6
CONTINUOUS
 62
    7
 10
23.436676190233356
 20
177.97000000000003
 11
22.776676190233374
 21
178.63000000000002
  0
LINE
  8
_0-1_作画層１
  6
CONTINUOUS
 62
    7
 10
23.250000000000142
 20
177.97000000000003
 11
22.59000000000016
 21
178.63000000000002
  0
LINE
  8
_0-1_作画層１
  6
CONTINUOUS
 62
    7
 10
23.063323809766885
 20
177.97000000000003
 11
22.403323809766903
 21
178.63000000000002
  0
LINE
  8
_0-1_作画層１
  6
CONTINUOUS
 62
    7
 10
22.876647619533657
 20
177.97000000000003
 11
22.216647619533688
 21
178.63000000000002
  0
LINE
  8
_0-1_作画層１
  6
CONTINUOUS
 62
    7
 10
22.689971429300442
 20
177.97000000000003
 11
22.02997142930046
 21
178.63000000000002
  0
LINE
  8
_0-1_作画層１
  6
CONTINUOUS
 62
    7
 10
22.503295239067228
 20
177.97000000000003
 11
21.843295239067245
 21
178.63000000000002
  0
LINE
  8
_0-1_作画層１
  6
CONTINUOUS
 62
    7
 10
22.316619048833971
 20
177.97000000000003
 11
21.65661904883396
 21
178.63000000000002
  0
LINE
  8
_0-1_作画層１
  6
CONTINUOUS
 62
    7
 10
22.129942858600714
 20
177.97000000000003
 11
21.469942858600703
 21
178.63000000000002
  0
LINE
  8
_0-1_作画層１
  6
CONTINUOUS
 62
    7
 10
21.943266668367457
 20
177.97000000000003
 11
21.283266668367446
 21
178.63000000000002
  0
LINE
  8
_0-1_作画層１
  6
CONTINUOUS
 62
    7
 10
21.756590478134243
 20
177.97000000000003
 11
21.096590478134232
 21
178.63000000000002
  0
LINE
  8
_0-1_作画層１
  6
CONTINUOUS
 62
    7
 10
21.569914287900986
 20
177.97000000000003
 11
20.909914287900975
 21
178.63000000000002
  0
LINE
  8
_0-1_作画層１
  6
CONTINUOUS
 62
    7
 10
21.383238097667729
 20
177.97000000000003
 11
20.723238097667718
 21
178.63000000000002
  0
LINE
  8
_0-1_作画層１
  6
CONTINUOUS
 62
    7
 10
21.196561907434543
 20
177.97000000000003
 11
20.536561907434532
 21
178.63000000000002
  0
LINE
  8
_0-1_作画層１
  6
CONTINUOUS
 62
    7
 10
21.009885717201286
 20
177.97000000000003
 11
20.349885717201289
 21
178.63000000000002
  0
LINE
  8
_0-1_作画層１
  6
CONTINUOUS
 62
    7
 10
20.823209526968043
 20
177.97000000000003
 11
20.221604763484009
 21
178.571604763484
  0
LINE
  8
_0-1_作画層１
  6
CONTINUOUS
 62
    7
 10
20.636533336734814
 20
177.97000000000003
 11
20.128266668367417
 21
178.47826666836741
  0
LINE
  8
_0-1_作画層１
  6
CONTINUOUS
 62
    7
 10
20.449857146501529
 20
177.97000000000003
 11
20.034928573250795
 21
178.38492857325073
  0
LINE
  8
_0-1_作画層１
  6
CONTINUOUS
 62
    7
 10
23.819999999999993
 20
185.76999999999998
 11
23.819999999999993
 21
182.46999999999997
  0
LINE
  8
_0-1_作画層１
  6
CONTINUOUS
 62
    7
 10
24.480000000000004
 20
185.76999999999998
 11
24.480000000000004
 21
182.46999999999997
  0
LINE
  8
_0-1_作画層１
  6
CONTINUOUS
 62
    7
 10
23.819999999999993
 20
182.46999999999997
 11
24.150000000000006
 21
182.13999999999996
  0
LINE
  8
_0-1_作画層１
  6
CONTINUOUS
 62
    7
 10
24.480000000000004
 20
182.46999999999997
 11
24.150000000000006
 21
182.13999999999996
  0
LINE
  8
_0-1_作画層１
  6
CONTINUOUS
 62
    7
 10
24.121690475583151
 20
182.16830952441683
 11
24.480000000000004
 21
182.52661904883365
  0
LINE
  8
_0-1_作画層１
  6
CONTINUOUS
 62
    7
 10
24.028352380466544
 20
182.26164761953342
 11
24.480000000000004
 21
182.71329523906689
  0
LINE
  8
_0-1_作画層１
  6
CONTINUOUS
 62
    7
 10
23.935014285349936
 20
182.35498571465004
 11
24.480000000000004
 21
182.89997142930011
  0
LINE
  8
_0-1_作画層１
  6
CONTINUOUS
 62
    7
 10
23.841676190233258
 20
182.44832380976669
 11
24.480000000000004
 21
183.08664761953341
  0
LINE
  8
_0-1_作画層１
  6
CONTINUOUS
 62
    7
 10
23.819999999999993
 20
182.61332380976665
 11
24.480000000000004
 21
183.27332380976659
  0
LINE
  8
_0-1_作画層１
  6
CONTINUOUS
 62
    7
 10
23.819999999999993
 20
182.79999999999987
 11
24.480000000000004
 21
183.45999999999987
  0
LINE
  8
_0-1_作画層１
  6
CONTINUOUS
 62
    7
 10
23.819999999999993
 20
182.98667619023308
 11
24.480000000000004
 21
183.64667619023311
  0
LINE
  8
_0-1_作画層１
  6
CONTINUOUS
 62
    7
 10
23.819999999999993
 20
183.17335238046635
 11
24.480000000000004
 21
183.83335238046629
  0
LINE
  8
_0-1_作画層１
  6
CONTINUOUS
 62
    7
 10
23.819999999999993
 20
183.36002857069951
 11
24.480000000000004
 21
184.02002857069957
  0
LINE
  8
_0-1_作画層１
  6
CONTINUOUS
 62
    7
 10
23.819999999999993
 20
183.54670476093278
 11
24.480000000000004
 21
184.20670476093272
  0
LINE
  8
_0-1_作画層１
  6
CONTINUOUS
 62
    7
 10
23.819999999999993
 20
183.73338095116605
 11
24.480000000000004
 21
184.39338095116605
  0
LINE
  8
_0-1_作画層１
  6
CONTINUOUS
 62
    7
 10
23.819999999999993
 20
183.92005714139927
 11
24.480000000000004
 21
184.58005714139927
  0
LINE
  8
_0-1_作画層１
  6
CONTINUOUS
 62
    7
 10
23.819999999999993
 20
184.10673333163254
 11
24.480000000000004
 21
184.76673333163254
  0
LINE
  8
_0-1_作画層１
  6
CONTINUOUS
 62
    7
 10
23.819999999999993
 20
184.29340952186575
 11
24.480000000000004
 21
184.95340952186581
  0
LINE
  8
_0-1_作画層１
  6
CONTINUOUS
 62
    7
 10
23.819999999999993
 20
184.48008571209903
 11
24.480000000000004
 21
185.14008571209902
  0
LINE
  8
_0-1_作画層１
  6
CONTINUOUS
 62
    7
 10
23.819999999999993
 20
184.6667619023323
 11
24.480000000000004
 21
185.32676190233229
  0
LINE
  8
_0-1_作画層１
  6
CONTINUOUS
 62
    7
 10
23.819999999999993
 20
184.85343809256545
 11
24.480000000000004
 21
185.51343809256545
  0
LINE
  8
_0-1_作画層１
  6
CONTINUOUS
 62
    7
 10
23.819999999999993
 20
185.04011428279873
 11
24.480000000000004
 21
185.70011428279872
  0
LINE
  8
_0-1_作画層１
  6
CONTINUOUS
 62
    7
 10
23.819999999999993
 20
185.22679047303194
 11
24.421604763483984
 21
185.828395236516
  0
LINE
  8
_0-1_作画層１
  6
CONTINUOUS
 62
    7
 10
23.819999999999993
 20
185.41346666326518
 11
24.328266668367377
 21
185.92173333163259
  0
LINE
  8
_0-1_作画層１
  6
CONTINUOUS
 62
    7
 10
23.819999999999993
 20
185.60014285349843
 11
24.234928573250755
 21
186.01507142674919
  0
LINE
  8
_0-1_作画層１
  6
CONTINUOUS
 62
    7
 10
23.819999999999993
 20
185.76999999999998
 11
24.150000000000006
 21
186.09999999999997
  0
LINE
  8
_0-1_作画層１
  6
CONTINUOUS
 62
    7
 10
24.150000000000006
 20
186.09999999999997
 11
24.480000000000004
 21
185.76999999999998
  0
LINE
  8
_0-1_作画層１
  6
CONTINUOUS
 62
    7
 10
24.480000000000047
 20
185.77000000000004
 11
24.150000000000034
 21
186.09999999999999
  0
LINE
  8
_0-1_作画層１
  6
CONTINUOUS
 62
    7
 10
23.819999999999993
 20
181.86999999999998
 11
23.819999999999993
 21
178.56999999999999
  0
LINE
  8
_0-1_作画層１
  6
CONTINUOUS
 62
    7
 10
24.480000000000004
 20
181.86999999999998
 11
24.480000000000004
 21
178.56999999999999
  0
LINE
  8
_0-1_作画層１
  6
CONTINUOUS
 62
    7
 10
23.819999999999993
 20
178.56999999999999
 11
24.150000000000006
 21
178.23999999999995
  0
LINE
  8
_0-1_作画層１
  6
CONTINUOUS
 62
    7
 10
24.480000000000004
 20
178.56999999999999
 11
24.150000000000006
 21
178.23999999999995
  0
LINE
  8
_0-1_作画層１
  6
CONTINUOUS
 62
    7
 10
24.121690475583151
 20
178.26830952441682
 11
24.480000000000004
 21
178.62661904883367
  0
LINE
  8
_0-1_作画層１
  6
CONTINUOUS
 62
    7
 10
24.028352380466544
 20
178.36164761953341
 11
24.480000000000004
 21
178.81329523906689
  0
LINE
  8
_0-1_作画層１
  6
CONTINUOUS
 62
    7
 10
23.935014285349936
 20
178.45498571465004
 11
24.480000000000004
 21
178.9999714293001
  0
LINE
  8
_0-1_作画層１
  6
CONTINUOUS
 62
    7
 10
23.841676190233258
 20
178.54832380976669
 11
24.480000000000004
 21
179.1866476195334
  0
LINE
  8
_0-1_作画層１
  6
CONTINUOUS
 62
    7
 10
23.819999999999993
 20
178.71332380976665
 11
24.480000000000004
 21
179.37332380976659
  0
LINE
  8
_0-1_作画層１
  6
CONTINUOUS
 62
    7
 10
23.819999999999993
 20
178.89999999999986
 11
24.480000000000004
 21
179.55999999999986
  0
LINE
  8
_0-1_作画層１
  6
CONTINUOUS
 62
    7
 10
23.819999999999993
 20
179.08667619023308
 11
24.480000000000004
 21
179.74667619023313
  0
LINE
  8
_0-1_作画層１
  6
CONTINUOUS
 62
    7
 10
23.819999999999993
 20
179.27335238046635
 11
24.480000000000004
 21
179.93335238046629
  0
LINE
  8
_0-1_作画層１
  6
CONTINUOUS
 62
    7
 10
23.819999999999993
 20
179.46002857069954
 11
24.480000000000004
 21
180.12002857069956
  0
LINE
  8
_0-1_作画層１
  6
CONTINUOUS
 62
    7
 10
23.819999999999993
 20
179.64670476093278
 11
24.480000000000004
 21
180.30670476093275
  0
LINE
  8
_0-1_作画層１
  6
CONTINUOUS
 62
    7
 10
23.819999999999993
 20
179.83338095116605
 11
24.480000000000004
 21
180.49338095116605
  0
LINE
  8
_0-1_作画層１
  6
CONTINUOUS
 62
    7
 10
23.819999999999993
 20
180.02005714139926
 11
24.480000000000004
 21
180.68005714139926
  0
LINE
  8
_0-1_作画層１
  6
CONTINUOUS
 62
    7
 10
23.819999999999993
 20
180.20673333163253
 11
24.480000000000004
 21
180.86673333163253
  0
LINE
  8
_0-1_作画層１
  6
CONTINUOUS
 62
    7
 10
23.819999999999993
 20
180.39340952186575
 11
24.480000000000004
 21
181.0534095218658
  0
LINE
  8
_0-1_作画層１
  6
CONTINUOUS
 62
    7
 10
23.819999999999993
 20
180.58008571209902
 11
24.480000000000004
 21
181.24008571209902
  0
LINE
  8
_0-1_作画層１
  6
CONTINUOUS
 62
    7
 10
23.819999999999993
 20
180.76676190233229
 11
24.480000000000004
 21
181.42676190233229
  0
LINE
  8
_0-1_作画層１
  6
CONTINUOUS
 62
    7
 10
23.819999999999993
 20
180.95343809256548
 11
24.480000000000004
 21
181.61343809256545
  0
LINE
  8
_0-1_作画層１
  6
CONTINUOUS
 62
    7
 10
23.819999999999993
 20
181.14011428279872
 11
24.480000000000004
 21
181.80011428279872
  0
LINE
  8
_0-1_作画層１
  6
CONTINUOUS
 62
    7
 10
23.819999999999993
 20
181.32679047303196
 11
24.421604763483984
 21
181.928395236516
  0
LINE
  8
_0-1_作画層１
  6
CONTINUOUS
 62
    7
 10
23.819999999999993
 20
181.51346666326518
 11
24.328266668367377
 21
182.02173333163259
  0
LINE
  8
_0-1_作画層１
  6
CONTINUOUS
 62
    7
 10
23.819999999999993
 20
181.70014285349845
 11
24.234928573250755
 21
182.11507142674918
  0
LINE
  8
_0-1_作画層１
  6
CONTINUOUS
 62
    7
 10
23.819999999999993
 20
181.86999999999998
 11
24.150000000000006
 21
182.19999999999996
  0
LINE
  8
_0-1_作画層１
  6
CONTINUOUS
 62
    7
 10
24.150000000000006
 20
182.19999999999996
 11
24.480000000000004
 21
181.86999999999998
  0
LINE
  8
_0-1_作画層１
  6
CONTINUOUS
 62
    7
 10
24.480000000000047
 20
181.87000000000003
 11
24.150000000000034
 21
182.19999999999999
  0
LINE
  8
_0-1_作画層１
  6
CONTINUOUS
 62
    7
 10
27.11999999999999
 20
185.76999999999998
 11
27.11999999999999
 21
182.46999999999997
  0
LINE
  8
_0-1_作画層１
  6
CONTINUOUS
 62
    7
 10
27.780000000000001
 20
185.76999999999998
 11
27.780000000000001
 21
182.46999999999997
  0
LINE
  8
_0-1_作画層１
  6
CONTINUOUS
 62
    7
 10
27.11999999999999
 20
182.46999999999997
 11
27.450000000000003
 21
182.13999999999996
  0
LINE
  8
_0-1_作画層１
  6
CONTINUOUS
 62
    7
 10
27.780000000000001
 20
182.46999999999997
 11
27.450000000000003
 21
182.13999999999996
  0
LINE
  8
_0-1_作画層１
  6
CONTINUOUS
 62
    7
 10
27.421690475583148
 20
182.16830952441683
 11
27.780000000000001
 21
182.52661904883365
  0
LINE
  8
_0-1_作画層１
  6
CONTINUOUS
 62
    7
 10
27.328352380466541
 20
182.26164761953342
 11
27.780000000000001
 21
182.71329523906689
  0
LINE
  8
_0-1_作画層１
  6
CONTINUOUS
 62
    7
 10
27.235014285349934
 20
182.35498571465004
 11
27.780000000000001
 21
182.89997142930011
  0
LINE
  8
_0-1_作画層１
  6
CONTINUOUS
 62
    7
 10
27.141676190233255
 20
182.44832380976669
 11
27.780000000000001
 21
183.08664761953341
  0
LINE
  8
_0-1_作画層１
  6
CONTINUOUS
 62
    7
 10
27.11999999999999
 20
182.61332380976665
 11
27.780000000000001
 21
183.27332380976659
  0
LINE
  8
_0-1_作画層１
  6
CONTINUOUS
 62
    7
 10
27.11999999999999
 20
182.79999999999987
 11
27.780000000000001
 21
183.45999999999987
  0
LINE
  8
_0-1_作画層１
  6
CONTINUOUS
 62
    7
 10
27.11999999999999
 20
182.98667619023308
 11
27.780000000000001
 21
183.64667619023311
  0
LINE
  8
_0-1_作画層１
  6
CONTINUOUS
 62
    7
 10
27.11999999999999
 20
183.17335238046635
 11
27.780000000000001
 21
183.83335238046629
  0
LINE
  8
_0-1_作画層１
  6
CONTINUOUS
 62
    7
 10
27.11999999999999
 20
183.36002857069951
 11
27.780000000000001
 21
184.02002857069957
  0
LINE
  8
_0-1_作画層１
  6
CONTINUOUS
 62
    7
 10
27.11999999999999
 20
183.54670476093278
 11
27.780000000000001
 21
184.20670476093272
  0
LINE
  8
_0-1_作画層１
  6
CONTINUOUS
 62
    7
 10
27.11999999999999
 20
183.73338095116605
 11
27.780000000000001
 21
184.39338095116605
  0
LINE
  8
_0-1_作画層１
  6
CONTINUOUS
 62
    7
 10
27.11999999999999
 20
183.92005714139927
 11
27.780000000000001
 21
184.58005714139927
  0
LINE
  8
_0-1_作画層１
  6
CONTINUOUS
 62
    7
 10
27.11999999999999
 20
184.10673333163254
 11
27.780000000000001
 21
184.76673333163254
  0
LINE
  8
_0-1_作画層１
  6
CONTINUOUS
 62
    7
 10
27.11999999999999
 20
184.29340952186575
 11
27.780000000000001
 21
184.95340952186581
  0
LINE
  8
_0-1_作画層１
  6
CONTINUOUS
 62
    7
 10
27.11999999999999
 20
184.48008571209903
 11
27.780000000000001
 21
185.14008571209902
  0
LINE
  8
_0-1_作画層１
  6
CONTINUOUS
 62
    7
 10
27.11999999999999
 20
184.6667619023323
 11
27.780000000000001
 21
185.32676190233229
  0
LINE
  8
_0-1_作画層１
  6
CONTINUOUS
 62
    7
 10
27.11999999999999
 20
184.85343809256545
 11
27.780000000000001
 21
185.51343809256545
  0
LINE
  8
_0-1_作画層１
  6
CONTINUOUS
 62
    7
 10
27.11999999999999
 20
185.04011428279873
 11
27.780000000000001
 21
185.70011428279872
  0
LINE
  8
_0-1_作画層１
  6
CONTINUOUS
 62
    7
 10
27.11999999999999
 20
185.22679047303194
 11
27.721604763483981
 21
185.828395236516
  0
LINE
  8
_0-1_作画層１
  6
CONTINUOUS
 62
    7
 10
27.11999999999999
 20
185.41346666326518
 11
27.628266668367374
 21
185.92173333163259
  0
LINE
  8
_0-1_作画層１
  6
CONTINUOUS
 62
    7
 10
27.11999999999999
 20
185.60014285349843
 11
27.534928573250752
 21
186.01507142674919
  0
LINE
  8
_0-1_作画層１
  6
CONTINUOUS
 62
    7
 10
27.11999999999999
 20
181.80999999999995
 11
27.11999999999999
 21
178.50999999999993
  0
LINE
  8
_0-1_作画層１
  6
CONTINUOUS
 62
    7
 10
27.11999999999999
 20
181.80999999999995
 11
27.450000000000003
 21
182.13999999999996
  0
LINE
  8
_0-1_作画層１
  6
CONTINUOUS
 62
    7
 10
27.450000000000003
 20
182.13999999999996
 11
27.780000000000001
 21
181.80999999999995
  0
LINE
  8
_0-1_作画層１
  6
CONTINUOUS
 62
    7
 10
27.780000000000001
 20
181.80999999999995
 11
27.780000000000001
 21
178.50999999999993
  0
LINE
  8
_0-1_作画層１
  6
CONTINUOUS
 62
    7
 10
27.11999999999999
 20
178.50999999999993
 11
27.450000000000003
 21
178.17999999999998
  0
LINE
  8
_0-1_作画層１
  6
CONTINUOUS
 62
    7
 10
27.780000000000001
 20
178.50999999999993
 11
27.450000000000003
 21
178.17999999999998
  0
LINE
  8
_0-1_作画層１
  6
CONTINUOUS
 62
    7
 10
27.421690475583148
 20
178.20830952441685
 11
27.780000000000001
 21
178.56661904883367
  0
LINE
  8
_0-1_作画層１
  6
CONTINUOUS
 62
    7
 10
27.328352380466541
 20
178.30164761953341
 11
27.780000000000001
 21
178.75329523906694
  0
LINE
  8
_0-1_作画層１
  6
CONTINUOUS
 62
    7
 10
27.235014285349934
 20
178.39498571465006
 11
27.780000000000001
 21
178.9399714293001
  0
LINE
  8
_0-1_作画層１
  6
CONTINUOUS
 62
    7
 10
27.141676190233255
 20
178.48832380976665
 11
27.780000000000001
 21
179.12664761953343
  0
LINE
  8
_0-1_作画層１
  6
CONTINUOUS
 62
    7
 10
27.11999999999999
 20
178.65332380976662
 11
27.780000000000001
 21
179.31332380976664
  0
LINE
  8
_0-1_作画層１
  6
CONTINUOUS
 62
    7
 10
27.11999999999999
 20
178.83999999999986
 11
27.780000000000001
 21
179.49999999999986
  0
LINE
  8
_0-1_作画層１
  6
CONTINUOUS
 62
    7
 10
27.11999999999999
 20
179.0266761902331
 11
27.780000000000001
 21
179.68667619023307
  0
LINE
  8
_0-1_作画層１
  6
CONTINUOUS
 62
    7
 10
27.11999999999999
 20
179.21335238046632
 11
27.780000000000001
 21
179.87335238046634
  0
LINE
  8
_0-1_作画層１
  6
CONTINUOUS
 62
    7
 10
27.11999999999999
 20
179.40002857069953
 11
27.780000000000001
 21
180.06002857069953
  0
LINE
  8
_0-1_作画層１
  6
CONTINUOUS
 62
    7
 10
27.11999999999999
 20
179.58670476093275
 11
27.780000000000001
 21
180.2467047609328
  0
LINE
  8
_0-1_作画層１
  6
CONTINUOUS
 62
    7
 10
27.11999999999999
 20
179.77338095116602
 11
27.780000000000001
 21
180.43338095116604
  0
LINE
  8
_0-1_作画層１
  6
CONTINUOUS
 62
    7
 10
27.11999999999999
 20
179.96005714139929
 11
27.780000000000001
 21
180.62005714139929
  0
LINE
  8
_0-1_作画層１
  6
CONTINUOUS
 62
    7
 10
27.11999999999999
 20
180.14673333163256
 11
27.780000000000001
 21
180.80673333163253
  0
LINE
  8
_0-1_作画層１
  6
CONTINUOUS
 62
    7
 10
27.11999999999999
 20
180.33340952186578
 11
27.780000000000001
 21
180.99340952186577
  0
LINE
  8
_0-1_作画層１
  6
CONTINUOUS
 62
    7
 10
27.11999999999999
 20
180.52008571209905
 11
27.780000000000001
 21
181.18008571209901
  0
LINE
  8
_0-1_作画層１
  6
CONTINUOUS
 62
    7
 10
27.11999999999999
 20
180.70676190233226
 11
27.780000000000001
 21
181.36676190233229
  0
LINE
  8
_0-1_作画層１
  6
CONTINUOUS
 62
    7
 10
27.11999999999999
 20
180.89343809256548
 11
27.780000000000001
 21
181.55343809256547
  0
LINE
  8
_0-1_作画層１
  6
CONTINUOUS
 62
    7
 10
27.11999999999999
 20
181.08011428279869
 11
27.780000000000001
 21
181.74011428279874
  0
LINE
  8
_0-1_作画層１
  6
CONTINUOUS
 62
    7
 10
27.11999999999999
 20
181.26679047303196
 11
27.721604763483981
 21
181.86839523651597
  0
LINE
  8
_0-1_作画層１
  6
CONTINUOUS
 62
    7
 10
27.11999999999999
 20
181.45346666326523
 11
27.628266668367374
 21
181.96173333163262
  0
LINE
  8
_0-1_作画層１
  6
CONTINUOUS
 62
    7
 10
27.11999999999999
 20
181.64014285349845
 11
27.534928573250752
 21
182.05507142674918
  0
LINE
  8
_0-1_作画層１
  6
CONTINUOUS
 62
    7
 10
27.75
 20
186.09999999999997
 11
28.080000000000013
 21
185.76999999999998
  0
LINE
  8
_0-1_作画層１
  6
CONTINUOUS
 62
    7
 10
28.080000000000041
 20
185.77000000000004
 11
31.380000000000038
 21
185.77000000000004
  0
LINE
  8
_0-1_作画層１
  6
CONTINUOUS
 62
    7
 10
28.080000000000041
 20
185.77000000000004
 11
27.750000000000028
 21
186.09999999999999
  0
LINE
  8
_0-1_作画層１
  6
CONTINUOUS
 62
    7
 10
27.750000000000028
 20
186.09999999999999
 11
28.080000000000041
 21
186.43000000000001
  0
LINE
  8
_0-1_作画層１
  6
CONTINUOUS
 62
    7
 10
28.080000000000041
 20
186.43000000000001
 11
31.380000000000038
 21
186.43000000000001
  0
LINE
  8
_0-1_作画層１
  6
CONTINUOUS
 62
    7
 10
31.380000000000038
 20
185.77000000000004
 11
31.710000000000051
 21
186.09999999999999
  0
LINE
  8
_0-1_作画層１
  6
CONTINUOUS
 62
    7
 10
31.380000000000038
 20
186.43000000000001
 11
31.710000000000051
 21
186.09999999999999
  0
LINE
  8
_0-1_作画層１
  6
CONTINUOUS
 62
    7
 10
31.681690475583167
 20
186.07169047558318
 11
31.323380951166328
 21
186.43000000000001
  0
LINE
  8
_0-1_作画層１
  6
CONTINUOUS
 62
    7
 10
31.588352380466603
 20
185.97835238046656
 11
31.1367047609331
 21
186.43000000000001
  0
LINE
  8
_0-1_作画層１
  6
CONTINUOUS
 62
    7
 10
31.495014285349953
 20
185.88501428534991
 11
30.950028570699885
 21
186.43000000000001
  0
LINE
  8
_0-1_作画層１
  6
CONTINUOUS
 62
    7
 10
31.401676190233346
 20
185.79167619023329
 11
30.7633523804666
 21
186.43000000000001
  0
LINE
  8
_0-1_作画層１
  6
CONTINUOUS
 62
    7
 10
31.236676190233354
 20
185.77000000000004
 11
30.576676190233371
 21
186.43000000000001
  0
LINE
  8
_0-1_作画層１
  6
CONTINUOUS
 62
    7
 10
31.050000000000139
 20
185.77000000000004
 11
30.390000000000157
 21
186.43000000000001
  0
LINE
  8
_0-1_作画層１
  6
CONTINUOUS
 62
    7
 10
30.863323809766882
 20
185.77000000000004
 11
30.2033238097669
 21
186.43000000000001
  0
LINE
  8
_0-1_作画層１
  6
CONTINUOUS
 62
    7
 10
30.676647619533668
 20
185.77000000000004
 11
30.016647619533686
 21
186.43000000000001
  0
LINE
  8
_0-1_作画層１
  6
CONTINUOUS
 62
    7
 10
30.489971429300439
 20
185.77000000000004
 11
29.829971429300457
 21
186.43000000000001
  0
LINE
  8
_0-1_作画層１
  6
CONTINUOUS
 62
    7
 10
30.303295239067225
 20
185.77000000000004
 11
29.643295239067243
 21
186.43000000000001
  0
LINE
  8
_0-1_作画層１
  6
CONTINUOUS
 62
    7
 10
30.116619048833968
 20
185.77000000000004
 11
29.456619048833957
 21
186.43000000000001
  0
LINE
  8
_0-1_作画層１
  6
CONTINUOUS
 62
    7
 10
29.929942858600711
 20
185.77000000000004
 11
29.2699428586007
 21
186.43000000000001
  0
LINE
  8
_0-1_作画層１
  6
CONTINUOUS
 62
    7
 10
29.743266668367454
 20
185.77000000000004
 11
29.083266668367443
 21
186.43000000000001
  0
LINE
  8
_0-1_作画層１
  6
CONTINUOUS
 62
    7
 10
29.55659047813424
 20
185.77000000000004
 11
28.896590478134229
 21
186.43000000000001
  0
LINE
  8
_0-1_作画層１
  6
CONTINUOUS
 62
    7
 10
29.369914287900983
 20
185.77000000000004
 11
28.709914287900972
 21
186.43000000000001
  0
LINE
  8
_0-1_作画層１
  6
CONTINUOUS
 62
    7
 10
29.183238097667726
 20
185.77000000000004
 11
28.523238097667715
 21
186.43000000000001
  0
LINE
  8
_0-1_作画層１
  6
CONTINUOUS
 62
    7
 10
28.99656190743454
 20
185.77000000000004
 11
28.336561907434529
 21
186.43000000000001
  0
LINE
  8
_0-1_作画層１
  6
CONTINUOUS
 62
    7
 10
28.809885717201297
 20
185.77000000000004
 11
28.149885717201272
 21
186.43000000000001
  0
LINE
  8
_0-1_作画層１
  6
CONTINUOUS
 62
    7
 10
28.62320952696804
 20
185.77000000000004
 11
28.021604763484021
 21
186.37160476348399
  0
LINE
  8
_0-1_作画層１
  6
CONTINUOUS
 62
    7
 10
28.436533336734811
 20
185.77000000000004
 11
27.928266668367399
 21
186.27826666836739
  0
LINE
  8
_0-1_作画層１
  6
CONTINUOUS
 62
    7
 10
28.249857146501526
 20
185.77000000000004
 11
27.834928573250792
 21
186.18492857325072
  0
LINE
  8
_0-1_作画層１
  6
CONTINUOUS
 62
    7
 10
27.11999999999999
 20
185.76999999999998
 11
27.450000000000003
 21
186.09999999999997
  0
LINE
  8
_0-1_作画層１
  6
CONTINUOUS
 62
    7
 10
27.450000000000003
 20
186.09999999999997
 11
27.780000000000001
 21
185.76999999999998
  0
LINE
  8
_0-1_作画層１
  6
CONTINUOUS
 62
    7
 10
27.780000000000044
 20
185.77000000000004
 11
27.450000000000031
 21
186.09999999999999
  0
LINE
  8
_0-1_作画層１
  6
CONTINUOUS
 62
    7
 10
27.75
 20
178.29999999999995
 11
28.080000000000013
 21
177.96999999999997
  0
LINE
  8
_0-1_作画層１
  6
CONTINUOUS
 62
    7
 10
28.080000000000041
 20
177.97000000000003
 11
31.380000000000038
 21
177.97000000000003
  0
LINE
  8
_0-1_作画層１
  6
CONTINUOUS
 62
    7
 10
28.080000000000041
 20
177.97000000000003
 11
27.750000000000028
 21
178.30000000000001
  0
LINE
  8
_0-1_作画層１
  6
CONTINUOUS
 62
    7
 10
27.750000000000028
 20
178.30000000000001
 11
28.080000000000041
 21
178.63000000000002
  0
LINE
  8
_0-1_作画層１
  6
CONTINUOUS
 62
    7
 10
28.080000000000041
 20
178.63000000000002
 11
31.380000000000038
 21
178.63000000000002
  0
LINE
  8
_0-1_作画層１
  6
CONTINUOUS
 62
    7
 10
31.380000000000038
 20
177.97000000000003
 11
31.710000000000051
 21
178.30000000000001
  0
LINE
  8
_0-1_作画層１
  6
CONTINUOUS
 62
    7
 10
31.380000000000038
 20
178.63000000000002
 11
31.710000000000051
 21
178.30000000000001
  0
LINE
  8
_0-1_作画層１
  6
CONTINUOUS
 62
    7
 10
31.681690475583167
 20
178.27169047558317
 11
31.323380951166328
 21
178.63000000000002
  0
LINE
  8
_0-1_作画層１
  6
CONTINUOUS
 62
    7
 10
31.588352380466603
 20
178.17835238046655
 11
31.1367047609331
 21
178.63000000000002
  0
LINE
  8
_0-1_作画層１
  6
CONTINUOUS
 62
    7
 10
31.495014285349953
 20
178.08501428534993
 11
30.950028570699885
 21
178.63000000000002
  0
LINE
  8
_0-1_作画層１
  6
CONTINUOUS
 62
    7
 10
31.401676190233346
 20
177.99167619023328
 11
30.7633523804666
 21
178.63000000000002
  0
LINE
  8
_0-1_作画層１
  6
CONTINUOUS
 62
    7
 10
31.236676190233354
 20
177.97000000000003
 11
30.576676190233371
 21
178.63000000000002
  0
LINE
  8
_0-1_作画層１
  6
CONTINUOUS
 62
    7
 10
31.050000000000139
 20
177.97000000000003
 11
30.390000000000157
 21
178.63000000000002
  0
LINE
  8
_0-1_作画層１
  6
CONTINUOUS
 62
    7
 10
30.863323809766882
 20
177.97000000000003
 11
30.2033238097669
 21
178.63000000000002
  0
LINE
  8
_0-1_作画層１
  6
CONTINUOUS
 62
    7
 10
30.676647619533668
 20
177.97000000000003
 11
30.016647619533686
 21
178.63000000000002
  0
LINE
  8
_0-1_作画層１
  6
CONTINUOUS
 62
    7
 10
30.489971429300439
 20
177.97000000000003
 11
29.829971429300457
 21
178.63000000000002
  0
LINE
  8
_0-1_作画層１
  6
CONTINUOUS
 62
    7
 10
30.303295239067225
 20
177.97000000000003
 11
29.643295239067243
 21
178.63000000000002
  0
LINE
  8
_0-1_作画層１
  6
CONTINUOUS
 62
    7
 10
30.116619048833968
 20
177.97000000000003
 11
29.456619048833957
 21
178.63000000000002
  0
LINE
  8
_0-1_作画層１
  6
CONTINUOUS
 62
    7
 10
29.929942858600711
 20
177.97000000000003
 11
29.2699428586007
 21
178.63000000000002
  0
LINE
  8
_0-1_作画層１
  6
CONTINUOUS
 62
    7
 10
29.743266668367454
 20
177.97000000000003
 11
29.083266668367443
 21
178.63000000000002
  0
LINE
  8
_0-1_作画層１
  6
CONTINUOUS
 62
    7
 10
29.55659047813424
 20
177.97000000000003
 11
28.896590478134229
 21
178.63000000000002
  0
LINE
  8
_0-1_作画層１
  6
CONTINUOUS
 62
    7
 10
29.369914287900983
 20
177.97000000000003
 11
28.709914287900972
 21
178.63000000000002
  0
LINE
  8
_0-1_作画層１
  6
CONTINUOUS
 62
    7
 10
29.183238097667726
 20
177.97000000000003
 11
28.523238097667715
 21
178.63000000000002
  0
LINE
  8
_0-1_作画層１
  6
CONTINUOUS
 62
    7
 10
28.99656190743454
 20
177.97000000000003
 11
28.336561907434529
 21
178.63000000000002
  0
LINE
  8
_0-1_作画層１
  6
CONTINUOUS
 62
    7
 10
28.809885717201297
 20
177.97000000000003
 11
28.149885717201272
 21
178.63000000000002
  0
LINE
  8
_0-1_作画層１
  6
CONTINUOUS
 62
    7
 10
28.62320952696804
 20
177.97000000000003
 11
28.021604763484021
 21
178.571604763484
  0
LINE
  8
_0-1_作画層１
  6
CONTINUOUS
 62
    7
 10
28.436533336734811
 20
177.97000000000003
 11
27.928266668367399
 21
178.47826666836741
  0
LINE
  8
_0-1_作画層１
  6
CONTINUOUS
 62
    7
 10
28.249857146501526
 20
177.97000000000003
 11
27.834928573250792
 21
178.38492857325073
  0
LINE
  8
_0-1_作画層１
  6
CONTINUOUS
 62
    7
 10
31.61999999999999
 20
185.76999999999998
 11
31.61999999999999
 21
182.46999999999997
  0
LINE
  8
_0-1_作画層１
  6
CONTINUOUS
 62
    7
 10
32.280000000000001
 20
185.76999999999998
 11
32.280000000000001
 21
182.46999999999997
  0
LINE
  8
_0-1_作画層１
  6
CONTINUOUS
 62
    7
 10
31.61999999999999
 20
182.46999999999997
 11
31.950000000000003
 21
182.13999999999996
  0
LINE
  8
_0-1_作画層１
  6
CONTINUOUS
 62
    7
 10
32.280000000000001
 20
182.46999999999997
 11
31.950000000000003
 21
182.13999999999996
  0
LINE
  8
_0-1_作画層１
  6
CONTINUOUS
 62
    7
 10
31.921690475583148
 20
182.16830952441683
 11
32.280000000000001
 21
182.52661904883365
  0
LINE
  8
_0-1_作画層１
  6
CONTINUOUS
 62
    7
 10
31.828352380466541
 20
182.26164761953342
 11
32.280000000000001
 21
182.71329523906689
  0
LINE
  8
_0-1_作画層１
  6
CONTINUOUS
 62
    7
 10
31.735014285349934
 20
182.35498571465004
 11
32.280000000000001
 21
182.89997142930011
  0
LINE
  8
_0-1_作画層１
  6
CONTINUOUS
 62
    7
 10
31.641676190233255
 20
182.44832380976669
 11
32.280000000000001
 21
183.08664761953341
  0
LINE
  8
_0-1_作画層１
  6
CONTINUOUS
 62
    7
 10
31.61999999999999
 20
182.61332380976665
 11
32.280000000000001
 21
183.27332380976659
  0
LINE
  8
_0-1_作画層１
  6
CONTINUOUS
 62
    7
 10
31.61999999999999
 20
182.79999999999987
 11
32.280000000000001
 21
183.45999999999987
  0
LINE
  8
_0-1_作画層１
  6
CONTINUOUS
 62
    7
 10
31.61999999999999
 20
182.98667619023308
 11
32.280000000000001
 21
183.64667619023311
  0
LINE
  8
_0-1_作画層１
  6
CONTINUOUS
 62
    7
 10
31.61999999999999
 20
183.17335238046635
 11
32.280000000000001
 21
183.83335238046629
  0
LINE
  8
_0-1_作画層１
  6
CONTINUOUS
 62
    7
 10
31.61999999999999
 20
183.36002857069951
 11
32.280000000000001
 21
184.02002857069957
  0
LINE
  8
_0-1_作画層１
  6
CONTINUOUS
 62
    7
 10
31.61999999999999
 20
183.54670476093278
 11
32.280000000000001
 21
184.20670476093272
  0
LINE
  8
_0-1_作画層１
  6
CONTINUOUS
 62
    7
 10
31.61999999999999
 20
183.73338095116605
 11
32.280000000000001
 21
184.39338095116605
  0
LINE
  8
_0-1_作画層１
  6
CONTINUOUS
 62
    7
 10
31.61999999999999
 20
183.92005714139927
 11
32.280000000000001
 21
184.58005714139927
  0
LINE
  8
_0-1_作画層１
  6
CONTINUOUS
 62
    7
 10
31.61999999999999
 20
184.10673333163254
 11
32.280000000000001
 21
184.76673333163254
  0
LINE
  8
_0-1_作画層１
  6
CONTINUOUS
 62
    7
 10
31.61999999999999
 20
184.29340952186575
 11
32.280000000000001
 21
184.95340952186581
  0
LINE
  8
_0-1_作画層１
  6
CONTINUOUS
 62
    7
 10
31.61999999999999
 20
184.48008571209903
 11
32.280000000000001
 21
185.14008571209902
  0
LINE
  8
_0-1_作画層１
  6
CONTINUOUS
 62
    7
 10
31.61999999999999
 20
184.6667619023323
 11
32.280000000000001
 21
185.32676190233229
  0
LINE
  8
_0-1_作画層１
  6
CONTINUOUS
 62
    7
 10
31.61999999999999
 20
184.85343809256545
 11
32.280000000000001
 21
185.51343809256545
  0
LINE
  8
_0-1_作画層１
  6
CONTINUOUS
 62
    7
 10
31.61999999999999
 20
185.04011428279873
 11
32.280000000000001
 21
185.70011428279872
  0
LINE
  8
_0-1_作画層１
  6
CONTINUOUS
 62
    7
 10
31.61999999999999
 20
185.22679047303194
 11
32.221604763483981
 21
185.828395236516
  0
LINE
  8
_0-1_作画層１
  6
CONTINUOUS
 62
    7
 10
31.61999999999999
 20
185.41346666326518
 11
32.128266668367374
 21
185.92173333163259
  0
LINE
  8
_0-1_作画層１
  6
CONTINUOUS
 62
    7
 10
31.61999999999999
 20
185.60014285349843
 11
32.034928573250752
 21
186.01507142674919
  0
LINE
  8
_0-1_作画層１
  6
CONTINUOUS
 62
    7
 10
31.61999999999999
 20
185.76999999999998
 11
31.950000000000003
 21
186.09999999999997
  0
LINE
  8
_0-1_作画層１
  6
CONTINUOUS
 62
    7
 10
31.950000000000003
 20
186.09999999999997
 11
32.280000000000001
 21
185.76999999999998
  0
LINE
  8
_0-1_作画層１
  6
CONTINUOUS
 62
    7
 10
32.280000000000044
 20
185.77000000000004
 11
31.950000000000031
 21
186.09999999999999
  0
LINE
  8
_0-1_作画層１
  6
CONTINUOUS
 62
    7
 10
31.61999999999999
 20
181.86999999999998
 11
31.61999999999999
 21
178.56999999999999
  0
LINE
  8
_0-1_作画層１
  6
CONTINUOUS
 62
    7
 10
32.280000000000001
 20
181.86999999999998
 11
32.280000000000001
 21
178.56999999999999
  0
LINE
  8
_0-1_作画層１
  6
CONTINUOUS
 62
    7
 10
31.61999999999999
 20
178.56999999999999
 11
31.950000000000003
 21
178.23999999999995
  0
LINE
  8
_0-1_作画層１
  6
CONTINUOUS
 62
    7
 10
32.280000000000001
 20
178.56999999999999
 11
31.950000000000003
 21
178.23999999999995
  0
LINE
  8
_0-1_作画層１
  6
CONTINUOUS
 62
    7
 10
31.921690475583148
 20
178.26830952441682
 11
32.280000000000001
 21
178.62661904883367
  0
LINE
  8
_0-1_作画層１
  6
CONTINUOUS
 62
    7
 10
31.828352380466541
 20
178.36164761953341
 11
32.280000000000001
 21
178.81329523906689
  0
LINE
  8
_0-1_作画層１
  6
CONTINUOUS
 62
    7
 10
31.735014285349934
 20
178.45498571465004
 11
32.280000000000001
 21
178.9999714293001
  0
LINE
  8
_0-1_作画層１
  6
CONTINUOUS
 62
    7
 10
31.641676190233255
 20
178.54832380976669
 11
32.280000000000001
 21
179.1866476195334
  0
LINE
  8
_0-1_作画層１
  6
CONTINUOUS
 62
    7
 10
31.61999999999999
 20
178.71332380976665
 11
32.280000000000001
 21
179.37332380976659
  0
LINE
  8
_0-1_作画層１
  6
CONTINUOUS
 62
    7
 10
31.61999999999999
 20
178.89999999999986
 11
32.280000000000001
 21
179.55999999999986
  0
LINE
  8
_0-1_作画層１
  6
CONTINUOUS
 62
    7
 10
31.61999999999999
 20
179.08667619023308
 11
32.280000000000001
 21
179.74667619023313
  0
LINE
  8
_0-1_作画層１
  6
CONTINUOUS
 62
    7
 10
31.61999999999999
 20
179.27335238046635
 11
32.280000000000001
 21
179.93335238046629
  0
LINE
  8
_0-1_作画層１
  6
CONTINUOUS
 62
    7
 10
31.61999999999999
 20
179.46002857069954
 11
32.280000000000001
 21
180.12002857069956
  0
LINE
  8
_0-1_作画層１
  6
CONTINUOUS
 62
    7
 10
31.61999999999999
 20
179.64670476093278
 11
32.280000000000001
 21
180.30670476093275
  0
LINE
  8
_0-1_作画層１
  6
CONTINUOUS
 62
    7
 10
31.61999999999999
 20
179.83338095116605
 11
32.280000000000001
 21
180.49338095116605
  0
LINE
  8
_0-1_作画層１
  6
CONTINUOUS
 62
    7
 10
31.61999999999999
 20
180.02005714139926
 11
32.280000000000001
 21
180.68005714139926
  0
LINE
  8
_0-1_作画層１
  6
CONTINUOUS
 62
    7
 10
31.61999999999999
 20
180.20673333163253
 11
32.280000000000001
 21
180.86673333163253
  0
LINE
  8
_0-1_作画層１
  6
CONTINUOUS
 62
    7
 10
31.61999999999999
 20
180.39340952186575
 11
32.280000000000001
 21
181.0534095218658
  0
LINE
  8
_0-1_作画層１
  6
CONTINUOUS
 62
    7
 10
31.61999999999999
 20
180.58008571209902
 11
32.280000000000001
 21
181.24008571209902
  0
LINE
  8
_0-1_作画層１
  6
CONTINUOUS
 62
    7
 10
31.61999999999999
 20
180.76676190233229
 11
32.280000000000001
 21
181.42676190233229
  0
LINE
  8
_0-1_作画層１
  6
CONTINUOUS
 62
    7
 10
31.61999999999999
 20
180.95343809256548
 11
32.280000000000001
 21
181.61343809256545
  0
LINE
  8
_0-1_作画層１
  6
CONTINUOUS
 62
    7
 10
31.61999999999999
 20
181.14011428279872
 11
32.280000000000001
 21
181.80011428279872
  0
LINE
  8
_0-1_作画層１
  6
CONTINUOUS
 62
    7
 10
31.61999999999999
 20
181.32679047303196
 11
32.221604763483981
 21
181.928395236516
  0
LINE
  8
_0-1_作画層１
  6
CONTINUOUS
 62
    7
 10
31.61999999999999
 20
181.51346666326518
 11
32.128266668367374
 21
182.02173333163259
  0
LINE
  8
_0-1_作画層１
  6
CONTINUOUS
 62
    7
 10
31.61999999999999
 20
181.70014285349845
 11
32.034928573250752
 21
182.11507142674918
  0
LINE
  8
_0-1_作画層１
  6
CONTINUOUS
 62
    7
 10
31.61999999999999
 20
181.86999999999998
 11
31.950000000000003
 21
182.19999999999996
  0
LINE
  8
_0-1_作画層１
  6
CONTINUOUS
 62
    7
 10
31.950000000000003
 20
182.19999999999996
 11
32.280000000000001
 21
181.86999999999998
  0
LINE
  8
_0-1_作画層１
  6
CONTINUOUS
 62
    7
 10
32.280000000000044
 20
181.87000000000003
 11
31.950000000000031
 21
182.19999999999999
  0
LINE
  8
_0-1_作画層１
  6
CONTINUOUS
 62
    7
 10
19.949999999999989
 20
182.19999999999996
 11
20.280000000000001
 21
181.86999999999998
  0
LINE
  8
_0-1_作画層１
  6
CONTINUOUS
 62
    7
 10
20.28000000000003
 20
181.87000000000003
 11
23.580000000000041
 21
181.87000000000003
  0
LINE
  8
_0-1_作画層１
  6
CONTINUOUS
 62
    7
 10
20.28000000000003
 20
181.87000000000003
 11
19.950000000000045
 21
182.19999999999999
  0
LINE
  8
_0-1_作画層１
  6
CONTINUOUS
 62
    7
 10
19.950000000000045
 20
182.19999999999999
 11
20.28000000000003
 21
182.53000000000003
  0
LINE
  8
_0-1_作画層１
  6
CONTINUOUS
 62
    7
 10
20.28000000000003
 20
182.53000000000003
 11
23.580000000000041
 21
182.53000000000003
  0
LINE
  8
_0-1_作画層１
  6
CONTINUOUS
 62
    7
 10
23.580000000000041
 20
181.87000000000003
 11
23.910000000000053
 21
182.19999999999999
  0
LINE
  8
_0-1_作画層１
  6
CONTINUOUS
 62
    7
 10
23.580000000000041
 20
182.53000000000003
 11
23.910000000000053
 21
182.19999999999999
  0
LINE
  8
_0-1_作画層１
  6
CONTINUOUS
 62
    7
 10
23.88169047558317
 20
182.17169047558318
 11
23.523380951166331
 21
182.53000000000003
  0
LINE
  8
_0-1_作画層１
  6
CONTINUOUS
 62
    7
 10
23.788352380466591
 20
182.07835238046655
 11
23.336704760933102
 21
182.53000000000003
  0
LINE
  8
_0-1_作画層１
  6
CONTINUOUS
 62
    7
 10
23.695014285349956
 20
181.98501428534991
 11
23.150028570699888
 21
182.53000000000003
  0
LINE
  8
_0-1_作画層１
  6
CONTINUOUS
 62
    7
 10
23.601676190233349
 20
181.89167619023328
 11
22.963352380466603
 21
182.53000000000003
  0
LINE
  8
_0-1_作画層１
  6
CONTINUOUS
 62
    7
 10
23.436676190233356
 20
181.87000000000003
 11
22.776676190233374
 21
182.53000000000003
  0
LINE
  8
_0-1_作画層１
  6
CONTINUOUS
 62
    7
 10
23.250000000000142
 20
181.87000000000003
 11
22.59000000000016
 21
182.53000000000003
  0
LINE
  8
_0-1_作画層１
  6
CONTINUOUS
 62
    7
 10
23.063323809766885
 20
181.87000000000003
 11
22.403323809766903
 21
182.53000000000003
  0
LINE
  8
_0-1_作画層１
  6
CONTINUOUS
 62
    7
 10
22.876647619533657
 20
181.87000000000003
 11
22.216647619533688
 21
182.53000000000003
  0
LINE
  8
_0-1_作画層１
  6
CONTINUOUS
 62
    7
 10
22.689971429300442
 20
181.87000000000003
 11
22.02997142930046
 21
182.53000000000003
  0
LINE
  8
_0-1_作画層１
  6
CONTINUOUS
 62
    7
 10
22.503295239067228
 20
181.87000000000003
 11
21.843295239067245
 21
182.53000000000003
  0
LINE
  8
_0-1_作画層１
  6
CONTINUOUS
 62
    7
 10
22.316619048833971
 20
181.87000000000003
 11
21.65661904883396
 21
182.53000000000003
  0
LINE
  8
_0-1_作画層１
  6
CONTINUOUS
 62
    7
 10
22.129942858600714
 20
181.87000000000003
 11
21.469942858600703
 21
182.53000000000003
  0
LINE
  8
_0-1_作画層１
  6
CONTINUOUS
 62
    7
 10
21.943266668367457
 20
181.87000000000003
 11
21.283266668367446
 21
182.53000000000003
  0
LINE
  8
_0-1_作画層１
  6
CONTINUOUS
 62
    7
 10
21.756590478134243
 20
181.87000000000003
 11
21.096590478134232
 21
182.53000000000003
  0
LINE
  8
_0-1_作画層１
  6
CONTINUOUS
 62
    7
 10
21.569914287900986
 20
181.87000000000003
 11
20.909914287900975
 21
182.53000000000003
  0
LINE
  8
_0-1_作画層１
  6
CONTINUOUS
 62
    7
 10
21.383238097667729
 20
181.87000000000003
 11
20.723238097667718
 21
182.53000000000003
  0
LINE
  8
_0-1_作画層１
  6
CONTINUOUS
 62
    7
 10
21.196561907434543
 20
181.87000000000003
 11
20.536561907434532
 21
182.53000000000003
  0
LINE
  8
_0-1_作画層１
  6
CONTINUOUS
 62
    7
 10
21.009885717201286
 20
181.87000000000003
 11
20.349885717201289
 21
182.53000000000003
  0
LINE
  8
_0-1_作画層１
  6
CONTINUOUS
 62
    7
 10
20.823209526968043
 20
181.87000000000003
 11
20.221604763484009
 21
182.47160476348398
  0
LINE
  8
_0-1_作画層１
  6
CONTINUOUS
 62
    7
 10
20.636533336734814
 20
181.87000000000003
 11
20.128266668367417
 21
182.37826666836742
  0
LINE
  8
_0-1_作画層１
  6
CONTINUOUS
 62
    7
 10
20.449857146501529
 20
181.87000000000003
 11
20.034928573250795
 21
182.28492857325074
  0
CIRCLE
  8
_0-1_作画層１
  6
CONTINUOUS
 62
    7
 10
15.629999999999967
 20
184.10499999999996
 40
0.675
  0
CIRCLE
  8
_0-1_作画層１
  6
CONTINUOUS
 62
    7
 10
15.629999999999967
 20
180.05499999999998
 40
0.675
  0
LINE
  8
_0-1_作画層１
  6
CONTINUOUS
 62
    7
 10
16.277999999999992
 20
183.91600000000003
 11
16.277999999999992
 21
184.29399999999987
  0
LINE
  8
_0-1_作画層１
  6
CONTINUOUS
 62
    7
 10
16.170000000000016
 20
183.69999999999999
 11
16.170000000000016
 21
184.50999999999993
  0
LINE
  8
_0-1_作画層１
  6
CONTINUOUS
 62
    7
 10
16.062000000000012
 20
183.58634693676794
 11
16.062000000000012
 21
184.62365306323198
  0
LINE
  8
_0-1_作画層１
  6
CONTINUOUS
 62
    7
 10
15.954000000000008
 20
183.51284377061452
 11
15.954000000000008
 21
184.69715622938537
  0
LINE
  8
_0-1_作画層１
  6
CONTINUOUS
 62
    7
 10
15.84600000000006
 20
183.46549315875436
 11
15.84600000000006
 21
184.7445068412456
  0
LINE
  8
_0-1_作画層１
  6
CONTINUOUS
 62
    7
 10
15.738000000000056
 20
183.43869601532032
 11
15.738000000000056
 21
184.77130398467961
  0
LINE
  8
_0-1_作画層１
  6
CONTINUOUS
 62
    7
 10
15.630000000000052
 20
183.42999999999998
 11
15.630000000000052
 21
184.77999999999997
  0
LINE
  8
_0-1_作画層１
  6
CONTINUOUS
 62
    7
 10
15.522000000000077
 20
183.43869601532029
 11
15.522000000000077
 21
184.77130398467966
  0
LINE
  8
_0-1_作画層１
  6
CONTINUOUS
 62
    7
 10
15.414000000000073
 20
183.46549315875427
 11
15.414000000000073
 21
184.74450684124568
  0
LINE
  8
_0-1_作画層１
  6
CONTINUOUS
 62
    7
 10
15.306000000000068
 20
183.51284377061447
 11
15.306000000000068
 21
184.69715622938548
  0
LINE
  8
_0-1_作画層１
  6
CONTINUOUS
 62
    7
 10
15.198000000000093
 20
183.58634693676785
 11
15.198000000000093
 21
184.6236530632321
  0
LINE
  8
_0-1_作画層１
  6
CONTINUOUS
 62
    7
 10
15.090000000000089
 20
183.69999999999987
 11
15.090000000000089
 21
184.51000000000008
  0
LINE
  8
_0-1_作画層１
  6
CONTINUOUS
 62
    7
 10
14.982000000000085
 20
183.91599999999963
 11
14.982000000000085
 21
184.29400000000032
  0
LINE
  8
_0-1_作画層１
  6
CONTINUOUS
 62
    7
 10
16.251000000000033
 20
179.79045510777945
 11
16.251000000000033
 21
180.31954489222045
  0
LINE
  8
_0-1_作画層１
  6
CONTINUOUS
 62
    7
 10
16.143000000000058
 20
179.61630192614967
 11
16.143000000000058
 21
180.49369807385028
  0
LINE
  8
_0-1_作画層１
  6
CONTINUOUS
 62
    7
 10
16.035000000000025
 20
179.51499999999996
 11
16.035000000000025
 21
180.59499999999989
  0
LINE
  8
_0-1_作画層１
  6
CONTINUOUS
 62
    7
 10
15.927000000000049
 20
179.44885150334267
 11
15.927000000000049
 21
180.66114849665729
  0
LINE
  8
_0-1_作画層１
  6
CONTINUOUS
 62
    7
 10
15.819000000000074
 20
179.40699999999998
 11
15.819000000000074
 21
180.70299999999997
  0
LINE
  8
_0-1_作画層１
  6
CONTINUOUS
 62
    7
 10
15.711000000000041
 20
179.38487762311647
 11
15.711000000000041
 21
180.72512237688343
  0
LINE
  8
_0-1_作画層１
  6
CONTINUOUS
 62
    7
 10
15.603000000000065
 20
179.38054021617296
 11
15.603000000000065
 21
180.72945978382694
  0
LINE
  8
_0-1_作画層１
  6
CONTINUOUS
 62
    7
 10
15.495000000000061
 20
179.39363776944847
 11
15.495000000000061
 21
180.71636223055143
  0
LINE
  8
_0-1_作画層１
  6
CONTINUOUS
 62
    7
 10
15.387000000000057
 20
179.42525719535661
 11
15.387000000000057
 21
180.68474280464335
  0
LINE
  8
_0-1_作画層１
  6
CONTINUOUS
 62
    7
 10
15.279000000000082
 20
179.47843777439022
 11
15.279000000000082
 21
180.63156222560974
  0
LINE
  8
_0-1_作画層１
  6
CONTINUOUS
 62
    7
 10
15.171000000000078
 20
179.56008182494466
 11
15.171000000000078
 21
180.54991817505524
  0
LINE
  8
_0-1_作画層１
  6
CONTINUOUS
 62
    7
 10
15.063000000000073
 20
179.68875418091102
 11
15.063000000000073
 21
180.42124581908888
  0
LINE
  8
_0-0_
  6
CONTINUOUS
 62
    7
 10
-7.7990921623008944
 20
176.38011183220794
 11
-7.7990921623008944
 21
177.5372124239239
  0
LINE
  8
_0-0_
  6
CONTINUOUS
 62
    7
 10
-5.2605224560142574
 20
179.450105296478
 11
-2.5985402074935564
 21
179.450105296478
  0
TEXT
  8
_0-7_注記層１
 62
    7
 10
-13.75
 20
139.79999999999998
 40
2.5
 41
1
 50
0
  1
AUTO
  0
LINE
  8
_0-1_作画層１
  6
CONTINUOUS
 62
    7
 10
-4.25
 20
141.75285016286645
 11
-7.75
 21
141.75285016286645
  0
LINE
  8
_0-1_作画層１
  6
CONTINUOUS
 62
    7
 10
-7.6680051457519198
 20
138.75128951136088
 11
-7.7496622974779257
 21
138.83294666308686
  0
LINE
  8
_0-1_作画層１
  6
CONTINUOUS
 62
    7
 10
-7.5265837895146319
 20
138.75128951136088
 11
-7.7496622974779257
 21
138.97436801932417
  0
LINE
  8
_0-1_作画層１
  6
CONTINUOUS
 62
    7
 10
-7.385162433277344
 20
138.75128951136088
 11
-7.7496622974779257
 21
139.11578937556146
  0
LINE
  8
_0-1_作画層１
  6
CONTINUOUS
 62
    7
 10
-7.2437410770400277
 20
138.75128951136088
 11
-7.7496622974779257
 21
139.25721073179878
  0
LINE
  8
_0-1_作画層１
  6
CONTINUOUS
 62
    7
 10
-7.1023197208027113
 20
138.75128951136088
 11
-7.7496622974779257
 21
139.39863208803609
  0
LINE
  8
_0-1_作画層１
  6
CONTINUOUS
 62
    7
 10
-6.9608983645654234
 20
138.75128951136088
 11
-7.7496622974779257
 21
139.54005344427338
  0
LINE
  8
_0-1_作画層１
  6
CONTINUOUS
 62
    7
 10
-6.8194770083281355
 20
138.75128951136088
 11
-7.7496622974779257
 21
139.68147480051067
  0
LINE
  8
_0-1_作画層１
  6
CONTINUOUS
 62
    7
 10
-6.6780556520908192
 20
138.75128951136088
 11
-7.7496622974779257
 21
139.82289615674799
  0
LINE
  8
_0-1_作画層１
  6
CONTINUOUS
 62
    7
 10
-6.5366342958535029
 20
138.75128951136088
 11
-7.7496622974779257
 21
139.9643175129853
  0
LINE
  8
_0-1_作画層１
  6
CONTINUOUS
 62
    7
 10
-6.395212939616215
 20
138.75128951136088
 11
-7.7496622974779257
 21
140.10573886922259
  0
LINE
  8
_0-1_作画層１
  6
CONTINUOUS
 62
    7
 10
-6.253791583378927
 20
138.75128951136088
 11
-7.7496622974779257
 21
140.24716022545988
  0
LINE
  8
_0-1_作画層１
  6
CONTINUOUS
 62
    7
 10
-6.1123702271416391
 20
138.75128951136088
 11
-7.7496622974779257
 21
140.38858158169717
  0
LINE
  8
_0-1_作画層１
  6
CONTINUOUS
 62
    7
 10
-5.9709488709042944
 20
138.75128951136088
 11
-7.7496622974779257
 21
140.53000293793451
  0
LINE
  8
_0-1_作画層１
  6
CONTINUOUS
 62
    7
 10
-5.8295275146670065
 20
138.75128951136088
 11
-7.7496622974779257
 21
140.6714242941718
  0
LINE
  8
_0-1_作画層１
  6
CONTINUOUS
 62
    7
 10
-5.6881061584297186
 20
138.75128951136088
 11
-7.7496622974779257
 21
140.81284565040909
  0
LINE
  8
_0-1_作画層１
  6
CONTINUOUS
 62
    7
 10
-5.5466848021924022
 20
138.75128951136088
 11
-7.7496622974779257
 21
140.9542670066464
  0
LINE
  8
_0-1_作画層１
  6
CONTINUOUS
 62
    7
 10
-5.4052634459550859
 20
138.75128951136088
 11
-7.7496622974779257
 21
141.09568836288372
  0
LINE
  8
_0-1_作画層１
  6
CONTINUOUS
 62
    7
 10
-5.263842089717798
 20
138.75128951136088
 11
-7.7496622974779257
 21
141.23710971912101
  0
LINE
  8
_0-1_作画層１
  6
CONTINUOUS
 62
    7
 10
-5.1224207334805101
 20
138.75128951136088
 11
-7.7496622974779257
 21
141.3785310753583
  0
LINE
  8
_0-1_作画層１
  6
CONTINUOUS
 62
    7
 10
-4.9809993772431937
 20
138.75128951136088
 11
-7.7496622974779257
 21
141.51995243159561
  0
LINE
  8
_0-1_作画層１
  6
CONTINUOUS
 62
    7
 10
-4.8395780210058774
 20
138.75128951136088
 11
-7.7496622974779257
 21
141.66137378783293
  0
LINE
  8
_0-1_作画層１
  6
CONTINUOUS
 62
    7
 10
-4.6981566647685895
 20
138.75128951136088
 11
-7.6970383670943079
 21
141.7501712136866
  0
LINE
  8
_0-1_作画層１
  6
CONTINUOUS
 62
    7
 10
-4.5567353085313016
 20
138.75128951136088
 11
-7.55561701085702
 21
141.7501712136866
  0
LINE
  8
_0-1_作画層１
  6
CONTINUOUS
 62
    7
 10
-4.4153139522939568
 20
138.75128951136088
 11
-7.4141956546197036
 21
141.7501712136866
  0
LINE
  8
_0-1_作画層１
  6
CONTINUOUS
 62
    7
 10
-4.2738925960566689
 20
138.75128951136088
 11
-7.2727742983823873
 21
141.7501712136866
  0
LINE
  8
_0-1_作画層１
  6
CONTINUOUS
 62
    7
 10
-4.2509669780978925
 20
138.86978524963939
 11
-7.1313529421450994
 21
141.7501712136866
  0
LINE
  8
_0-1_作画層１
  6
CONTINUOUS
 62
    7
 10
-4.2509669780978925
 20
139.01120660587668
 11
-6.9899315859078115
 21
141.7501712136866
  0
LINE
  8
_0-1_作画層１
  6
CONTINUOUS
 62
    7
 10
-4.2509669780978925
 20
139.152627962114
 11
-6.8485102296704952
 21
141.7501712136866
  0
LINE
  8
_0-1_作画層１
  6
CONTINUOUS
 62
    7
 10
-4.2509669780978925
 20
139.29404931835131
 11
-6.7070888734331788
 21
141.7501712136866
  0
LINE
  8
_0-1_作画層１
  6
CONTINUOUS
 62
    7
 10
-4.2509669780978925
 20
139.4354706745886
 11
-6.5656675171958909
 21
141.7501712136866
  0
LINE
  8
_0-1_作画層１
  6
CONTINUOUS
 62
    7
 10
-4.2509669780978925
 20
139.57689203082592
 11
-6.424246160958603
 21
141.7501712136866
  0
LINE
  8
_0-1_作画層１
  6
CONTINUOUS
 62
    7
 10
-4.2509669780978925
 20
139.71831338706323
 11
-6.2828248047212583
 21
141.7501712136866
  0
LINE
  8
_0-1_作画層１
  6
CONTINUOUS
 62
    7
 10
-4.2509669780978925
 20
139.85973474330052
 11
-6.1414034484839704
 21
141.7501712136866
  0
LINE
  8
_0-1_作画層１
  6
CONTINUOUS
 62
    7
 10
-4.2509669780978925
 20
140.00115609953781
 11
-5.9999820922466824
 21
141.7501712136866
  0
LINE
  8
_0-1_作画層１
  6
CONTINUOUS
 62
    7
 10
-4.2509669780978925
 20
140.14257745577513
 11
-5.8585607360093945
 21
141.7501712136866
  0
LINE
  8
_0-1_作画層１
  6
CONTINUOUS
 62
    7
 10
-4.2509669780978925
 20
140.28399881201244
 11
-5.7171393797720498
 21
141.7501712136866
  0
LINE
  8
_0-1_作画層１
  6
CONTINUOUS
 62
    7
 10
-4.2509669780978925
 20
140.42542016824973
 11
-5.5757180235347619
 21
141.7501712136866
  0
LINE
  8
_0-1_作画層１
  6
CONTINUOUS
 62
    7
 10
-4.2509669780978925
 20
140.56684152448702
 11
-5.434296667297474
 21
141.7501712136866
  0
LINE
  8
_0-1_作画層１
  6
CONTINUOUS
 62
    7
 10
-4.2509669780978925
 20
140.70826288072433
 11
-5.292875311060186
 21
141.7501712136866
  0
LINE
  8
_0-1_作画層１
  6
CONTINUOUS
 62
    7
 10
-4.2509669780978925
 20
140.84968423696165
 11
-5.1514539548228413
 21
141.7501712136866
  0
LINE
  8
_0-1_作画層１
  6
CONTINUOUS
 62
    7
 10
-4.2509669780978925
 20
140.99110559319894
 11
-5.0100325985855534
 21
141.7501712136866
  0
LINE
  8
_0-1_作画層１
  6
CONTINUOUS
 62
    7
 10
-4.2509669780978925
 20
141.13252694943623
 11
-4.8686112423482655
 21
141.7501712136866
  0
LINE
  8
_0-1_作画層１
  6
CONTINUOUS
 62
    7
 10
-4.2509669780978925
 20
141.27394830567354
 11
-4.7271898861109776
 21
141.7501712136866
  0
LINE
  8
_0-1_作画層１
  6
CONTINUOUS
 62
    7
 10
-4.2509669780978925
 20
141.41536966191086
 11
-4.5857685298736328
 21
141.7501712136866
  0
LINE
  8
_0-1_作画層１
  6
CONTINUOUS
 62
    7
 10
-4.2509669780978925
 20
141.55679101814815
 11
-4.4443471736363449
 21
141.7501712136866
  0
LINE
  8
_0-1_作画層１
  6
CONTINUOUS
 62
    7
 10
-4.2509669780978925
 20
141.69821237438543
 11
-4.302925817399057
 21
141.7501712136866
  0
LINE
  8
_0-1_作画層１
  6
CONTINUOUS
 62
    7
 10
35.750966978097921
 20
139.89821237438542
 11
35.802925817399057
 21
139.95017121368659
  0
LINE
  8
_0-1_作画層１
  6
CONTINUOUS
 62
    7
 10
35.750966978097921
 20
139.75679101814814
 11
35.944347173636359
 21
139.95017121368659
  0
LINE
  8
_0-1_作画層１
  6
CONTINUOUS
 62
    7
 10
35.750966978097921
 20
139.61536966191085
 11
36.085768529873661
 21
139.95017121368659
  0
LINE
  8
_0-1_作画層１
  6
CONTINUOUS
 62
    7
 10
35.750966978097921
 20
139.47394830567356
 11
36.227189886110978
 21
139.95017121368659
  0
LINE
  8
_0-1_作画層１
  6
CONTINUOUS
 62
    7
 10
35.750966978097921
 20
139.33252694943621
 11
36.36861124234828
 21
139.95017121368659
  0
LINE
  8
_0-1_作画層１
  6
CONTINUOUS
 62
    7
 10
35.750966978097921
 20
139.19110559319893
 11
36.510032598585568
 21
139.95017121368659
  0
LINE
  8
_0-1_作画層１
  6
CONTINUOUS
 62
    7
 10
35.750966978097921
 20
139.04968423696164
 11
36.65145395482287
 21
139.95017121368659
  0
LINE
  8
_0-1_作画層１
  6
CONTINUOUS
 62
    7
 10
35.750966978097921
 20
138.90826288072435
 11
36.792875311060186
 21
139.95017121368659
  0
LINE
  8
_0-1_作画層１
  6
CONTINUOUS
 62
    7
 10
35.750966978097921
 20
138.76684152448701
 11
36.934296667297474
 21
139.95017121368659
  0
LINE
  8
_0-1_作画層１
  6
CONTINUOUS
 62
    7
 10
35.750966978097921
 20
138.62542016824972
 11
37.07571802353479
 21
139.95017121368659
  0
LINE
  8
_0-1_作画層１
  6
CONTINUOUS
 62
    7
 10
35.750966978097921
 20
138.48399881201243
 11
37.217139379772078
 21
139.95017121368659
  0
LINE
  8
_0-1_作画層１
  6
CONTINUOUS
 62
    7
 10
35.750966978097921
 20
138.34257745577514
 11
37.358560736009395
 21
139.95017121368659
  0
LINE
  8
_0-1_作画層１
  6
CONTINUOUS
 62
    7
 10
35.750966978097921
 20
138.2011560995378
 11
37.499982092246682
 21
139.95017121368659
  0
LINE
  8
_0-1_作画層１
  6
CONTINUOUS
 62
    7
 10
35.750966978097921
 20
138.05973474330051
 11
37.641403448483999
 21
139.95017121368659
  0
LINE
  8
_0-1_作画層１
  6
CONTINUOUS
 62
    7
 10
35.750966978097921
 20
137.91831338706322
 11
37.782824804721287
 21
139.95017121368659
  0
LINE
  8
_0-1_作画層１
  6
CONTINUOUS
 62
    7
 10
35.750966978097921
 20
137.77689203082593
 11
37.924246160958603
 21
139.95017121368659
  0
LINE
  8
_0-1_作画層１
  6
CONTINUOUS
 62
    7
 10
35.750966978097921
 20
137.63547067458859
 11
38.065667517195905
 21
139.95017121368659
  0
LINE
  8
_0-1_作画層１
  6
CONTINUOUS
 62
    7
 10
35.750966978097921
 20
137.4940493183513
 11
38.207088873433207
 21
139.95017121368659
  0
LINE
  8
_0-1_作画層１
  6
CONTINUOUS
 62
    7
 10
35.750966978097921
 20
137.35262796211401
 11
38.348510229670509
 21
139.95017121368659
  0
LINE
  8
_0-1_作画層１
  6
CONTINUOUS
 62
    7
 10
35.750966978097921
 20
137.21120660587667
 11
38.489931585907811
 21
139.95017121368659
  0
LINE
  8
_0-1_作画層１
  6
CONTINUOUS
 62
    7
 10
35.750966978097921
 20
137.06978524963938
 11
38.631352942145114
 21
139.95017121368659
  0
LINE
  8
_0-1_作画層１
  6
CONTINUOUS
 62
    7
 10
35.773892596056697
 20
136.95128951136087
 11
38.772774298382416
 21
139.95017121368659
  0
LINE
  8
_0-1_作画層１
  6
CONTINUOUS
 62
    7
 10
35.915313952293985
 20
136.95128951136087
 11
38.914195654619718
 21
139.95017121368659
  0
LINE
  8
_0-1_作画層１
  6
CONTINUOUS
 62
    7
 10
36.056735308531302
 20
136.95128951136087
 11
39.05561701085702
 21
139.95017121368659
  0
LINE
  8
_0-1_作画層１
  6
CONTINUOUS
 62
    7
 10
36.198156664768604
 20
136.95128951136087
 11
39.197038367094322
 21
139.95017121368659
  0
LINE
  8
_0-1_作画層１
  6
CONTINUOUS
 62
    7
 10
36.339578021005906
 20
136.95128951136087
 11
39.24966229747794
 21
139.86137378783292
  0
LINE
  8
_0-1_作画層１
  6
CONTINUOUS
 62
    7
 10
36.480999377243208
 20
136.95128951136087
 11
39.24966229747794
 21
139.71995243159563
  0
LINE
  8
_0-1_作画層１
  6
CONTINUOUS
 62
    7
 10
36.62242073348051
 20
136.95128951136087
 11
39.24966229747794
 21
139.57853107535828
  0
LINE
  8
_0-1_作画層１
  6
CONTINUOUS
 62
    7
 10
36.763842089717798
 20
136.95128951136087
 11
39.24966229747794
 21
139.437109719121
  0
LINE
  8
_0-1_作画層１
  6
CONTINUOUS
 62
    7
 10
36.905263445955114
 20
136.95128951136087
 11
39.24966229747794
 21
139.29568836288371
  0
LINE
  8
_0-1_作画層１
  6
CONTINUOUS
 62
    7
 10
37.046684802192416
 20
136.95128951136087
 11
39.24966229747794
 21
139.15426700664642
  0
LINE
  8
_0-1_作画層１
  6
CONTINUOUS
 62
    7
 10
37.188106158429719
 20
136.95128951136087
 11
39.24966229747794
 21
139.01284565040908
  0
LINE
  8
_0-1_作画層１
  6
CONTINUOUS
 62
    7
 10
37.329527514667035
 20
136.95128951136087
 11
39.24966229747794
 21
138.87142429417179
  0
LINE
  8
_0-1_作画層１
  6
CONTINUOUS
 62
    7
 10
37.470948870904323
 20
136.95128951136087
 11
39.24966229747794
 21
138.7300029379345
  0
LINE
  8
_0-1_作画層１
  6
CONTINUOUS
 62
    7
 10
37.612370227141639
 20
136.95128951136087
 11
39.24966229747794
 21
138.58858158169716
  0
LINE
  8
_0-1_作画層１
  6
CONTINUOUS
 62
    7
 10
37.753791583378927
 20
136.95128951136087
 11
39.24966229747794
 21
138.44716022545987
  0
LINE
  8
_0-1_作画層１
  6
CONTINUOUS
 62
    7
 10
37.895212939616229
 20
136.95128951136087
 11
39.24966229747794
 21
138.30573886922258
  0
LINE
  8
_0-1_作画層１
  6
CONTINUOUS
 62
    7
 10
38.036634295853531
 20
136.95128951136087
 11
39.24966229747794
 21
138.16431751298529
  0
LINE
  8
_0-1_作画層１
  6
CONTINUOUS
 62
    7
 10
38.178055652090833
 20
136.95128951136087
 11
39.24966229747794
 21
138.022896156748
  0
LINE
  8
_0-1_作画層１
  6
CONTINUOUS
 62
    7
 10
38.319477008328136
 20
136.95128951136087
 11
39.24966229747794
 21
137.88147480051066
  0
LINE
  8
_0-1_作画層１
  6
CONTINUOUS
 62
    7
 10
38.460898364565423
 20
136.95128951136087
 11
39.24966229747794
 21
137.74005344427337
  0
LINE
  8
_0-1_作画層１
  6
CONTINUOUS
 62
    7
 10
38.60231972080274
 20
136.95128951136087
 11
39.24966229747794
 21
137.59863208803608
  0
LINE
  8
_0-1_作画層１
  6
CONTINUOUS
 62
    7
 10
38.743741077040042
 20
136.95128951136087
 11
39.24966229747794
 21
137.4572107317988
  0
LINE
  8
_0-1_作画層１
  6
CONTINUOUS
 62
    7
 10
38.885162433277344
 20
136.95128951136087
 11
39.24966229747794
 21
137.31578937556145
  0
LINE
  8
_0-1_作画層１
  6
CONTINUOUS
 62
    7
 10
39.02658378951466
 20
136.95128951136087
 11
39.24966229747794
 21
137.17436801932416
  0
LINE
  8
_0-1_作画層１
  6
CONTINUOUS
 62
    7
 10
39.168005145751948
 20
136.95128951136087
 11
39.24966229747794
 21
137.03294666308688
  0
LINE
  8
_0-1_作画層１
  6
CONTINUOUS
 62
    7
 10
35.750000000000028
 20
139.95285016286647
 11
39.250000000000028
 21
139.95285016286647
  0
TEXT
  8
_0-7_注記層１
 62
    7
 10
40.75
 20
137.25
 40
2.5
 41
1
 50
0
  1
TIME
  0
TEXT
  8
_0-7_注記層１
 62
    7
 10
40.75
 20
134.25
 40
2.5
 41
1
 50
0
  1
2CH
  0
TEXT
  8
_0-0_
 62
    7
 10
-11.843468629873882
 20
178.08677979020081
 40
2.6000000000000001
 41
1
 50
0
  1
OUT 1
  0
TEXT
  8
_0-7_注記層１
 62
    7
 10
37.049999999999997
 20
178
 40
2.6000000000000001
 41
1
 50
0
  1
OUT 2
  0
TEXT
  8
_0-7_注記層１
 62
    7
 10
302.25
 20
-26.25
 40
5
 41
1
 50
0
  1
SSC-722P-001-01
  0
TEXT
  8
_0-7_注記層１
 62
    7
 10
257
 20
-15.5
 40
3.5
 41
1
 50
0
  1
イシヅ
  0
TEXT
  8
_0-7_注記層１
 62
    7
 10
1.5
 20
152.5
 40
2.5
 41
1
 50
0
  1
SSC-722P
  0
LINE
  8
_0-1_作画層１
  6
CENTER
 62
    7
 10
241.75
 20
162.25
 11
159.75
 21
162.25
  0
LINE
  8
_0-1_作画層１
  6
CENTER
 62
    7
 10
200.75
 20
121.25
 11
200.75
 21
203.25
  0
ARC
  8
_0-1_作画層１
  6
CONTINUOUS
 62
    7
 10
168.45000000000002
 20
129.95000000000002
 40
1.2000000000000171
 50
180.00000000000134
 51
270
  0
ARC
  8
_0-1_作画層１
  6
CONTINUOUS
 62
    7
 10
233.05000000000007
 20
194.55000000000007
 40
1.1999999999999318
 50
359.99999999999733
 51
90.000000000002601
  0
LINE
  8
_0-1_作画層１
  6
CONTINUOUS
 62
    7
 10
168.45000000000002
 20
128.75
 11
233.05000000000001
 21
128.75
  0
LINE
  8
_0-1_作画層１
  6
CONTINUOUS
 62
    7
 10
234.25
 20
194.55000000000001
 11
234.25
 21
129.94999999999999
  0
ARC
  8
_0-1_作画層１
  6
CONTINUOUS
 62
    7
 10
233.05000000000001
 20
129.95000000000002
 40
1.2000000000000171
 50
270
 51
359.99999999999864
  0
LINE
  8
_0-1_作画層１
  6
CONTINUOUS
 62
    7
 10
167.25
 20
129.94999999999999
 11
167.25
 21
194.55000000000001
  0
LINE
  8
_0-1_作画層１
  6
CONTINUOUS
 62
    7
 10
233.05000000000001
 20
195.75
 11
168.45000000000002
 21
195.75
  0
ARC
  8
_0-1_作画層１
  6
CONTINUOUS
 62
    7
 10
168.45000000000002
 20
194.54999999999998
 40
1.2000000000000171
 50
90
 51
179.99999999999866
  0
CIRCLE
  8
_0-1_作画層１
  6
CONTINUOUS
 62
    7
 10
226.75
 20
147.8125
 40
3.5
  0
LINE
  8
_0-1_作画層１
  6
CONTINUOUS
 62
    7
 10
223.6875
 20
146.9375
 11
223.6875
 21
148.6875
  0
LINE
  8
_0-1_作画層１
  6
CONTINUOUS
 62
    7
 10
229.8125
 20
148.6875
 11
229.8125
 21
146.9375
  0
LINE
  8
_0-1_作画層１
  6
CONTINUOUS
 62
    7
 10
225.875
 20
150.875
 11
227.625
 21
150.875
  0
LINE
  8
_0-1_作画層１
  6
CONTINUOUS
 62
    7
 10
227.625
 20
144.75
 11
225.875
 21
144.75
  0
ARC
  8
_0-1_作画層１
  6
CONTINUOUS
 62
    7
 10
225.17499999999995
 20
146.23749999999995
 40
0.7000000000000311
 50
0.0000000000034895
 51
89.999999999995325
  0
LINE
  8
_0-1_作画層１
  6
CONTINUOUS
 62
    7
 10
227.625
 20
144.75
 11
227.625
 21
146.23750000000001
  0
ARC
  8
_0-1_作画層１
  6
CONTINUOUS
 62
    7
 10
228.32500000000005
 20
146.23749999999995
 40
0.7000000000000452
 50
90
 51
179.99999999999653
  0
LINE
  8
_0-1_作画層１
  6
CONTINUOUS
 62
    7
 10
225.875
 20
150.875
 11
225.875
 21
149.38749999999999
  0
ARC
  8
_0-1_作画層１
  6
CONTINUOUS
 62
    7
 10
225.17499999999995
 20
149.38750000000005
 40
0.7000000000000452
 50
270.00000000000455
 51
359.99999999999648
  0
LINE
  8
_0-1_作画層１
  6
CONTINUOUS
 62
    7
 10
225.875
 20
146.23750008900964
 11
225.875
 21
144.75
  0
LINE
  8
_0-1_作画層１
  6
CONTINUOUS
 62
    7
 10
227.625
 20
150.875
 11
227.625
 21
149.38749999999999
  0
LINE
  8
_0-1_作画層１
  6
CONTINUOUS
 62
    7
 10
229.8125
 20
148.6875
 11
228.32500000000005
 21
148.6875
  0
ARC
  8
_0-1_作画層１
  6
CONTINUOUS
 62
    7
 10
228.32500000000005
 20
149.38750000000005
 40
0.7000000000000452
 50
180.0000000000035
 51
270
  0
LINE
  8
_0-1_作画層１
  6
CONTINUOUS
 62
    7
 10
225.17500000000001
 20
146.9375
 11
223.6875
 21
146.9375
  0
LINE
  8
_0-1_作画層１
  6
CONTINUOUS
 62
    7
 10
228.32499999999999
 20
146.9375
 11
229.8125
 21
146.9375
  0
LINE
  8
_0-1_作画層１
  6
CONTINUOUS
 62
    7
 10
225.17500000000001
 20
148.6875
 11
223.6875
 21
148.6875
  0
CIRCLE
  8
_0-1_作画層１
  6
CONTINUOUS
 62
    7
 10
226.75
 20
157.39999999999998
 40
3.5
  0
LINE
  8
_0-1_作画層１
  6
CONTINUOUS
 62
    7
 10
223.6875
 20
156.52499999999998
 11
223.6875
 21
158.27499999999998
  0
LINE
  8
_0-1_作画層１
  6
CONTINUOUS
 62
    7
 10
229.8125
 20
158.27499999999998
 11
229.8125
 21
156.52499999999998
  0
LINE
  8
_0-1_作画層１
  6
CONTINUOUS
 62
    7
 10
225.875
 20
160.46249999999998
 11
227.625
 21
160.46249999999998
  0
LINE
  8
_0-1_作画層１
  6
CONTINUOUS
 62
    7
 10
227.625
 20
154.33749999999998
 11
225.875
 21
154.33749999999998
  0
ARC
  8
_0-1_作画層１
  6
CONTINUOUS
 62
    7
 10
225.17499999999995
 20
155.82499999999993
 40
0.7000000000000311
 50
0.0000000000034895
 51
89.999999999995325
  0
LINE
  8
_0-1_作画層１
  6
CONTINUOUS
 62
    7
 10
227.625
 20
154.33749999999998
 11
227.625
 21
155.82499999999999
  0
ARC
  8
_0-1_作画層１
  6
CONTINUOUS
 62
    7
 10
228.32500000000005
 20
155.82499999999993
 40
0.7000000000000452
 50
90
 51
179.99999999999653
  0
LINE
  8
_0-1_作画層１
  6
CONTINUOUS
 62
    7
 10
225.875
 20
160.46249999999998
 11
225.875
 21
158.97499999999997
  0
ARC
  8
_0-1_作画層１
  6
CONTINUOUS
 62
    7
 10
225.17499999999995
 20
158.97500000000002
 40
0.7000000000000452
 50
270.00000000000455
 51
359.99999999999648
  0
LINE
  8
_0-1_作画層１
  6
CONTINUOUS
 62
    7
 10
225.875
 20
155.82500008900962
 11
225.875
 21
154.33749999999998
  0
LINE
  8
_0-1_作画層１
  6
CONTINUOUS
 62
    7
 10
227.625
 20
160.46249999999998
 11
227.625
 21
158.97499999999997
  0
LINE
  8
_0-1_作画層１
  6
CONTINUOUS
 62
    7
 10
229.8125
 20
158.27499999999998
 11
228.32500000000005
 21
158.27499999999998
  0
ARC
  8
_0-1_作画層１
  6
CONTINUOUS
 62
    7
 10
228.32500000000005
 20
158.97500000000002
 40
0.7000000000000452
 50
180.0000000000035
 51
270
  0
LINE
  8
_0-1_作画層１
  6
CONTINUOUS
 62
    7
 10
225.17500000000001
 20
156.52499999999998
 11
223.6875
 21
156.52499999999998
  0
LINE
  8
_0-1_作画層１
  6
CONTINUOUS
 62
    7
 10
228.32499999999999
 20
156.52499999999998
 11
229.8125
 21
156.52499999999998
  0
LINE
  8
_0-1_作画層１
  6
CONTINUOUS
 62
    7
 10
225.17500000000001
 20
158.27499999999998
 11
223.6875
 21
158.27499999999998
  0
CIRCLE
  8
_0-1_作画層１
  6
CONTINUOUS
 62
    7
 10
226.75
 20
166.98749999999995
 40
3.5
  0
LINE
  8
_0-1_作画層１
  6
CONTINUOUS
 62
    7
 10
223.6875
 20
166.11249999999995
 11
223.6875
 21
167.86249999999995
  0
LINE
  8
_0-1_作画層１
  6
CONTINUOUS
 62
    7
 10
229.8125
 20
167.86249999999995
 11
229.8125
 21
166.11249999999995
  0
LINE
  8
_0-1_作画層１
  6
CONTINUOUS
 62
    7
 10
225.875
 20
170.04999999999995
 11
227.625
 21
170.04999999999995
  0
LINE
  8
_0-1_作画層１
  6
CONTINUOUS
 62
    7
 10
227.625
 20
163.92499999999995
 11
225.875
 21
163.92499999999995
  0
ARC
  8
_0-1_作画層１
  6
CONTINUOUS
 62
    7
 10
225.17499999999995
 20
165.41249999999991
 40
0.7000000000000311
 50
0.0000000000034895
 51
89.999999999995325
  0
LINE
  8
_0-1_作画層１
  6
CONTINUOUS
 62
    7
 10
227.625
 20
163.92499999999995
 11
227.625
 21
165.41249999999997
  0
ARC
  8
_0-1_作画層１
  6
CONTINUOUS
 62
    7
 10
228.32500000000005
 20
165.41249999999991
 40
0.7000000000000452
 50
90
 51
179.99999999999653
  0
LINE
  8
_0-1_作画層１
  6
CONTINUOUS
 62
    7
 10
225.875
 20
170.04999999999995
 11
225.875
 21
168.56249999999994
  0
ARC
  8
_0-1_作画層１
  6
CONTINUOUS
 62
    7
 10
225.17499999999995
 20
168.56249999999997
 40
0.7000000000000452
 50
270.00000000000455
 51
359.99999999999807
  0
LINE
  8
_0-1_作画層１
  6
CONTINUOUS
 62
    7
 10
225.875
 20
165.4125000890096
 11
225.875
 21
163.92499999999995
  0
LINE
  8
_0-1_作画層１
  6
CONTINUOUS
 62
    7
 10
227.625
 20
170.04999999999995
 11
227.625
 21
168.56249999999994
  0
LINE
  8
_0-1_作画層１
  6
CONTINUOUS
 62
    7
 10
229.8125
 20
167.86249999999995
 11
228.32500000000005
 21
167.86249999999995
  0
ARC
  8
_0-1_作画層１
  6
CONTINUOUS
 62
    7
 10
228.32500000000005
 20
168.56249999999997
 40
0.7000000000000452
 50
180.0000000000023
 51
270
  0
LINE
  8
_0-1_作画層１
  6
CONTINUOUS
 62
    7
 10
225.17500000000001
 20
166.11249999999995
 11
223.6875
 21
166.11249999999995
  0
LINE
  8
_0-1_作画層１
  6
CONTINUOUS
 62
    7
 10
228.32499999999999
 20
166.11249999999995
 11
229.8125
 21
166.11249999999995
  0
LINE
  8
_0-1_作画層１
  6
CONTINUOUS
 62
    7
 10
225.17500000000001
 20
167.86249999999995
 11
223.6875
 21
167.86249999999995
  0
CIRCLE
  8
_0-1_作画層１
  6
CONTINUOUS
 62
    7
 10
226.75
 20
176.57499999999993
 40
3.5
  0
LINE
  8
_0-1_作画層１
  6
CONTINUOUS
 62
    7
 10
223.6875
 20
175.69999999999993
 11
223.6875
 21
177.44999999999993
  0
LINE
  8
_0-1_作画層１
  6
CONTINUOUS
 62
    7
 10
229.8125
 20
177.44999999999993
 11
229.8125
 21
175.69999999999993
  0
LINE
  8
_0-1_作画層１
  6
CONTINUOUS
 62
    7
 10
225.875
 20
179.63749999999993
 11
227.625
 21
179.63749999999993
  0
LINE
  8
_0-1_作画層１
  6
CONTINUOUS
 62
    7
 10
227.625
 20
173.51249999999993
 11
225.875
 21
173.51249999999993
  0
ARC
  8
_0-1_作画層１
  6
CONTINUOUS
 62
    7
 10
225.17499999999995
 20
174.99999999999991
 40
0.700000000000017
 50
0.0000000000023263
 51
89.999999999995353
  0
LINE
  8
_0-1_作画層１
  6
CONTINUOUS
 62
    7
 10
227.625
 20
173.51249999999993
 11
227.625
 21
174.99999999999994
  0
ARC
  8
_0-1_作画層１
  6
CONTINUOUS
 62
    7
 10
228.32500000000005
 20
174.99999999999991
 40
0.7000000000000452
 50
90
 51
179.9999999999977
  0
LINE
  8
_0-1_作画層１
  6
CONTINUOUS
 62
    7
 10
225.875
 20
179.63749999999993
 11
225.875
 21
178.14999999999992
  0
ARC
  8
_0-1_作画層１
  6
CONTINUOUS
 62
    7
 10
225.17499999999995
 20
178.14999999999995
 40
0.7000000000000452
 50
270.00000000000455
 51
359.99999999999807
  0
LINE
  8
_0-1_作画層１
  6
CONTINUOUS
 62
    7
 10
225.875
 20
175.00000008900957
 11
225.875
 21
173.51249999999993
  0
LINE
  8
_0-1_作画層１
  6
CONTINUOUS
 62
    7
 10
227.625
 20
179.63749999999993
 11
227.625
 21
178.14999999999992
  0
LINE
  8
_0-1_作画層１
  6
CONTINUOUS
 62
    7
 10
229.8125
 20
177.44999999999993
 11
228.32500000000005
 21
177.44999999999993
  0
ARC
  8
_0-1_作画層１
  6
CONTINUOUS
 62
    7
 10
228.32500000000005
 20
178.14999999999995
 40
0.7000000000000452
 50
180.0000000000023
 51
270
  0
LINE
  8
_0-1_作画層１
  6
CONTINUOUS
 62
    7
 10
225.17500000000001
 20
175.69999999999993
 11
223.6875
 21
175.69999999999993
  0
LINE
  8
_0-1_作画層１
  6
CONTINUOUS
 62
    7
 10
228.32499999999999
 20
175.69999999999993
 11
229.8125
 21
175.69999999999993
  0
LINE
  8
_0-1_作画層１
  6
CONTINUOUS
 62
    7
 10
225.17500000000001
 20
177.44999999999993
 11
223.6875
 21
177.44999999999993
  0
LINE
  8
_0-1_作画層１
  6
CONTINUOUS
 62
    7
 10
233
 20
151.52499999999998
 11
219.25
 21
151.52499999999998
  0
LINE
  8
_0-1_作画層１
  6
CONTINUOUS
 62
    7
 10
233
 20
153.27499999999998
 11
219.25
 21
153.27499999999998
  0
LINE
  8
_0-1_作画層１
  6
CONTINUOUS
 62
    7
 10
233
 20
161.34194173824159
 11
219.25
 21
161.34194173824159
  0
LINE
  8
_0-1_作画層１
  6
CONTINUOUS
 62
    7
 10
233
 20
171.52499999999998
 11
219.25
 21
171.52499999999998
  0
LINE
  8
_0-1_作画層１
  6
CONTINUOUS
 62
    7
 10
233
 20
173.27499999999998
 11
219.25
 21
173.27499999999998
  0
LINE
  8
_0-1_作画層１
  6
CONTINUOUS
 62
    7
 10
233
 20
163.34098300562505
 11
219.25
 21
163.34098300562505
  0
LINE
  8
_0-1_作画層１
  6
CONTINUOUS
 62
    7
 10
234.25
 20
182.25
 11
219.25
 21
182.25
  0
LINE
  8
_0-1_作画層１
  6
CONTINUOUS
 62
    7
 10
219.25
 20
142.25
 11
219.25
 21
182.25
  0
LINE
  8
_0-1_作画層１
  6
CONTINUOUS
 62
    7
 10
234.25
 20
142.25
 11
219.25
 21
142.25
  0
LINE
  8
_0-1_作画層１
  6
CONTINUOUS
 62
    7
 10
233
 20
142.25
 11
233
 21
182.25
  0
LINE
  8
_0-1_作画層１
  6
CONTINUOUS
 62
    7
 10
233
 20
143.90000000000001
 11
219.25
 21
143.90000000000001
  0
LINE
  8
_0-1_作画層１
  6
CONTINUOUS
 62
    7
 10
233
 20
180.89999999999998
 11
219.25
 21
180.89999999999998
  0
CIRCLE
  8
_0-1_作画層１
  6
CONTINUOUS
 62
    7
 10
174.75
 20
152.66250000000002
 40
3.5
  0
LINE
  8
_0-1_作画層１
  6
CONTINUOUS
 62
    7
 10
177.8125
 20
151.78750000000002
 11
177.8125
 21
153.53750000000002
  0
LINE
  8
_0-1_作画層１
  6
CONTINUOUS
 62
    7
 10
171.6875
 20
153.53750000000002
 11
171.6875
 21
151.78750000000002
  0
LINE
  8
_0-1_作画層１
  6
CONTINUOUS
 62
    7
 10
175.625
 20
155.72500000000002
 11
173.875
 21
155.72500000000002
  0
LINE
  8
_0-1_作画層１
  6
CONTINUOUS
 62
    7
 10
173.875
 20
149.60000000000002
 11
175.625
 21
149.60000000000002
  0
ARC
  8
_0-1_作画層１
  6
CONTINUOUS
 62
    7
 10
176.32500000000002
 20
151.08749999999998
 40
0.7000000000000311
 50
90.000000000002345
 51
179.99999999999653
  0
LINE
  8
_0-1_作画層１
  6
CONTINUOUS
 62
    7
 10
173.875
 20
149.60000000000002
 11
173.875
 21
151.08750000000003
  0
ARC
  8
_0-1_作画層１
  6
CONTINUOUS
 62
    7
 10
173.17499999999998
 20
151.08749999999998
 40
0.700000000000017
 50
0.0000000000034895
 51
90.000000000002302
  0
LINE
  8
_0-1_作画層１
  6
CONTINUOUS
 62
    7
 10
175.625
 20
155.72500000000002
 11
175.625
 21
154.23750000000001
  0
ARC
  8
_0-1_作画層１
  6
CONTINUOUS
 62
    7
 10
176.32500000000002
 20
154.23750000000007
 40
0.700000000000017
 50
180.0000000000035
 51
269.99999999999767
  0
LINE
  8
_0-1_作画層１
  6
CONTINUOUS
 62
    7
 10
175.625
 20
151.08750008900967
 11
175.625
 21
149.60000000000002
  0
LINE
  8
_0-1_作画層１
  6
CONTINUOUS
 62
    7
 10
173.875
 20
155.72500000000002
 11
173.875
 21
154.23750000000001
  0
LINE
  8
_0-1_作画層１
  6
CONTINUOUS
 62
    7
 10
171.6875
 20
153.53750000000002
 11
173.17499999999995
 21
153.53750000000002
  0
ARC
  8
_0-1_作画層１
  6
CONTINUOUS
 62
    7
 10
173.17499999999998
 20
154.23750000000007
 40
0.700000000000017
 50
269.99999999999767
 51
359.99999999999648
  0
LINE
  8
_0-1_作画層１
  6
CONTINUOUS
 62
    7
 10
176.32499999999999
 20
151.78750000000002
 11
177.8125
 21
151.78750000000002
  0
LINE
  8
_0-1_作画層１
  6
CONTINUOUS
 62
    7
 10
173.17500000000001
 20
151.78750000000002
 11
171.6875
 21
151.78750000000002
  0
LINE
  8
_0-1_作画層１
  6
CONTINUOUS
 62
    7
 10
176.32499999999999
 20
153.53750000000002
 11
177.8125
 21
153.53750000000002
  0
CIRCLE
  8
_0-1_作画層１
  6
CONTINUOUS
 62
    7
 10
174.75
 20
162.25
 40
3.5
  0
LINE
  8
_0-1_作画層１
  6
CONTINUOUS
 62
    7
 10
177.8125
 20
161.375
 11
177.8125
 21
163.125
  0
LINE
  8
_0-1_作画層１
  6
CONTINUOUS
 62
    7
 10
171.6875
 20
163.125
 11
171.6875
 21
161.375
  0
LINE
  8
_0-1_作画層１
  6
CONTINUOUS
 62
    7
 10
175.625
 20
165.3125
 11
173.875
 21
165.3125
  0
LINE
  8
_0-1_作画層１
  6
CONTINUOUS
 62
    7
 10
173.875
 20
159.1875
 11
175.625
 21
159.1875
  0
ARC
  8
_0-1_作画層１
  6
CONTINUOUS
 62
    7
 10
176.32500000000002
 20
160.67499999999995
 40
0.7000000000000311
 50
90.000000000002345
 51
179.99999999999653
  0
LINE
  8
_0-1_作画層１
  6
CONTINUOUS
 62
    7
 10
173.875
 20
159.1875
 11
173.875
 21
160.67500000000001
  0
ARC
  8
_0-1_作画層１
  6
CONTINUOUS
 62
    7
 10
173.17499999999998
 20
160.67499999999995
 40
0.700000000000017
 50
0.0000000000034895
 51
90.000000000002302
  0
LINE
  8
_0-1_作画層１
  6
CONTINUOUS
 62
    7
 10
175.625
 20
165.3125
 11
175.625
 21
163.82499999999999
  0
ARC
  8
_0-1_作画層１
  6
CONTINUOUS
 62
    7
 10
176.32500000000002
 20
163.82500000000005
 40
0.700000000000017
 50
180.0000000000035
 51
269.99999999999767
  0
LINE
  8
_0-1_作画層１
  6
CONTINUOUS
 62
    7
 10
175.625
 20
160.67500008900964
 11
175.625
 21
159.1875
  0
LINE
  8
_0-1_作画層１
  6
CONTINUOUS
 62
    7
 10
173.875
 20
165.3125
 11
173.875
 21
163.82499999999999
  0
LINE
  8
_0-1_作画層１
  6
CONTINUOUS
 62
    7
 10
171.6875
 20
163.125
 11
173.17499999999995
 21
163.125
  0
ARC
  8
_0-1_作画層１
  6
CONTINUOUS
 62
    7
 10
173.17499999999998
 20
163.82500000000005
 40
0.700000000000017
 50
269.99999999999767
 51
359.99999999999648
  0
LINE
  8
_0-1_作画層１
  6
CONTINUOUS
 62
    7
 10
176.32499999999999
 20
161.375
 11
177.8125
 21
161.375
  0
LINE
  8
_0-1_作画層１
  6
CONTINUOUS
 62
    7
 10
173.17500000000001
 20
161.375
 11
171.6875
 21
161.375
  0
LINE
  8
_0-1_作画層１
  6
CONTINUOUS
 62
    7
 10
176.32499999999999
 20
163.125
 11
177.8125
 21
163.125
  0
CIRCLE
  8
_0-1_作画層１
  6
CONTINUOUS
 62
    7
 10
174.75
 20
171.83749999999998
 40
3.5
  0
LINE
  8
_0-1_作画層１
  6
CONTINUOUS
 62
    7
 10
177.8125
 20
170.96249999999998
 11
177.8125
 21
172.71249999999998
  0
LINE
  8
_0-1_作画層１
  6
CONTINUOUS
 62
    7
 10
171.6875
 20
172.71249999999998
 11
171.6875
 21
170.96249999999998
  0
LINE
  8
_0-1_作画層１
  6
CONTINUOUS
 62
    7
 10
175.625
 20
174.89999999999998
 11
173.875
 21
174.89999999999998
  0
LINE
  8
_0-1_作画層１
  6
CONTINUOUS
 62
    7
 10
173.875
 20
168.77499999999998
 11
175.625
 21
168.77499999999998
  0
ARC
  8
_0-1_作画層１
  6
CONTINUOUS
 62
    7
 10
176.32500000000002
 20
170.26249999999996
 40
0.700000000000017
 50
90.000000000002345
 51
179.9999999999977
  0
LINE
  8
_0-1_作画層１
  6
CONTINUOUS
 62
    7
 10
173.875
 20
168.77499999999998
 11
173.875
 21
170.26249999999999
  0
ARC
  8
_0-1_作画層１
  6
CONTINUOUS
 62
    7
 10
173.17499999999998
 20
170.26249999999996
 40
0.700000000000017
 50
0.0000000000023263
 51
90.000000000002331
  0
LINE
  8
_0-1_作画層１
  6
CONTINUOUS
 62
    7
 10
175.625
 20
174.89999999999998
 11
175.625
 21
173.41249999999997
  0
ARC
  8
_0-1_作画層１
  6
CONTINUOUS
 62
    7
 10
176.32500000000002
 20
173.41249999999999
 40
0.700000000000017
 50
180.0000000000023
 51
269.99999999999767
  0
LINE
  8
_0-1_作画層１
  6
CONTINUOUS
 62
    7
 10
175.625
 20
170.26250008900962
 11
175.625
 21
168.77499999999998
  0
LINE
  8
_0-1_作画層１
  6
CONTINUOUS
 62
    7
 10
173.875
 20
174.89999999999998
 11
173.875
 21
173.41249999999997
  0
LINE
  8
_0-1_作画層１
  6
CONTINUOUS
 62
    7
 10
171.6875
 20
172.71249999999998
 11
173.17499999999995
 21
172.71249999999998
  0
ARC
  8
_0-1_作画層１
  6
CONTINUOUS
 62
    7
 10
173.17499999999998
 20
173.41249999999999
 40
0.700000000000017
 50
269.99999999999767
 51
359.99999999999767
  0
LINE
  8
_0-1_作画層１
  6
CONTINUOUS
 62
    7
 10
176.32499999999999
 20
170.96249999999998
 11
177.8125
 21
170.96249999999998
  0
LINE
  8
_0-1_作画層１
  6
CONTINUOUS
 62
    7
 10
173.17500000000001
 20
170.96249999999998
 11
171.6875
 21
170.96249999999998
  0
LINE
  8
_0-1_作画層１
  6
CONTINUOUS
 62
    7
 10
176.32499999999999
 20
172.71249999999998
 11
177.8125
 21
172.71249999999998
  0
LINE
  8
_0-1_作画層１
  6
CONTINUOUS
 62
    7
 10
168.5
 20
156.60444173824163
 11
182.25
 21
156.60444173824163
  0
LINE
  8
_0-1_作画層１
  6
CONTINUOUS
 62
    7
 10
168.5
 20
166.78750000000002
 11
182.25
 21
166.78750000000002
  0
LINE
  8
_0-1_作画層１
  6
CONTINUOUS
 62
    7
 10
168.5
 20
168.53750000000002
 11
182.25
 21
168.53750000000002
  0
LINE
  8
_0-1_作画層１
  6
CONTINUOUS
 62
    7
 10
168.5
 20
158.60348300562509
 11
182.25
 21
158.60348300562509
  0
LINE
  8
_0-1_作画層１
  6
CONTINUOUS
 62
    7
 10
167.25
 20
177.51250000000005
 11
182.25
 21
177.51250000000005
  0
LINE
  8
_0-1_作画層１
  6
CONTINUOUS
 62
    7
 10
168.5
 20
176.16250000000002
 11
182.25
 21
176.16250000000002
  0
LINE
  8
_0-1_作画層１
  6
CONTINUOUS
 62
    7
 10
167.25
 20
146.98749999999995
 11
182.25
 21
146.98749999999995
  0
LINE
  8
_0-1_作画層１
  6
CONTINUOUS
 62
    7
 10
182.25
 20
146.98749999999995
 11
182.25
 21
177.51250000000005
  0
LINE
  8
_0-1_作画層１
  6
CONTINUOUS
 62
    7
 10
168.5
 20
146.98749999999995
 11
168.5
 21
177.51250000000005
  0
LINE
  8
_0-1_作画層１
  6
CONTINUOUS
 62
    7
 10
168.5
 20
148.53750000000002
 11
182.25
 21
148.53750000000002
  0
LINE
  8
_0-0_
  6
CONTINUOUS
 62
    7
 10
200.75
 20
177.51250000000005
 11
200.75
 21
182.25
  0
LINE
  8
_0-0_
  6
CONTINUOUS
 62
    7
 10
200.75
 20
146.98749999999995
 11
200.75
 21
142.25
  0
LINE
  8
_0-0_
  6
CONTINUOUS
 62
    7
 10
183.62
 20
146.98749999999995
 11
183.62
 21
177.51250000000005
  0
LINE
  8
_0-0_
  6
CONTINUOUS
 62
    7
 10
183.625
 20
171.875
 11
186.125
 21
171.875
  0
LINE
  8
_0-0_
  6
CONTINUOUS
 62
    7
 10
183.625
 20
152.5
 11
186.125
 21
152.5
  0
LINE
  8
_0-0_
  6
CONTINUOUS
 62
    7
 10
183.62
 20
162.25
 11
186.12
 21
162.25
  0
LINE
  8
_0-0_
  6
CONTINUOUS
 62
    7
 10
183.62
 20
177.51250000000005
 11
200.75
 21
177.51250000000005
  0
LINE
  8
_0-0_
  6
CONTINUOUS
 62
    7
 10
200.75
 20
146.98749999999995
 11
183.62
 21
146.98749999999995
  0
LINE
  8
_0-0_
  6
CONTINUOUS
 62
    7
 10
217.87
 20
142.25
 11
217.87
 21
182.25
  0
LINE
  8
_0-0_
  6
CONTINUOUS
 62
    7
 10
215.25
 20
146.875
 11
217.75
 21
146.875
  0
LINE
  8
_0-0_
  6
CONTINUOUS
 62
    7
 10
215.25
 20
156.875
 11
217.75
 21
156.875
  0
LINE
  8
_0-0_
  6
CONTINUOUS
 62
    7
 10
215.25
 20
166.25
 11
217.75
 21
166.25
  0
LINE
  8
_0-0_
  6
CONTINUOUS
 62
    7
 10
215.25
 20
176.25
 11
217.75
 21
176.25
  0
LINE
  8
_0-0_
  6
CONTINUOUS
 62
    7
 10
200.75
 20
182.25
 11
217.87
 21
182.25
  0
LINE
  8
_0-0_
  6
CONTINUOUS
 62
    7
 10
200.75
 20
142.25
 11
217.87
 21
142.25
  0
TEXT
  8
_0-0_
 62
    7
 10
188.50203623754206
 20
159.53331739585693
 40
2.2999999999999998
 41
1
 50
-90
  1
電源
  0
LINE
  8
_0-0_
  6
CONTINUOUS
 62
    7
 10
189.12
 20
162.25
 11
194.12
 21
162.25
  0
LINE
  8
_0-0_
  6
CONTINUOUS
 62
    7
 10
189.125
 20
152.5
 11
194.125
 21
152.5
  0
CIRCLE
  8
_0-0_
  6
CONTINUOUS
 62
    7
 10
194.125
 20
157.375
 40
2.2000000000000002
  0
LINE
  8
_0-0_
  6
CONTINUOUS
 62
    7
 10
194.125
 20
159.375
 11
194.55888373911756
 21
159.08928571428572
  0
LINE
  8
_0-0_
  6
CONTINUOUS
 62
    7
 10
194.55888373911756
 20
159.08928571428572
 11
194.90683148246802
 21
158.80357142857144
  0
LINE
  8
_0-0_
  6
CONTINUOUS
 62
    7
 10
194.90683148246802
 20
158.80357142857144
 11
195.09992791218184
 21
158.51785714285714
  0
LINE
  8
_0-0_
  6
CONTINUOUS
 62
    7
 10
195.09992791218184
 20
158.51785714285714
 11
195.09992791218184
 21
158.23214285714286
  0
LINE
  8
_0-0_
  6
CONTINUOUS
 62
    7
 10
195.09992791218184
 20
158.23214285714286
 11
194.90683148246802
 21
157.94642857142856
  0
LINE
  8
_0-0_
  6
CONTINUOUS
 62
    7
 10
194.90683148246802
 20
157.94642857142856
 11
194.55888373911756
 21
157.66071428571428
  0
LINE
  8
_0-0_
  6
CONTINUOUS
 62
    7
 10
194.55888373911756
 20
157.66071428571428
 11
194.125
 21
157.375
  0
LINE
  8
_0-0_
  6
CONTINUOUS
 62
    7
 10
194.125
 20
157.375
 11
193.69111626088244
 21
157.08928571428572
  0
LINE
  8
_0-0_
  6
CONTINUOUS
 62
    7
 10
193.69111626088244
 20
157.08928571428572
 11
193.34316851753198
 21
156.80357142857144
  0
LINE
  8
_0-0_
  6
CONTINUOUS
 62
    7
 10
193.34316851753198
 20
156.80357142857144
 11
193.15007208781816
 21
156.51785714285714
  0
LINE
  8
_0-0_
  6
CONTINUOUS
 62
    7
 10
193.15007208781816
 20
156.51785714285714
 11
193.15007208781816
 21
156.23214285714286
  0
LINE
  8
_0-0_
  6
CONTINUOUS
 62
    7
 10
193.15007208781816
 20
156.23214285714286
 11
193.34316851753198
 21
155.94642857142856
  0
LINE
  8
_0-0_
  6
CONTINUOUS
 62
    7
 10
193.34316851753198
 20
155.94642857142856
 11
193.69111626088244
 21
155.66071428571428
  0
LINE
  8
_0-0_
  6
CONTINUOUS
 62
    7
 10
193.69111626088244
 20
155.66071428571428
 11
194.125
 21
155.375
  0
LINE
  8
_0-0_
  6
CONTINUOUS
 62
    7
 10
194.125
 20
152.5
 11
194.125
 21
155.17500000000001
  0
LINE
  8
_0-0_
  6
CONTINUOUS
 62
    7
 10
194.125
 20
159.57499999999999
 11
194.125
 21
162.25
  0
LINE
  8
_0-0_
  6
CONTINUOUS
 62
    7
 10
212.25
 20
156.875
 11
207.25
 21
156.875
  0
LINE
  8
_0-0_
  6
CONTINUOUS
 62
    7
 10
212.25
 20
146.875
 11
207.25
 21
146.875
  0
TEXT
  8
_0-0_
 62
    7
 10
186.125
 20
153.07499999999999
 40
2.2999999999999998
 41
1
 50
-90
  1
3
  0
TEXT
  8
_0-0_
 62
    7
 10
186.12
 20
162.82499999999999
 40
2.2999999999999998
 41
1
 50
-90
  1
2
  0
TEXT
  8
_0-0_
 62
    7
 10
186.125
 20
172.44999999999999
 40
2.2999999999999998
 41
1
 50
-90
  1
1
  0
TEXT
  8
_0-0_
 62
    7
 10
215.25
 20
175.67500000000001
 40
2.2999999999999998
 41
1
 50
90
  1
4
  0
TEXT
  8
_0-0_
 62
    7
 10
215.25
 20
165.67500000000001
 40
2.2999999999999998
 41
1
 50
90
  1
5
  0
TEXT
  8
_0-0_
 62
    7
 10
215.25
 20
156.30000000000001
 40
2.2999999999999998
 41
1
 50
90
  1
6
  0
TEXT
  8
_0-0_
 62
    7
 10
215.25
 20
146.30000000000001
 40
2.2999999999999998
 41
1
 50
90
  1
7
  0
CIRCLE
  8
_0-0_
  6
CONTINUOUS
 62
    7
 10
207.25
 20
149.875
 40
0.5
  0
CIRCLE
  8
_0-0_
  6
CONTINUOUS
 62
    7
 10
207.25
 20
153.875
 40
0.5
  0
LINE
  8
_0-0_
  6
CONTINUOUS
 62
    7
 10
207
 20
150.30801270189221
 11
205.25
 21
153.33910161513774
  0
LINE
  8
_0-0_
  6
CONTINUOUS
 62
    7
 10
207.25
 20
146.875
 11
207.25
 21
149.375
  0
LINE
  8
_0-0_
  6
CONTINUOUS
 62
    7
 10
207.25
 20
156.875
 11
207.25
 21
154.375
  0
LINE
  8
_0-0_
  6
CONTINUOUS
 62
    7
 10
212.25
 20
176.25
 11
207.25
 21
176.25
  0
LINE
  8
_0-0_
  6
CONTINUOUS
 62
    7
 10
212.25
 20
166.25
 11
207.25
 21
166.25
  0
CIRCLE
  8
_0-0_
  6
CONTINUOUS
 62
    7
 10
207.25
 20
169.25
 40
0.5
  0
CIRCLE
  8
_0-0_
  6
CONTINUOUS
 62
    7
 10
207.25
 20
173.25
 40
0.5
  0
LINE
  8
_0-0_
  6
CONTINUOUS
 62
    7
 10
207
 20
169.68301270189221
 11
205.25
 21
172.71410161513774
  0
LINE
  8
_0-0_
  6
CONTINUOUS
 62
    7
 10
207.25
 20
166.25
 11
207.25
 21
168.75
  0
LINE
  8
_0-0_
  6
CONTINUOUS
 62
    7
 10
207.25
 20
176.25
 11
207.25
 21
173.75
  0
TEXT
  8
_0-7_注記層１
 62
    7
 10
234.00464745592052
 20
89.889805231467477
 40
3.5
 41
1
 50
0
  1
型　　 　番
  0
TEXT
  8
_0-7_注記層１
 62
    7
 10
234.00464745592052
 20
79.889805231467477
 40
3.5
 41
1
 50
0
  1
許容電圧変動範囲
  0
TEXT
  8
_0-7_注記層１
 62
    7
 10
234.00464745592052
 20
74.889805231467477
 40
3.5
 41
1
 50
0
  1
周　　波　　数
  0
TEXT
  8
_0-7_注記層１
 62
    7
 10
234.00464745592052
 20
69.889805231467477
 40
3.5
 41
1
 50
0
  1
停　電　補　償
  0
TEXT
  8
_0-7_注記層１
 62
    7
 10
234.00464745592052
 20
84.889805231467477
 40
3.5
 41
1
 50
0
  1
電  源  電  圧
  0
LINE
  8
_0-1_作画層１
  6
CONTINUOUS
 62
    7
 10
334.00464745592052
 20
94.139805231467477
 11
231.50464745592052
 21
94.139805231467477
  0
LINE
  8
_0-1_作画層１
  6
CONTINUOUS
 62
    7
 10
334.00464745592052
 20
89.139805231467477
 11
231.50464745592052
 21
89.139805231467477
  0
LINE
  8
_0-1_作画層１
  6
CONTINUOUS
 62
    7
 10
334.00464745592052
 20
84.139805231467477
 11
231.50464745592052
 21
84.139805231467477
  0
LINE
  8
_0-1_作画層１
  6
CONTINUOUS
 62
    7
 10
334.00464745592052
 20
79.139805231467477
 11
231.50464745592052
 21
79.139805231467477
  0
LINE
  8
_0-1_作画層１
  6
CONTINUOUS
 62
    7
 10
334.00464745592052
 20
74.139805231467477
 11
231.50464745592052
 21
74.139805231467477
  0
LINE
  8
_0-1_作画層１
  6
CONTINUOUS
 62
    7
 10
334.00464745592052
 20
69.139805231467477
 11
231.50464745592052
 21
69.139805231467477
  0
LINE
  8
_0-1_作画層１
  6
CONTINUOUS
 62
    7
 10
334.00464745592052
 20
64.139805231467477
 11
231.50464745592052
 21
64.139805231467477
  0
TEXT
  8
_0-7_注記層１
 62
    7
 10
231.50464745592052
 20
99.139805231467477
 40
5
 41
1
 50
0
  1
規　格
  0
LINE
  8
_0-1_作画層１
  6
CONTINUOUS
 62
    7
 10
229.00464745592052
 20
99.139805231467477
 11
249.00464745592052
 21
99.139805231467477
  0
TEXT
  8
_0-7_注記層１
 62
    7
 10
234.00464745592052
 20
64.889805231467477
 40
3.5
 41
1
 50
0
  1
使 用 周 囲 温 度
  0
TEXT
  8
_0-7_注記層１
 62
    7
 10
234.00464745592052
 20
59.889805231467477
 40
3.5
 41
1
 50
0
  1
使 用 周 囲 湿 度
  0
TEXT
  8
_0-7_注記層１
 62
    7
 10
234.00464745592052
 20
54.889805231467477
 40
3.5
 41
1
 50
0
  1
接　点　定　格
  0
TEXT
  8
_0-7_注記層１
 62
    7
 10
234.00464745592052
 20
49.889805231467477
 40
3.5
 41
1
 50
0
  1
出　　　　　力
  0
TEXT
  8
_0-7_注記層１
 62
    7
 10
234.00464745592052
 20
44.889805231467477
 40
3.5
 41
1
 50
0
  1
設　定　回　数
  0
TEXT
  8
_0-7_注記層１
 62
    7
 10
234.00464745592052
 20
39.889805231467477
 40
3.5
 41
1
 50
0
  1
最 小 設 定 時 間
  0
TEXT
  8
_0-7_注記層１
 62
    7
 10
234.00464745592052
 20
34.889805231467477
 40
3.5
 41
1
 50
0
  1
時　間　精　度
  0
TEXT
  8
_0-7_注記層１
 62
    7
 10
234.00464745592052
 20
29.889805231467477
 40
3.5
 41
1
 50
0
  1
消　費　電　力　
  0
TEXT
  8
_0-7_注記層１
 62
    7
 10
234.00464745592052
 20
24.889805231467477
 40
3.5
 41
1
 50
0
  1
重　　　  　量
  0
TEXT
  8
_0-7_注記層１
 62
    7
 10
234.00464745592052
 20
19.889805231467477
 40
3.5
 41
1
 50
0
  1
外　形　寸　法
  0
TEXT
  8
_0-7_注記層１
 62
    7
 10
269.00464745592052
 20
34.889805231467477
 40
3.5
 41
1
 50
0
  1
±15秒／月（25℃）
  0
LINE
  8
_0-1_作画層１
  6
CONTINUOUS
 62
    7
 10
334.00464745592052
 20
64.139805231467477
 11
231.50464745592052
 21
64.139805231467477
  0
LINE
  8
_0-1_作画層１
  6
CONTINUOUS
 62
    7
 10
334.00464745592052
 20
59.139805231467477
 11
231.50464745592052
 21
59.139805231467477
  0
LINE
  8
_0-1_作画層１
  6
CONTINUOUS
 62
    7
 10
334.00464745592052
 20
54.139805231467477
 11
231.50464745592052
 21
54.139805231467477
  0
LINE
  8
_0-1_作画層１
  6
CONTINUOUS
 62
    7
 10
334.00464745592052
 20
49.139805231467477
 11
231.50464745592052
 21
49.139805231467477
  0
LINE
  8
_0-1_作画層１
  6
CONTINUOUS
 62
    7
 10
334.00464745592052
 20
44.139805231467477
 11
231.50464745592052
 21
44.139805231467477
  0
LINE
  8
_0-1_作画層１
  6
CONTINUOUS
 62
    7
 10
334.00464745592052
 20
39.139805231467477
 11
231.50464745592052
 21
39.139805231467477
  0
LINE
  8
_0-1_作画層１
  6
CONTINUOUS
 62
    7
 10
334.00464745592052
 20
34.139805231467477
 11
231.50464745592052
 21
34.139805231467477
  0
LINE
  8
_0-1_作画層１
  6
CONTINUOUS
 62
    7
 10
334.00464745592052
 20
29.139805231467477
 11
231.50464745592052
 21
29.139805231467477
  0
LINE
  8
_0-1_作画層１
  6
CONTINUOUS
 62
    7
 10
334.00464745592052
 20
24.139805231467477
 11
231.50464745592052
 21
24.139805231467477
  0
LINE
  8
_0-1_作画層１
  6
CONTINUOUS
 62
    7
 10
334.00464745592052
 20
19.139805231467477
 11
231.50464745592052
 21
19.139805231467477
  0
TEXT
  8
_0-7_注記層１
 62
    7
 10
269.00464745592052
 20
29.889805231467477
 40
3.5
 41
1
 50
0
  1
約3VA
  0
TEXT
  8
_0-7_注記層１
 62
    7
 10
234.00464745592052
 20
14.889805231467477
 40
3.5
 41
1
 50
0
  1
付　　属　　品
  0
TEXT
  8
_0-7_注記層１
 62
    7
 10
269.00464745592052
 20
11.389805231467477
 40
3.5
 41
1
 50
0
  1
取付けビス２本、端子台カバー
  0
LINE
  8
_0-1_作画層１
  6
CONTINUOUS
 62
    7
 10
334.00464745592052
 20
10.389805231467477
 11
231.50464745592052
 21
10.389805231467477
  0
LINE
  8
_0-1_作画層１
  6
CONTINUOUS
 62
    7
 10
231.50464745592052
 20
10.389805231467477
 11
231.50464745592052
 21
94.139805231467477
  0
LINE
  8
_0-1_作画層１
  6
CONTINUOUS
 62
    7
 10
266.50464745592052
 20
10.389805231467477
 11
266.50464745592052
 21
94.139805231467477
  0
LINE
  8
_0-1_作画層１
  6
CONTINUOUS
 62
    7
 10
334.00464745592052
 20
10.389805231467477
 11
334.00464745592052
 21
94.139805231467477
  0
TEXT
  8
_0-7_注記層１
 62
    7
 10
269.00464745592052
 20
64.889805231467477
 40
3.5
 41
1
 50
0
  1
-10℃～50℃
  0
TEXT
  8
_0-7_注記層１
 62
    7
 10
269.00464745592052
 20
49.889805231467477
 40
3.5
 41
1
 50
0
  1
接点出力（1a×2回路）
  0
TEXT
  8
_0-7_注記層１
 62
    7
 10
269.00464745592052
 20
39.889805231467477
 40
3.5
 41
1
 50
0
  1
1分
  0
TEXT
  8
_0-7_注記層１
 62
    7
 10
269.00464745592052
 20
54.889805231467477
 40
3.5
 41
1
 50
0
  1
抵抗負荷　AC250V  10A(合計）
  0
TEXT
  8
_0-7_注記層１
 62
    7
 10
269.00464745592052
 20
59.889805231467477
 40
3.5
 41
1
 50
0
  1
35%RH～85％RH
  0
TEXT
  8
_0-7_注記層１
 62
    7
 10
269.00464745592052
 20
19.889805231467477
 40
3.5
 41
1
 50
0
  1
H72×W72×D70mm
  0
TEXT
  8
_0-7_注記層１
 62
    7
 10
269.00464745592052
 20
14.889805231467477
 40
3.5
 41
1
 50
0
  1
前面カバー、取付け具、
  0
TEXT
  8
_0-7_注記層１
 62
    7
 10
269.00464745592052
 20
89.889805231467477
 40
3.5
 41
1
 50
0
  1
SSC-722P
  0
TEXT
  8
_0-7_注記層１
 62
    7
 10
269.00464745592052
 20
79.889805231467477
 40
3.5
 41
1
 50
0
  1
AC85V～AC230V
  0
TEXT
  8
_0-7_注記層１
 62
    7
 10
269.00464745592052
 20
84.889805231467477
 40
3.5
 41
1
 50
0
  1
AC100V - AC200V 共用
  0
TEXT
  8
_0-7_注記層１
 62
    7
 10
269.00464745592052
 20
74.889805231467477
 40
3.5
 41
1
 50
0
  1
50Hz/60Hz 共用
  0
TEXT
  8
_0-7_注記層１
 62
    7
 10
269.00464745592052
 20
69.889805231467477
 40
3.5
 41
1
 50
0
  1
停電期間累積5年間（リチウム電池使用）
  0
TEXT
  8
_0-7_注記層１
 62
    7
 10
269.00464745592052
 20
44.789805231467483
 40
3.5
 41
1
 50
0
  1
1日16回ON-OFF動作(1ch、2ch共に)
  0
TEXT
  8
_0-7_注記層１
 62
    7
 10
269.17338023828967
 20
25.0454526143876
 40
3.5
 41
1
 50
0
  1
約185g
  0
LINE
  8
_0-1_作画層１
  6
CONTINUOUS
 62
    7
 10
112.66526499638653
 20
90.492766116628815
 11
137.66526499638653
 21
90.492766116628815
  0
TEXT
  8
_0-7_注記層１
 62
    7
 10
115.16526499638653
 20
90.492766116628815
 40
5
 41
1
 50
0
  1
端子接続
  0
CIRCLE
  8
_0-1_作画層１
  6
CONTINUOUS
 62
    7
 10
95.165264996386526
 20
45.492766116628822
 40
5
  0
LINE
  8
_0-1_作画層１
  6
CONTINUOUS
 62
    7
 10
93.915264996386526
 20
49.867766116628822
 11
96.415264996386526
 21
49.867766116628822
  0
LINE
  8
_0-1_作画層１
  6
CONTINUOUS
 62
    7
 10
96.415264996386526
 20
41.117766116628822
 11
93.915264996386526
 21
41.117766116628822
  0
LINE
  8
_0-1_作画層１
  6
CONTINUOUS
 62
    7
 10
99.540264996386526
 20
46.742766116628822
 11
99.540264996386526
 21
44.242766116628822
  0
LINE
  8
_0-1_作画層１
  6
CONTINUOUS
 62
    7
 10
90.790264996386526
 20
44.242766116628822
 11
90.790264996386526
 21
46.742766116628822
  0
ARC
  8
_0-1_作画層１
  6
CONTINUOUS
 62
    7
 10
92.915264996386554
 20
47.742766116628793
 40
0.9999999999999712
 50
269.99999999999835
 51
0.0000000000012086
  0
LINE
  8
_0-1_作画層１
  6
CONTINUOUS
 62
    7
 10
90.790264996386526
 20
44.242766116628822
 11
92.915264996386526
 21
44.242766116628822
  0
ARC
  8
_0-1_作画層１
  6
CONTINUOUS
 62
    7
 10
92.915264996386554
 20
43.24276611662885
 40
0.9999999999999783
 50
359.99999999999881
 51
90.00000000000162
  0
LINE
  8
_0-1_作画層１
  6
CONTINUOUS
 62
    7
 10
99.540264996386526
 20
46.742766116628822
 11
97.415264996386526
 21
46.742766116628822
  0
ARC
  8
_0-1_作画層１
  6
CONTINUOUS
 62
    7
 10
97.415264996386497
 20
47.742766116628793
 40
0.9999999999999783
 50
179.99999999999878
 51
270.00000000000159
  0
LINE
  8
_0-1_作画層１
  6
CONTINUOUS
 62
    7
 10
92.915265123543122
 20
46.742766116628822
 11
90.790264996386526
 21
46.742766116628822
  0
LINE
  8
_0-1_作画層１
  6
CONTINUOUS
 62
    7
 10
99.540264996386526
 20
44.242766116628822
 11
97.415264996386526
 21
44.242766116628822
  0
LINE
  8
_0-1_作画層１
  6
CONTINUOUS
 62
    7
 10
96.415264996386526
 20
41.117766116628822
 11
96.415264996386526
 21
43.242766116628822
  0
ARC
  8
_0-1_作画層１
  6
CONTINUOUS
 62
    7
 10
97.415264996386497
 20
43.24276611662885
 40
0.9999999999999783
 50
89.99999999999838
 51
180.00000000000122
  0
LINE
  8
_0-1_作画層１
  6
CONTINUOUS
 62
    7
 10
93.915264996386526
 20
47.742766116628808
 11
93.915264996386526
 21
49.867766116628822
  0
LINE
  8
_0-1_作画層１
  6
CONTINUOUS
 62
    7
 10
93.915264996386526
 20
43.242766116628836
 11
93.915264996386526
 21
41.117766116628822
  0
LINE
  8
_0-1_作画層１
  6
CONTINUOUS
 62
    7
 10
96.415264996386526
 20
47.742766116628808
 11
96.415264996386526
 21
49.867766116628822
  0
CIRCLE
  8
_0-1_作画層１
  6
CONTINUOUS
 62
    7
 10
112.66526499638653
 20
45.492766116628822
 40
5
  0
LINE
  8
_0-1_作画層１
  6
CONTINUOUS
 62
    7
 10
111.41526499638653
 20
49.867766116628822
 11
113.91526499638653
 21
49.867766116628822
  0
LINE
  8
_0-1_作画層１
  6
CONTINUOUS
 62
    7
 10
113.91526499638653
 20
41.117766116628822
 11
111.41526499638653
 21
41.117766116628822
  0
LINE
  8
_0-1_作画層１
  6
CONTINUOUS
 62
    7
 10
117.04026499638653
 20
46.742766116628822
 11
117.04026499638653
 21
44.242766116628822
  0
LINE
  8
_0-1_作画層１
  6
CONTINUOUS
 62
    7
 10
108.29026499638653
 20
44.242766116628822
 11
108.29026499638653
 21
46.742766116628822
  0
ARC
  8
_0-1_作画層１
  6
CONTINUOUS
 62
    7
 10
110.41526499638655
 20
47.742766116628793
 40
0.9999999999999712
 50
269.99999999999835
 51
0.0000000000012086
  0
LINE
  8
_0-1_作画層１
  6
CONTINUOUS
 62
    7
 10
108.29026499638653
 20
44.242766116628822
 11
110.41526499638653
 21
44.242766116628822
  0
ARC
  8
_0-1_作画層１
  6
CONTINUOUS
 62
    7
 10
110.41526499638655
 20
43.24276611662885
 40
0.9999999999999783
 50
359.99999999999881
 51
90.00000000000162
  0
LINE
  8
_0-1_作画層１
  6
CONTINUOUS
 62
    7
 10
117.04026499638653
 20
46.742766116628822
 11
114.91526499638653
 21
46.742766116628822
  0
ARC
  8
_0-1_作画層１
  6
CONTINUOUS
 62
    7
 10
114.9152649963865
 20
47.742766116628793
 40
0.9999999999999783
 50
179.99999999999878
 51
270.00000000000159
  0
LINE
  8
_0-1_作画層１
  6
CONTINUOUS
 62
    7
 10
110.41526512354312
 20
46.742766116628822
 11
108.29026499638653
 21
46.742766116628822
  0
LINE
  8
_0-1_作画層１
  6
CONTINUOUS
 62
    7
 10
117.04026499638653
 20
44.242766116628822
 11
114.91526499638653
 21
44.242766116628822
  0
LINE
  8
_0-1_作画層１
  6
CONTINUOUS
 62
    7
 10
113.91526499638653
 20
41.117766116628822
 11
113.91526499638653
 21
43.242766116628822
  0
ARC
  8
_0-1_作画層１
  6
CONTINUOUS
 62
    7
 10
114.9152649963865
 20
43.24276611662885
 40
0.9999999999999783
 50
89.99999999999838
 51
180.00000000000122
  0
LINE
  8
_0-1_作画層１
  6
CONTINUOUS
 62
    7
 10
111.41526499638653
 20
47.742766116628808
 11
111.41526499638653
 21
49.867766116628822
  0
LINE
  8
_0-1_作画層１
  6
CONTINUOUS
 62
    7
 10
111.41526499638653
 20
43.242766116628836
 11
111.41526499638653
 21
41.117766116628822
  0
LINE
  8
_0-1_作画層１
  6
CONTINUOUS
 62
    7
 10
113.91526499638653
 20
47.742766116628808
 11
113.91526499638653
 21
49.867766116628822
  0
CIRCLE
  8
_0-1_作画層１
  6
CONTINUOUS
 62
    7
 10
130.16526499638653
 20
45.492766116628822
 40
5
  0
LINE
  8
_0-1_作画層１
  6
CONTINUOUS
 62
    7
 10
128.91526499638653
 20
49.867766116628822
 11
131.41526499638653
 21
49.867766116628822
  0
LINE
  8
_0-1_作画層１
  6
CONTINUOUS
 62
    7
 10
131.41526499638653
 20
41.117766116628822
 11
128.91526499638653
 21
41.117766116628822
  0
LINE
  8
_0-1_作画層１
  6
CONTINUOUS
 62
    7
 10
134.54026499638653
 20
46.742766116628822
 11
134.54026499638653
 21
44.242766116628822
  0
LINE
  8
_0-1_作画層１
  6
CONTINUOUS
 62
    7
 10
125.79026499638653
 20
44.242766116628822
 11
125.79026499638653
 21
46.742766116628822
  0
ARC
  8
_0-1_作画層１
  6
CONTINUOUS
 62
    7
 10
127.91526499638655
 20
47.742766116628793
 40
0.9999999999999712
 50
269.99999999999835
 51
0.0000000000012086
  0
LINE
  8
_0-1_作画層１
  6
CONTINUOUS
 62
    7
 10
125.79026499638653
 20
44.242766116628822
 11
127.91526499638653
 21
44.242766116628822
  0
ARC
  8
_0-1_作画層１
  6
CONTINUOUS
 62
    7
 10
127.91526499638655
 20
43.24276611662885
 40
0.9999999999999783
 50
359.99999999999881
 51
90.00000000000162
  0
LINE
  8
_0-1_作画層１
  6
CONTINUOUS
 62
    7
 10
134.54026499638653
 20
46.742766116628822
 11
132.41526499638653
 21
46.742766116628822
  0
ARC
  8
_0-1_作画層１
  6
CONTINUOUS
 62
    7
 10
132.4152649963865
 20
47.742766116628793
 40
0.9999999999999783
 50
179.99999999999878
 51
270.00000000000159
  0
LINE
  8
_0-1_作画層１
  6
CONTINUOUS
 62
    7
 10
127.91526512354312
 20
46.742766116628822
 11
125.79026499638653
 21
46.742766116628822
  0
LINE
  8
_0-1_作画層１
  6
CONTINUOUS
 62
    7
 10
134.54026499638653
 20
44.242766116628822
 11
132.41526499638653
 21
44.242766116628822
  0
LINE
  8
_0-1_作画層１
  6
CONTINUOUS
 62
    7
 10
131.41526499638653
 20
41.117766116628822
 11
131.41526499638653
 21
43.242766116628822
  0
ARC
  8
_0-1_作画層１
  6
CONTINUOUS
 62
    7
 10
132.4152649963865
 20
43.24276611662885
 40
0.9999999999999783
 50
89.99999999999838
 51
180.00000000000122
  0
LINE
  8
_0-1_作画層１
  6
CONTINUOUS
 62
    7
 10
128.91526499638653
 20
47.742766116628808
 11
128.91526499638653
 21
49.867766116628822
  0
LINE
  8
_0-1_作画層１
  6
CONTINUOUS
 62
    7
 10
128.91526499638653
 20
43.242766116628836
 11
128.91526499638653
 21
41.117766116628822
  0
LINE
  8
_0-1_作画層１
  6
CONTINUOUS
 62
    7
 10
131.41526499638653
 20
47.742766116628808
 11
131.41526499638653
 21
49.867766116628822
  0
LINE
  8
_0-1_作画層１
  6
CONTINUOUS
 62
    7
 10
87.665264996386526
 20
37.992766116628815
 11
87.665264996386526
 21
52.992766116628822
  0
LINE
  8
_0-1_作画層１
  6
DASHED
 62
    7
 10
75.165264996386526
 20
77.992766116628815
 11
75.165264996386526
 21
45.492766116628822
  0
LINE
  8
_0-1_作画層１
  6
DASHED
 62
    7
 10
75.165264996386526
 20
45.492766116628822
 11
87.665264996386526
 21
45.492766116628822
  0
TEXT
  8
_0-7_注記層１
 62
    7
 10
91.790264996386526
 20
33.742766116628815
 40
3.5
 41
1
 50
0
  1
7
  0
TEXT
  8
_0-7_注記層１
 62
    7
 10
109.29026499638653
 20
33.742766116628815
 40
3.5
 41
1
 50
0
  1
6
  0
TEXT
  8
_0-7_注記層１
 62
    7
 10
126.79026499638653
 20
33.742766116628815
 40
3.5
 41
1
 50
0
  1
5
  0
CIRCLE
  8
_0-1_作画層１
  6
CONTINUOUS
 62
    7
 10
182.66526499638653
 20
45.492766116628822
 40
5
  0
LINE
  8
_0-1_作画層１
  6
CONTINUOUS
 62
    7
 10
181.41526499638653
 20
49.867766116628822
 11
183.91526499638653
 21
49.867766116628822
  0
LINE
  8
_0-1_作画層１
  6
CONTINUOUS
 62
    7
 10
183.91526499638653
 20
41.117766116628822
 11
181.41526499638653
 21
41.117766116628822
  0
LINE
  8
_0-1_作画層１
  6
CONTINUOUS
 62
    7
 10
187.04026499638653
 20
46.742766116628822
 11
187.04026499638653
 21
44.242766116628822
  0
LINE
  8
_0-1_作画層１
  6
CONTINUOUS
 62
    7
 10
178.29026499638653
 20
44.242766116628822
 11
178.29026499638653
 21
46.742766116628822
  0
ARC
  8
_0-1_作画層１
  6
CONTINUOUS
 62
    7
 10
180.41526499638655
 20
47.742766116628793
 40
0.9999999999999712
 50
269.99999999999835
 51
0.0000000000012086
  0
LINE
  8
_0-1_作画層１
  6
CONTINUOUS
 62
    7
 10
178.29026499638653
 20
44.242766116628822
 11
180.41526499638653
 21
44.242766116628822
  0
ARC
  8
_0-1_作画層１
  6
CONTINUOUS
 62
    7
 10
180.41526499638655
 20
43.24276611662885
 40
0.9999999999999783
 50
359.99999999999881
 51
90.00000000000162
  0
LINE
  8
_0-1_作画層１
  6
CONTINUOUS
 62
    7
 10
187.04026499638653
 20
46.742766116628822
 11
184.91526499638653
 21
46.742766116628822
  0
ARC
  8
_0-1_作画層１
  6
CONTINUOUS
 62
    7
 10
184.9152649963865
 20
47.742766116628793
 40
0.9999999999999783
 50
179.99999999999878
 51
270.00000000000159
  0
LINE
  8
_0-1_作画層１
  6
CONTINUOUS
 62
    7
 10
180.41526512354312
 20
46.742766116628822
 11
178.29026499638653
 21
46.742766116628822
  0
LINE
  8
_0-1_作画層１
  6
CONTINUOUS
 62
    7
 10
187.04026499638653
 20
44.242766116628822
 11
184.91526499638653
 21
44.242766116628822
  0
LINE
  8
_0-1_作画層１
  6
CONTINUOUS
 62
    7
 10
183.91526499638653
 20
41.117766116628822
 11
183.91526499638653
 21
43.242766116628822
  0
ARC
  8
_0-1_作画層１
  6
CONTINUOUS
 62
    7
 10
184.9152649963865
 20
43.24276611662885
 40
0.9999999999999783
 50
89.99999999999838
 51
180.00000000000122
  0
LINE
  8
_0-1_作画層１
  6
CONTINUOUS
 62
    7
 10
181.41526499638653
 20
47.742766116628808
 11
181.41526499638653
 21
49.867766116628822
  0
LINE
  8
_0-1_作画層１
  6
CONTINUOUS
 62
    7
 10
181.41526499638653
 20
43.242766116628836
 11
181.41526499638653
 21
41.117766116628822
  0
LINE
  8
_0-1_作画層１
  6
CONTINUOUS
 62
    7
 10
183.91526499638653
 20
47.742766116628808
 11
183.91526499638653
 21
49.867766116628822
  0
CIRCLE
  8
_0-1_作画層１
  6
CONTINUOUS
 62
    7
 10
165.16526499638653
 20
45.492766116628822
 40
5
  0
LINE
  8
_0-1_作画層１
  6
CONTINUOUS
 62
    7
 10
163.91526499638653
 20
49.867766116628822
 11
166.41526499638653
 21
49.867766116628822
  0
LINE
  8
_0-1_作画層１
  6
CONTINUOUS
 62
    7
 10
166.41526499638653
 20
41.117766116628822
 11
163.91526499638653
 21
41.117766116628822
  0
LINE
  8
_0-1_作画層１
  6
CONTINUOUS
 62
    7
 10
160.79026499638653
 20
44.242766116628822
 11
160.79026499638653
 21
46.742766116628822
  0
ARC
  8
_0-1_作画層１
  6
CONTINUOUS
 62
    7
 10
162.91526499638655
 20
47.742766116628793
 40
0.9999999999999712
 50
269.99999999999835
 51
0.0000000000012086
  0
LINE
  8
_0-1_作画層１
  6
CONTINUOUS
 62
    7
 10
160.79026499638653
 20
44.242766116628822
 11
162.91526499638653
 21
44.242766116628822
  0
ARC
  8
_0-1_作画層１
  6
CONTINUOUS
 62
    7
 10
162.91526499638655
 20
43.24276611662885
 40
0.9999999999999783
 50
359.99999999999881
 51
90.00000000000162
  0
LINE
  8
_0-1_作画層１
  6
CONTINUOUS
 62
    7
 10
169.54026499638653
 20
46.742766116628822
 11
167.41526499638653
 21
46.742766116628822
  0
ARC
  8
_0-1_作画層１
  6
CONTINUOUS
 62
    7
 10
167.4152649963865
 20
47.742766116628793
 40
0.9999999999999783
 50
179.99999999999878
 51
270.00000000000159
  0
LINE
  8
_0-1_作画層１
  6
CONTINUOUS
 62
    7
 10
162.91526512354312
 20
46.742766116628822
 11
160.79026499638653
 21
46.742766116628822
  0
LINE
  8
_0-1_作画層１
  6
CONTINUOUS
 62
    7
 10
169.54026499638653
 20
44.242766116628822
 11
167.41526499638653
 21
44.242766116628822
  0
LINE
  8
_0-1_作画層１
  6
CONTINUOUS
 62
    7
 10
166.41526499638653
 20
41.117766116628822
 11
166.41526499638653
 21
43.242766116628822
  0
ARC
  8
_0-1_作画層１
  6
CONTINUOUS
 62
    7
 10
167.4152649963865
 20
43.24276611662885
 40
0.9999999999999783
 50
89.99999999999838
 51
180.00000000000122
  0
LINE
  8
_0-1_作画層１
  6
CONTINUOUS
 62
    7
 10
163.91526499638653
 20
47.742766116628808
 11
163.91526499638653
 21
49.867766116628822
  0
LINE
  8
_0-1_作画層１
  6
CONTINUOUS
 62
    7
 10
163.91526499638653
 20
43.242766116628836
 11
163.91526499638653
 21
41.117766116628822
  0
LINE
  8
_0-1_作画層１
  6
CONTINUOUS
 62
    7
 10
166.41526499638653
 20
47.742766116628808
 11
166.41526499638653
 21
49.867766116628822
  0
CIRCLE
  8
_0-1_作画層１
  6
CONTINUOUS
 62
    7
 10
147.66526499638653
 20
45.492766116628822
 40
5
  0
LINE
  8
_0-1_作画層１
  6
CONTINUOUS
 62
    7
 10
146.41526499638653
 20
49.867766116628822
 11
148.91526499638653
 21
49.867766116628822
  0
LINE
  8
_0-1_作画層１
  6
CONTINUOUS
 62
    7
 10
148.91526499638653
 20
41.117766116628822
 11
146.41526499638653
 21
41.117766116628822
  0
LINE
  8
_0-1_作画層１
  6
CONTINUOUS
 62
    7
 10
152.04026499638653
 20
46.742766116628822
 11
152.04026499638653
 21
44.242766116628822
  0
LINE
  8
_0-1_作画層１
  6
CONTINUOUS
 62
    7
 10
143.29026499638653
 20
44.242766116628822
 11
143.29026499638653
 21
46.742766116628822
  0
ARC
  8
_0-1_作画層１
  6
CONTINUOUS
 62
    7
 10
145.41526499638655
 20
47.742766116628793
 40
0.9999999999999712
 50
269.99999999999835
 51
0.0000000000012086
  0
LINE
  8
_0-1_作画層１
  6
CONTINUOUS
 62
    7
 10
143.29026499638653
 20
44.242766116628822
 11
145.41526499638653
 21
44.242766116628822
  0
ARC
  8
_0-1_作画層１
  6
CONTINUOUS
 62
    7
 10
145.41526499638655
 20
43.24276611662885
 40
0.9999999999999783
 50
359.99999999999881
 51
90.00000000000162
  0
LINE
  8
_0-1_作画層１
  6
CONTINUOUS
 62
    7
 10
152.04026499638653
 20
46.742766116628822
 11
149.91526499638653
 21
46.742766116628822
  0
ARC
  8
_0-1_作画層１
  6
CONTINUOUS
 62
    7
 10
149.9152649963865
 20
47.742766116628793
 40
0.9999999999999783
 50
179.99999999999878
 51
270.00000000000159
  0
LINE
  8
_0-1_作画層１
  6
CONTINUOUS
 62
    7
 10
145.41526512354312
 20
46.742766116628822
 11
143.29026499638653
 21
46.742766116628822
  0
LINE
  8
_0-1_作画層１
  6
CONTINUOUS
 62
    7
 10
152.04026499638653
 20
44.242766116628822
 11
149.91526499638653
 21
44.242766116628822
  0
LINE
  8
_0-1_作画層１
  6
CONTINUOUS
 62
    7
 10
148.91526499638653
 20
41.117766116628822
 11
148.91526499638653
 21
43.242766116628822
  0
ARC
  8
_0-1_作画層１
  6
CONTINUOUS
 62
    7
 10
149.9152649963865
 20
43.24276611662885
 40
0.9999999999999783
 50
89.99999999999838
 51
180.00000000000122
  0
LINE
  8
_0-1_作画層１
  6
CONTINUOUS
 62
    7
 10
146.41526499638653
 20
47.742766116628808
 11
146.41526499638653
 21
49.867766116628822
  0
LINE
  8
_0-1_作画層１
  6
CONTINUOUS
 62
    7
 10
146.41526499638653
 20
43.242766116628836
 11
146.41526499638653
 21
41.117766116628822
  0
LINE
  8
_0-1_作画層１
  6
CONTINUOUS
 62
    7
 10
148.91526499638653
 20
47.742766116628808
 11
148.91526499638653
 21
49.867766116628822
  0
CIRCLE
  8
_0-1_作画層１
  6
CONTINUOUS
 62
    7
 10
98.915264996386526
 20
67.992766116628815
 40
1.25
  0
CIRCLE
  8
_0-1_作画層１
  6
CONTINUOUS
 62
    7
 10
108.91526499638653
 20
67.992766116628815
 40
1.25
  0
LINE
  8
_0-1_作画層１
  6
CONTINUOUS
 62
    7
 10
97.665264996386526
 20
67.992766116628815
 11
95.165264996386526
 21
67.992766116628815
  0
LINE
  8
_0-1_作画層１
  6
CONTINUOUS
 62
    7
 10
110.16526499638653
 20
67.992766116628815
 11
112.66526499638653
 21
67.992766116628815
  0
LINE
  8
_0-1_作画層１
  6
CONTINUOUS
 62
    7
 10
95.165264996386526
 20
52.992766116628822
 11
95.165264996386526
 21
67.992766116628815
  0
LINE
  8
_0-1_作画層１
  6
CONTINUOUS
 62
    7
 10
112.66526499638653
 20
52.992766116628822
 11
112.66526499638653
 21
67.992766116628815
  0
LINE
  8
_0-1_作画層１
  6
CONTINUOUS
 62
    7
 10
99.665264996386526
 20
68.992766116628815
 11
107.66526499638653
 21
72.992766116628815
  0
TEXT
  8
_0-7_注記層１
 62
    7
 10
97.290264996386526
 20
76.242766116628815
 40
3.5
 41
1
 50
0
  1
接点出力1
  0
CIRCLE
  8
_0-1_作画層１
  6
CONTINUOUS
 62
    7
 10
133.91526499638653
 20
67.992766116628815
 40
1.25
  0
CIRCLE
  8
_0-1_作画層１
  6
CONTINUOUS
 62
    7
 10
143.91526499638653
 20
67.992766116628815
 40
1.25
  0
LINE
  8
_0-1_作画層１
  6
CONTINUOUS
 62
    7
 10
132.66526499638653
 20
67.992766116628815
 11
130.16526499638653
 21
67.992766116628815
  0
LINE
  8
_0-1_作画層１
  6
CONTINUOUS
 62
    7
 10
145.16526499638653
 20
67.992766116628815
 11
147.66526499638653
 21
67.992766116628815
  0
LINE
  8
_0-1_作画層１
  6
CONTINUOUS
 62
    7
 10
130.16526499638653
 20
52.992766116628822
 11
130.16526499638653
 21
67.992766116628815
  0
LINE
  8
_0-1_作画層１
  6
CONTINUOUS
 62
    7
 10
147.66526499638653
 20
52.992766116628822
 11
147.66526499638653
 21
67.992766116628815
  0
LINE
  8
_0-1_作画層１
  6
CONTINUOUS
 62
    7
 10
134.66526499638653
 20
68.992766116628815
 11
142.66526499638653
 21
72.992766116628815
  0
TEXT
  8
_0-7_注記層１
 62
    7
 10
132.29026499638653
 20
76.242766116628815
 40
3.5
 41
1
 50
0
  1
接点出力2
  0
TEXT
  8
_0-7_注記層１
 62
    7
 10
144.29026499638653
 20
33.742766116628815
 40
3.5
 41
1
 50
0
  1
4
  0
TEXT
  8
_0-7_注記層１
 62
    7
 10
161.79026499638653
 20
33.742766116628815
 40
3.5
 41
1
 50
0
  1
1
  0
CIRCLE
  8
_0-1_作画層１
  6
CONTINUOUS
 62
    7
 10
200.16526499638653
 20
45.492766116628822
 40
5
  0
LINE
  8
_0-1_作画層１
  6
CONTINUOUS
 62
    7
 10
198.91526499638653
 20
49.867766116628822
 11
201.41526499638653
 21
49.867766116628822
  0
LINE
  8
_0-1_作画層１
  6
CONTINUOUS
 62
    7
 10
201.41526499638653
 20
41.117766116628822
 11
198.91526499638653
 21
41.117766116628822
  0
LINE
  8
_0-1_作画層１
  6
CONTINUOUS
 62
    7
 10
204.54026499638653
 20
46.742766116628822
 11
204.54026499638653
 21
44.242766116628822
  0
LINE
  8
_0-1_作画層１
  6
CONTINUOUS
 62
    7
 10
195.79026499638653
 20
44.242766116628822
 11
195.79026499638653
 21
46.742766116628822
  0
ARC
  8
_0-1_作画層１
  6
CONTINUOUS
 62
    7
 10
197.91526499638655
 20
47.742766116628793
 40
0.9999999999999712
 50
269.99999999999835
 51
0.0000000000012086
  0
LINE
  8
_0-1_作画層１
  6
CONTINUOUS
 62
    7
 10
195.79026499638653
 20
44.242766116628822
 11
197.91526499638653
 21
44.242766116628822
  0
ARC
  8
_0-1_作画層１
  6
CONTINUOUS
 62
    7
 10
197.91526499638655
 20
43.24276611662885
 40
0.9999999999999783
 50
359.99999999999881
 51
90.00000000000162
  0
LINE
  8
_0-1_作画層１
  6
CONTINUOUS
 62
    7
 10
204.54026499638653
 20
46.742766116628822
 11
202.41526499638653
 21
46.742766116628822
  0
ARC
  8
_0-1_作画層１
  6
CONTINUOUS
 62
    7
 10
202.4152649963865
 20
47.742766116628793
 40
0.9999999999999783
 50
179.99999999999878
 51
270.00000000000159
  0
LINE
  8
_0-1_作画層１
  6
CONTINUOUS
 62
    7
 10
197.91526512354312
 20
46.742766116628822
 11
195.79026499638653
 21
46.742766116628822
  0
LINE
  8
_0-1_作画層１
  6
CONTINUOUS
 62
    7
 10
204.54026499638653
 20
44.242766116628822
 11
202.41526499638653
 21
44.242766116628822
  0
LINE
  8
_0-1_作画層１
  6
CONTINUOUS
 62
    7
 10
201.41526499638653
 20
41.117766116628822
 11
201.41526499638653
 21
43.242766116628822
  0
ARC
  8
_0-1_作画層１
  6
CONTINUOUS
 62
    7
 10
202.4152649963865
 20
43.24276611662885
 40
0.9999999999999783
 50
89.99999999999838
 51
180.00000000000122
  0
LINE
  8
_0-1_作画層１
  6
CONTINUOUS
 62
    7
 10
198.91526499638653
 20
47.742766116628808
 11
198.91526499638653
 21
49.867766116628822
  0
LINE
  8
_0-1_作画層１
  6
CONTINUOUS
 62
    7
 10
198.91526499638653
 20
43.242766116628836
 11
198.91526499638653
 21
41.117766116628822
  0
LINE
  8
_0-1_作画層１
  6
CONTINUOUS
 62
    7
 10
201.41526499638653
 20
47.742766116628808
 11
201.41526499638653
 21
49.867766116628822
  0
LINE
  8
_0-1_作画層１
  6
CONTINUOUS
 62
    7
 10
207.66526499638653
 20
52.992766116628822
 11
207.66526499638653
 21
37.992766116628815
  0
LINE
  8
_0-1_作画層１
  6
DASHED
 62
    7
 10
220.16526499638653
 20
77.992766116628815
 11
220.16526499638653
 21
45.492766116628822
  0
LINE
  8
_0-1_作画層１
  6
DASHED
 62
    7
 10
220.16526499638653
 20
45.492766116628822
 11
207.66526499638653
 21
45.492766116628822
  0
TEXT
  8
_0-7_注記層１
 62
    7
 10
179.29026499638653
 20
33.742766116628815
 40
3.5
 41
1
 50
0
  1
2
  0
TEXT
  8
_0-7_注記層１
 62
    7
 10
196.79026499638653
 20
33.742766116628815
 40
3.5
 41
1
 50
0
  1
3
  0
LINE
  8
_0-1_作画層１
  6
CONTINUOUS
 62
    7
 10
182.66526499638653
 20
67.992766116628815
 11
182.66526499638653
 21
52.992766116628822
  0
LINE
  8
_0-1_作画層１
  6
CONTINUOUS
 62
    7
 10
200.16526499638653
 20
67.992766116628815
 11
200.16526499638653
 21
52.992766116628822
  0
LINE
  8
_0-1_作画層１
  6
CONTINUOUS
 62
    7
 10
95.165264996386526
 20
30.492766116628815
 11
82.665264996386526
 21
30.492766116628815
  0
LINE
  8
_0-1_作画層１
  6
CONTINUOUS
 62
    7
 10
110.16526499638653
 20
22.992766116628815
 11
112.66526499638653
 21
22.992766116628815
  0
TEXT
  8
_0-7_注記層１
 62
    7
 10
101.66526499638653
 20
21.242766116628815
 40
3.5
 41
1
 50
0
  1
負荷
  0
LINE
  8
_0-1_作画層１
  6
CONTINUOUS
 62
    7
 10
110.16526499638653
 20
20.492766116628815
 11
100.16526499638653
 21
20.492766116628815
  0
LINE
  8
_0-1_作画層１
  6
CONTINUOUS
 62
    7
 10
100.16526499638653
 20
20.492766116628815
 11
100.16526499638653
 21
25.492766116628815
  0
LINE
  8
_0-1_作画層１
  6
CONTINUOUS
 62
    7
 10
100.16526499638653
 20
25.492766116628815
 11
110.16526499638653
 21
25.492766116628815
  0
LINE
  8
_0-1_作画層１
  6
CONTINUOUS
 62
    7
 10
110.16526499638653
 20
25.492766116628815
 11
110.16526499638653
 21
20.492766116628815
  0
LINE
  8
_0-1_作画層１
  6
CONTINUOUS
 62
    7
 10
100.16526499638653
 20
22.992766116628815
 11
82.665264996386526
 21
22.992766116628815
  0
LINE
  8
_0-1_作画層１
  6
CONTINUOUS
 62
    7
 10
95.165264996386526
 20
37.992766116628815
 11
95.165264996386526
 21
30.492766116628815
  0
LINE
  8
_0-1_作画層１
  6
CONTINUOUS
 62
    7
 10
112.66526499638653
 20
37.992766116628815
 11
112.66526499638653
 21
22.992766116628815
  0
TEXT
  8
_0-7_注記層１
 62
    7
 10
63.915264996386526
 20
25.492766116628815
 40
3.5
 41
1
 50
0
  1
負荷用電源
  0
LINE
  8
_0-1_作画層１
  6
CONTINUOUS
 62
    7
 10
130.16526499638653
 20
15.492766116628815
 11
117.66526499638653
 21
15.492766116628815
  0
LINE
  8
_0-1_作画層１
  6
CONTINUOUS
 62
    7
 10
145.16526499638653
 20
7.9927661166288146
 11
147.66526499638653
 21
7.9927661166288146
  0
TEXT
  8
_0-7_注記層１
 62
    7
 10
136.66526499638653
 20
6.2427661166288146
 40
3.5
 41
1
 50
0
  1
負荷
  0
LINE
  8
_0-1_作画層１
  6
CONTINUOUS
 62
    7
 10
145.16526499638653
 20
5.4927661166288146
 11
135.16526499638653
 21
5.4927661166288146
  0
LINE
  8
_0-1_作画層１
  6
CONTINUOUS
 62
    7
 10
135.16526499638653
 20
5.4927661166288146
 11
135.16526499638653
 21
10.492766116628815
  0
LINE
  8
_0-1_作画層１
  6
CONTINUOUS
 62
    7
 10
135.16526499638653
 20
10.492766116628815
 11
145.16526499638653
 21
10.492766116628815
  0
LINE
  8
_0-1_作画層１
  6
CONTINUOUS
 62
    7
 10
145.16526499638653
 20
10.492766116628815
 11
145.16526499638653
 21
5.4927661166288146
  0
LINE
  8
_0-1_作画層１
  6
CONTINUOUS
 62
    7
 10
135.16526499638653
 20
7.9927661166288146
 11
117.66526499638653
 21
7.9927661166288146
  0
TEXT
  8
_0-7_注記層１
 62
    7
 10
98.915264996386526
 20
10.492766116628815
 40
3.5
 41
1
 50
0
  1
負荷用電源
  0
LINE
  8
_0-1_作画層１
  6
CONTINUOUS
 62
    7
 10
130.16526499638653
 20
37.992766116628815
 11
130.16526499638653
 21
15.492766116628815
  0
LINE
  8
_0-1_作画層１
  6
CONTINUOUS
 62
    7
 10
147.66526499638653
 20
37.992766116628815
 11
147.66526499638653
 21
7.9927661166288146
  0
LINE
  8
_0-1_作画層１
  6
CONTINUOUS
 62
    7
 10
157.9777649963865
 20
52.992766116628822
 11
87.665264996386526
 21
52.992766116628822
  0
LINE
  8
_0-1_作画層１
  6
CONTINUOUS
 62
    7
 10
160.47776499638653
 20
52.992766116628822
 11
207.66526499638653
 21
52.992766116628822
  0
LINE
  8
_0-1_作画層１
  6
CONTINUOUS
 62
    7
 10
152.3527649963865
 20
37.992766116628815
 11
87.665264996386526
 21
37.992766116628815
  0
LINE
  8
_0-1_作画層１
  6
CONTINUOUS
 62
    7
 10
154.85276499638653
 20
37.992766116628815
 11
207.66526499638653
 21
37.992766116628815
  0
LINE
  8
_0-1_作画層１
  6
CONTINUOUS
 62
    7
 10
160.47776499638653
 20
52.992766116628822
 11
154.85276499638653
 21
37.992766116628815
  0
LINE
  8
_0-1_作画層１
  6
CONTINUOUS
 62
    7
 10
157.9777649963865
 20
52.992766116628765
 11
152.35276499638653
 21
37.992766116628815
  0
TEXT
  8
_0-0_
 62
    7
 10
187.91526499638655
 20
31.242766116628815
 40
3.5
 41
1
 50
0
  1
電源
  0
TEXT
  8
_0-0_
 62
    7
 10
186.16526499638655
 20
27.742766116628815
 40
3.5
 41
1
 50
0
  1
AC100V
  0
LINE
  8
_0-0_
  6
CONTINUOUS
 62
    7
 10
186.41526499638655
 20
22.992766116628815
 11
182.66526499638655
 21
22.992766116628815
  0
LINE
  8
_0-0_
  6
CONTINUOUS
 62
    7
 10
200.16526499638655
 20
22.992766116628815
 11
196.41526499638655
 21
22.992766116628815
  0
CIRCLE
  8
_0-0_
  6
CONTINUOUS
 62
    7
 10
191.41526499638655
 20
22.992766116628815
 40
5
  0
ARC
  8
_0-0_
  6
CONTINUOUS
 62
    7
 10
189.85276499638655
 20
23.152740583457728
 40
1.5706680362308238
 50
185.84578235473452
 51
354.15421764526542
  0
ARC
  8
_0-0_
  6
CONTINUOUS
 62
    7
 10
192.97776499638655
 20
22.832791649799873
 40
1.5706680362308283
 50
5.8457823547360706
 51
174.15421764526394
  0
LINE
  8
_0-0_
  6
CONTINUOUS
 62
    7
 10
182.66526499638655
 20
22.992766116628815
 11
182.66526499638655
 21
37.992766116628815
  0
LINE
  8
_0-0_
  6
CONTINUOUS
 62
    7
 10
200.16526499638655
 20
22.992766116628815
 11
200.16526499638655
 21
37.992766116628815
  0
CIRCLE
  8
_0-0_
  6
DASHED
 62
    7
 10
191.41526499638655
 20
2.9927661166288146
 40
5
  0
ARC
  8
_0-0_
  6
DASHED
 62
    7
 10
192.97776499638655
 20
2.8327916497998729
 40
1.5706680362308283
 50
5.8457823547360706
 51
174.15421764526394
  0
ARC
  8
_0-0_
  6
DASHED
 62
    7
 10
189.85276499638655
 20
3.152740583457728
 40
1.5706680362308238
 50
185.84578235473452
 51
354.15421764526542
  0
LINE
  8
_0-0_
  6
DASHED
 62
    7
 10
186.41526499638655
 20
2.9927661166288146
 11
182.66526499638655
 21
2.9927661166288146
  0
TEXT
  8
_0-0_
 62
    7
 10
188.1143065008375
 20
12.021486832426916
 40
3.5
 41
1
 50
0
  1
電源
  0
TEXT
  8
_0-0_
 62
    7
 10
186.3643065008375
 20
8.5214868324269162
 40
3.5
 41
1
 50
0
  1
AC200V
  0
LINE
  8
_0-0_
  6
DASHED
 62
    7
 10
200.16526499638655
 20
2.9927661166288146
 11
200.16526499638655
 21
22.992766116628815
  0
LINE
  8
_0-0_
  6
DASHED
 62
    7
 10
182.66526499638655
 20
2.9927661166288146
 11
182.66526499638655
 21
22.992766116628815
  0
LINE
  8
_0-0_
  6
DASHED
 62
    7
 10
200.16526499638655
 20
2.9927661166288146
 11
196.41526499638655
 21
2.9927661166288146
  0
LINE
  8
_0-0_
  6
CONTINUOUS
 62
    7
 10
202.66526499638653
 20
67.992766116628815
 11
202.66526499638653
 21
72.992766116628815
  0
TEXT
  8
_0-0_
 62
    7
 10
181.64211855529479
 20
68.667520799144839
 40
3.5
 41
1
 50
0
  1
内 部 回 路
  0
LINE
  8
_0-0_
  6
CONTINUOUS
 62
    7
 10
180.16526499638653
 20
72.992766116628815
 11
180.16526499638653
 21
67.992766116628815
  0
LINE
  8
_0-0_
  6
CONTINUOUS
 62
    7
 10
202.66526499638653
 20
72.992766116628815
 11
180.16526499638653
 21
72.992766116628815
  0
LINE
  8
_0-0_
  6
CONTINUOUS
 62
    7
 10
180.16526499638653
 20
67.992766116628815
 11
202.66526499638653
 21
67.992766116628815
  0
TEXT
  8
_0-7_注記層１
 62
    7
 10
211
 20
-15.499999999999986
 40
3.5
 41
1
 50
0
  1
2021.03.15
  0
TEXT
  8
_0-0_
 62
    7
 10
211.39999999999998
 20
167.82499999999999
 40
2.2999999999999998
 41
1
 50
90
  1
出力２
  0
TEXT
  8
_0-0_
 62
    7
 10
211.39999999999998
 20
148.44999999999999
 40
2.2999999999999998
 41
1
 50
90
  1
出力１
  0
CIRCLE
  8
_0-1_作画層１
  6
CONTINUOUS
 62
    7
 10
293.56158504655872
 20
1.6813514559570422
 40
2.2223565553895699
  0
CIRCLE
  8
_0-1_作画層１
  6
CONTINUOUS
 62
    7
 10
181.25
 20
188.25
 40
2.25
  0
CIRCLE
  8
_0-1_作画層１
  6
CONTINUOUS
 62
    7
 10
200.75
 20
188.25
 40
1
  0
CIRCLE
  8
_0-1_作画層１
  6
CONTINUOUS
 62
    7
 10
220.25
 20
188.25
 40
2.25
  0
CIRCLE
  8
_0-1_作画層１
  6
CONTINUOUS
 62
    7
 10
181.25
 20
136.25
 40
2.25
  0
CIRCLE
  8
_0-1_作画層１
  6
CONTINUOUS
 62
    7
 10
200.75
 20
136.25
 40
1
  0
CIRCLE
  8
_0-1_作画層１
  6
CONTINUOUS
 62
    7
 10
220.25
 20
136.25
 40
2.25
  0
LINE
  8
_0-1_作画層１
  6
CONTINUOUS
 62
    7
 10
269.75
 20
128.25
 11
337.75
 21
128.25
  0
LINE
  8
_0-1_作画層１
  6
CONTINUOUS
 62
    7
 10
337.75
 20
128.25
 11
337.75
 21
196.25
  0
LINE
  8
_0-1_作画層１
  6
CONTINUOUS
 62
    7
 10
337.75
 20
196.25
 11
269.75
 21
196.25
  0
LINE
  8
_0-1_作画層１
  6
CONTINUOUS
 62
    7
 10
269.75
 20
196.25
 11
269.75
 21
128.25
  0
LINE
  8
_0-1_作画層１
  6
CONTINUOUS
 62
    7
 10
337.75
 20
191.46320343559643
 11
332.96320343559643
 21
196.25
  0
LINE
  8
_0-1_作画層１
  6
CONTINUOUS
 62
    7
 10
337.75
 20
184.39213562373089
 11
325.89213562373089
 21
196.25
  0
LINE
  8
_0-1_作画層１
  6
CONTINUOUS
 62
    7
 10
337.75
 20
177.32106781186542
 11
318.82106781186542
 21
196.25
  0
LINE
  8
_0-1_作画層１
  6
CONTINUOUS
 62
    7
 10
337.75
 20
170.24999999999989
 11
311.74999999999989
 21
196.25
  0
LINE
  8
_0-1_作画層１
  6
CONTINUOUS
 62
    7
 10
337.75
 20
163.17893218813435
 11
304.67893218813441
 21
196.25
  0
LINE
  8
_0-1_作画層１
  6
CONTINUOUS
 62
    7
 10
337.75
 20
156.10786437626888
 11
297.60786437626888
 21
196.25
  0
LINE
  8
_0-1_作画層１
  6
CONTINUOUS
 62
    7
 10
337.75
 20
149.03679656440335
 11
290.5367965644034
 21
196.25
  0
LINE
  8
_0-1_作画層１
  6
CONTINUOUS
 62
    7
 10
337.75
 20
141.96572875253787
 11
283.46572875253787
 21
196.25
  0
LINE
  8
_0-1_作画層１
  6
CONTINUOUS
 62
    7
 10
337.75
 20
134.89466094067234
 11
276.3946609406724
 21
196.25
  0
LINE
  8
_0-1_作画層１
  6
CONTINUOUS
 62
    7
 10
337.32359312880686
 20
128.25
 11
269.75
 21
195.82359312880686
  0
LINE
  8
_0-1_作画層１
  6
CONTINUOUS
 62
    7
 10
330.25252531694133
 20
128.25
 11
269.75
 21
188.75252531694139
  0
LINE
  8
_0-1_作画層１
  6
CONTINUOUS
 62
    7
 10
323.18145750507585
 20
128.25
 11
269.75
 21
181.68145750507585
  0
LINE
  8
_0-1_作画層１
  6
CONTINUOUS
 62
    7
 10
316.11038969321038
 20
128.25
 11
269.75
 21
174.61038969321038
  0
LINE
  8
_0-1_作画層１
  6
CONTINUOUS
 62
    7
 10
309.03932188134485
 20
128.25
 11
269.75
 21
167.53932188134485
  0
LINE
  8
_0-1_作画層１
  6
CONTINUOUS
 62
    7
 10
301.96825406947937
 20
128.25
 11
269.75
 21
160.46825406947937
  0
LINE
  8
_0-1_作画層１
  6
CONTINUOUS
 62
    7
 10
294.89718625761384
 20
128.25
 11
269.75
 21
153.39718625761384
  0
LINE
  8
_0-1_作画層１
  6
CONTINUOUS
 62
    7
 10
287.82611844574836
 20
128.25
 11
269.75
 21
146.32611844574836
  0
LINE
  8
_0-1_作画層１
  6
CONTINUOUS
 62
    7
 10
280.75505063388283
 20
128.25
 11
269.75
 21
139.25505063388283
  0
LINE
  8
_0-1_作画層１
  6
CONTINUOUS
 62
    7
 10
269.75
 20
132.1839828220173
 11
273.6839828220173
 21
128.25
  0
TEXT
  8
_0-7_注記層１
 62
    7
 10
282.25
 20
118.25
 40
5
 41
1
 50
0
  1
パネルカット寸法
  0
LINE
  8
_0-1_作画層１
  6
CONTINUOUS
 62
    7
 10
279.75
 20
118.25
 11
324.75
 21
118.25
  0
LINE
  8
_0-9_寸法線層１
  6
CONTINUOUS
 62
    7
 10
262.25
 20
196.25
 11
262.25
 21
128.25
  0
TEXT
  8
_0-9_寸法線層１
 62
    7
 10
260.64999999999998
 20
157.99001143498856
 40
3
 41
1
 50
90
  1
68
  0
LINE
  8
_0-9_寸法線層１
  6
CONTINUOUS
 62
    7
 10
269.25
 20
196.25
 11
260.25
 21
196.25
  0
LINE
  8
_0-9_寸法線層１
  6
CONTINUOUS
 62
    7
 10
269.25
 20
128.25
 11
260.25
 21
128.25
  0
TEXT
  8
_0-9_寸法線層１
 62
    7
 10
259.14999999999998
 20
161.76646857029613
 40
2.0999999999999996
 41
1
 50
90
  1
+0.8
  0
TEXT
  8
_0-9_寸法線層１
 62
    7
 10
261.25
 20
161.76646857029613
 40
2.0999999999999996
 41
1
 50
90
  1
 0
  0
LINE
  8
_0-9_寸法線層１
  6
CONTINUOUS
 62
    7
 10
337.75
 20
203.25
 11
269.75
 21
203.25
  0
TEXT
  8
_0-9_寸法線層１
 62
    7
 10
299.49001143498862
 20
204.84999999999999
 40
3
 41
1
 50
0
  1
68
  0
LINE
  8
_0-9_寸法線層１
  6
CONTINUOUS
 62
    7
 10
337.75
 20
196.75
 11
337.75
 21
205.25
  0
LINE
  8
_0-9_寸法線層１
  6
CONTINUOUS
 62
    7
 10
269.75
 20
196.75
 11
269.75
 21
205.25
  0
TEXT
  8
_0-9_寸法線層１
 62
    7
 10
303.26646857029613
 20
206.34999999999999
 40
2.0999999999999996
 41
1
 50
0
  1
+0.8
  0
TEXT
  8
_0-9_寸法線層１
 62
    7
 10
303.26646857029613
 20
204.25
 40
2.0999999999999996
 41
1
 50
0
  1
 0
  0
TEXT
  8
_0-0_
 62
    7
 10
248.50464745592052
 20
160.625
 40
3
 41
1
 50
90
  1
52
  0
LINE
  8
_0-0_
  6
CONTINUOUS
 62
    7
 10
249.00464745592052
 20
136.25
 11
249.00464745592052
 21
188.25
  0
LINE
  8
_0-0_
  6
CONTINUOUS
 62
    7
 10
251.00464745592052
 20
136.25
 11
241.75
 21
136.25
  0
LINE
  8
_0-0_
  6
CONTINUOUS
 62
    7
 10
251.00464745592052
 20
188.25
 11
241.75
 21
188.25
  0
TEXT
  8
_0-7_注記層１
 62
    7
 10
231.50464745592052
 20
-0.1101947685325228
 40
3.5
 41
1
 50
0
  1
※取付け具：（図番）ATTACH-001-03　B  参照
  0
ENDSEC
  0
EOF
