  0
SECTION
  2
HEADER
  9
$ACADVER
  1
AC1009
  9
$INSBASE
 10
0
 20
0
 30
0
  9
$EXTMIN
 10
0
 20
0
  9
$EXTMAX
 10
297
 20
210
  9
$LIMMIN
 10
0
 20
0
  9
$LIMMAX
 10
297
 20
210
  9
$LTSCALE
 40
1
  0
ENDSEC
  0
SECTION
  2
TABLES
  0
TABLE
  2
LTYPE
 70
     9
  0
LTYPE
  2
CONTINUOUS
 70
    64
  3
実線
 72
    65
 73
     0
 40
0.0
  0
LTYPE
  2
DASHED1
 70
    64
  3
--  --  --  --  --  --  --  --  
 72
    65
 73
     2
 40
2.5
 49
1.25
 49
-1.25
  0
LTYPE
  2
DASHED2
 70
    64
  3
----    ----    ----    ----    
 72
    65
 73
     2
 40
5.0
 49
2.5
 49
-2.5
  0
LTYPE
  2
DASHED3
 70
    64
  3
------  ------  ------  ------  
 72
    65
 73
     2
 40
5.0
 49
3.75
 49
-1.25
  0
LTYPE
  2
CENTER1
 70
    64
  3
----- - ----- - ----- - ----- - 
 72
    65
 73
     4
 40
10.0
 49
6.25
 49
-1.25
 49
1.25
 49
-1.25
  0
LTYPE
  2
CENTER2
 70
    64
  3
----------  --  ----------  --  
 72
    65
 73
     4
 40
20.0
 49
12.5
 49
-2.5
 49
2.5
 49
-2.5
  0
LTYPE
  2
PHANTOM1
 70
    64
  3
--- - - --- - - --- - - --- - - 
 72
    65
 73
     6
 40
10.0
 49
3.25
 49
-1.25
 49
1.25
 49
-1.25
 49
1.25
 49
-1.25
  0
LTYPE
  2
PHANTOM2
 70
    64
  3
--------  -  -  --------  -  -  
 72
    65
 73
     6
 40
20.0
 49
10.0
 49
-2.5
 49
1.25
 49
-2.5
 49
1.25
 49
-2.5
  0
LTYPE
  2
DOT
 70
    64
  3
-   -   -   -   -   -   -   -   
 72
    65
 73
     2
 40
2.5
 49
0.625
 49
-1.875
  0
LTYPE
  2
DUMMY
 70
    64
  3
ダミー
 72
    65
 73
     0
 40
0.0
  0
LTYPE
  2
RAND1
 70
    64
  3
ランダム線1
 72
    65
 73
     4
 40
10.0
 49
1.0
 49
-2.0
 49
3.0
 49
-4.0
  0
LTYPE
  2
RAND2
 70
    64
  3
ランダム線2
 72
    65
 73
     4
 40
14.0
 49
2.0
 49
-3.0
 49
4.0
 49
-5.0
  0
LTYPE
  2
RAND3
 70
    64
  3
ランダム線3
 72
    65
 73
     4
 40
18.0
 49
3.0
 49
-4.0
 49
5.0
 49
-6.0
  0
LTYPE
  2
RAND4
 70
    64
  3
ランダム線4
 72
    65
 73
     4
 40
22.0
 49
4.0
 49
-5.0
 49
6.0
 49
-7.0
  0
LTYPE
  2
RAND5
 70
    64
  3
ランダム線5
 72
    65
 73
     4
 40
26.0
 49
5.0
 49
-6.0
 49
7.0
 49
-8.0
  0
LTYPE
  2
LONG1
 70
    64
  3
----------  --  ----------  --  
 72
    65
 73
     4
 40
40.0
 49
32.5
 49
-2.5
 49
2.5
 49
-2.5
  0
LTYPE
  2
LONG2
 70
    64
  3
--------  -  -  --------  -  -  
 72
    65
 73
     6
 40
40.0
 49
30.0
 49
-2.5
 49
1.25
 49
-2.5
 49
1.25
 49
-2.5
  0
LTYPE
  2
LONG3
 70
    64
  3
+++++++++++++++..+++++++++++++++
 72
    65
 73
     2
 40
40.0
 49
37.5
 49
-2.5
  0
LTYPE
  2
LONG4
 70
    64
  3
+++++++++++++++..+++++++++++++++
 72
    65
 73
     2
 40
80.0
 49
75.0
 49
-5.0
  0
LTYPE
  2
LONG5
 70
    64
  3
----------  --  ----------  --  
 72
    65
 73
     4
 40
60.0
 49
37.5
 49
-7.5
 49
7.5
 49
-7.5
  0
LTYPE
  2
dashed
 70
   64
  3
-------   -------------   ------
 72
   65
 73
    2
 40
7.5
 49
6
 49
-1.5
  0
LTYPE
  2
dashed_spaced
 70
   64
  3
----        --------        ----
 72
   65
 73
    2
 40
12
 49
6
 49
-6
  0
LTYPE
  2
long_dashed_dotted
 70
   64
  3
------------- --- --------------
 72
   65
 73
    4
 40
15.25
 49
12
 49
-1.5
 49
0.25
 49
-1.5
  0
LTYPE
  2
long_dashed_double-dotted
 70
   64
  3
----------- --- --- ------------
 72
   65
 73
    6
 40
17
 49
12
 49
-1.5
 49
0.25
 49
-1.5
 49
0.25
 49
-1.5
  0
LTYPE
  2
long_dashed_triplicate-dotted
 70
   64
  3
--------- --- --- --- ----------
 72
   65
 73
    8
 40
18.75
 49
12
 49
-1.5
 49
0.25
 49
-1.5
 49
0.25
 49
-1.5
 49
0.25
 49
-1.5
  0
LTYPE
  2
dotted
 70
   64
  3
   -       -       -       -    
 72
   65
 73
    2
 40
1.75
 49
0.25
 49
-1.5
  0
LTYPE
  2
chain
 70
   64
  3
-------------- -- --------------
 72
   65
 73
    4
 40
18.5
 49
12
 49
-1.5
 49
3.5
 49
-1.5
  0
LTYPE
  2
chain_double_dash
 70
   64
  3
------------ -- -- -------------
 72
   65
 73
    6
 40
23.5
 49
12
 49
-1.5
 49
3.5
 49
-1.5
 49
3.5
 49
-1.5
  0
LTYPE
  2
dashed_dotted
 70
   64
  3
-----------     -     ----------
 72
   65
 73
    4
 40
9.25
 49
6
 49
-1.5
 49
0.25
 49
-1.5
  0
LTYPE
  2
double-dashed_dotted
 70
   64
  3
------   -----------   -   -----
 72
   65
 73
    6
 40
16.75
 49
6
 49
-1.5
 49
6
 49
-1.5
 49
0.25
 49
-1.5
  0
LTYPE
  2
dashed_double-dotted
 70
   64
  3
---------    -    -    ---------
 72
   65
 73
    6
 40
11
 49
6
 49
-1.5
 49
0.25
 49
-1.5
 49
0.25
 49
-1.5
  0
LTYPE
  2
double-dashed_double-dotted
 70
   64
  3
-----   ---------   -   -   ----
 72
   65
 73
    8
 40
18.5
 49
6
 49
-1.5
 49
6
 49
-1.5
 49
0.25
 49
-1.5
 49
0.25
 49
-1.5
  0
LTYPE
  2
dashed_triplicate-dotted
 70
   64
  3
-------    -    -    -    ------
 72
   65
 73
    8
 40
12.75
 49
6
 49
-1.5
 49
0.25
 49
-1.5
 49
0.25
 49
-1.5
 49
0.25
 49
-1.5
  0
LTYPE
  2
double-dashed_triplicate-dotted
 70
   64
  3
-----  ---------  -  -  -  -----
 72
   65
 73
   10
 40
20.25
 49
6
 49
-1.5
 49
6
 49
-1.5
 49
0.25
 49
-1.5
 49
0.25
 49
-1.5
 49
0.25
 49
-1.5
  0
LTYPE
  2
undefined
 70
   64
  3
--------------------------------
 72
   65
 73
    0
 40
0
  0
LTYPE
  2
DASHED
 70
   64
  3
----        --------        ----
 72
   65
 73
    2
 40
4
 49
2
 49
-2
  0
LTYPE
  2
DOT_18
 70
   64
  3
---           -----           --
 72
   65
 73
    2
 40
3
 49
1
 49
-2
  0
LTYPE
  2
DASHDOT
 70
   64
  3
---------    ------    ---------
 72
   65
 73
    4
 40
17
 49
10
 49
-2
 49
3
 49
-2
  0
LTYPE
  2
DIVIDE
 70
   64
  3
-----------  --  --  -----------
 72
   65
 73
    6
 40
30
 49
20
 49
-2
 49
2
 49
-2
 49
2
 49
-2
  0
LTYPE
  2
CENTER
 70
   64
  3
-------------  --  -------------
 72
   65
 73
    4
 40
13
 49
10
 49
-1
 49
1
 49
-1
  0
ENDTAB
  0
TABLE
  2
STYLE
  5
3
100
AcDbSymbolTable
 70
     1
  0
STYLE
  5
10
100
AcDbSymbolTableRecord
100
AcDbTextStyleTableRecord
  2
STANDARD
 70
     0
 40
0.0
 41
1.0
 50
0.0
 71
     0
 42
0.2
  3
txt
  4
bigfont.shx
  0
STYLE
  5
26
100
AcDbSymbolTableRecord
100
AcDbTextStyleTableRecord
  2
TATEGAKI
 70
    68
 40
0.0
 41
1.0
 50
0.0
 71
     0
 42
1.0
  3
txt
  4
bigfont.shx
  0
ENDTAB
  0
TABLE
  2
LAYER
 70
    6
  0
LAYER
  2
_0-0_
 70
   64
 62
    7
  6
CONTINUOUS
  0
LAYER
  2
_0-1_作画層１
 70
   64
 62
    7
  6
CONTINUOUS
  0
LAYER
  2
_0-7_注記層１
 70
   64
 62
    7
  6
CONTINUOUS
  0
LAYER
  2
_0-9_寸法線層１
 70
   64
 62
    7
  6
CONTINUOUS
  0
LAYER
  2
_0-d_0_1
 70
   64
 62
    7
  6
CONTINUOUS
  0
LAYER
  2
ADD_LINE
 70
   64
 62
    7
  6
CONTINUOUS
  0
ENDTAB
  0
ENDSEC
  0
SECTION
  2
BLOCKS
  0
BLOCK
  2
-000-_D0
 70
   64
 10
0
 20
0
 30
0
  0
LINE
  8
_0-9_寸法線層１
  6
CONTINUOUS
 62
    7
 10
35.791146666685208
 20
262.11797638436485
 11
107.79110089031802
 21
262.11797638436485
  0
TEXT
  8
_0-9_寸法線層１
 62
    7
 10
69.902895210847831
 20
263.11797638436485
 40
3
 41
1
 50
0
  1
72
  0
LINE
  8
_0-9_寸法線層１
  6
CONTINUOUS
 62
    7
 10
35.791146666685208
 20
251.61796875497032
 11
35.791146666685208
 21
264.11797638436485
  0
LINE
  8
_0-9_寸法線層１
  6
CONTINUOUS
 62
    7
 10
107.79110089031802
 20
251.61800308724571
 11
107.79110089031802
 21
264.11797638436485
  0
ENDBLK
  0
BLOCK
  2
-001-_D1
 70
   64
 10
0
 20
0
 30
0
  0
LINE
  8
_0-9_寸法線層１
  6
CONTINUOUS
 62
    7
 10
26.791123778501614
 20
253.11797256966759
 11
26.791123778501614
 21
181.11801453133751
  0
TEXT
  8
_0-9_寸法線層１
 62
    7
 10
25.791123778501628
 20
215.22976498284876
 40
3
 41
1
 50
90
  1
72
  0
LINE
  8
_0-9_寸法線層１
  6
CONTINUOUS
 62
    7
 10
37.291142851987942
 20
253.11797256966759
 11
24.791123778501614
 21
253.11797256966759
  0
LINE
  8
_0-9_寸法線層１
  6
CONTINUOUS
 62
    7
 10
37.291119963804348
 20
181.11801453133751
 11
24.791123778501614
 21
181.11801453133751
  0
ENDBLK
  0
BLOCK
  2
-002-_D2
 70
   64
 10
0
 20
0
 30
0
  0
LINE
  8
_0-9_寸法線層１
  6
CONTINUOUS
 62
    7
 10
134.29112377850163
 20
262.11797638436485
 11
154.29112377850163
 21
262.11797638436485
  0
TEXT
  8
_0-9_寸法線層１
 62
    7
 10
142.40289521084784
 20
263.11797638436485
 40
3
 41
1
 50
0
  1
20
  0
LINE
  8
_0-9_寸法線層１
  6
CONTINUOUS
 62
    7
 10
134.29112377850163
 20
255.11797638436485
 11
134.29112377850163
 21
264.11797638436485
  0
LINE
  8
_0-9_寸法線層１
  6
CONTINUOUS
 62
    7
 10
154.29112377850163
 20
255.11797638436485
 11
154.29112377850163
 21
264.11797638436485
  0
ENDBLK
  0
BLOCK
  2
-003-_D3
 70
   64
 10
0
 20
0
 30
0
  0
LINE
  8
_0-9_寸法線層１
  6
CONTINUOUS
 62
    7
 10
154.29112377850163
 20
262.11797638436485
 11
182.29114803758679
 21
262.11797638436485
  0
TEXT
  8
_0-9_寸法線層１
 62
    7
 10
166.40290734039044
 20
263.11797638436485
 40
3
 41
1
 50
0
  1
28
  0
LINE
  8
_0-9_寸法線層１
  6
CONTINUOUS
 62
    7
 10
154.29112377850163
 20
255.11797638436485
 11
154.29112377850163
 21
264.11797638436485
  0
LINE
  8
_0-9_寸法線層１
  6
CONTINUOUS
 62
    7
 10
182.29114803758679
 20
251.36798405647278
 11
182.29114803758679
 21
264.11797638436485
  0
ENDBLK
  0
BLOCK
  2
-004-_D4
 70
   64
 10
0
 20
0
 30
0
  0
LINE
  8
_0-9_寸法線層１
  6
CONTINUOUS
 62
    7
 10
200.79114803758679
 20
262.11797638436485
 11
215.42935234615541
 21
262.11797638436485
  0
TEXT
  8
_0-9_寸法線層１
 62
    7
 10
213.15289521084784
 20
263.11797638436485
 40
3
 41
1
 50
0
  1
2
  0
LINE
  8
_0-9_寸法線層１
  6
CONTINUOUS
 62
    7
 10
205.29114803758679
 20
251.36798405647278
 11
205.29114803758679
 21
264.11797638436485
  0
LINE
  8
_0-9_寸法線層１
  6
CONTINUOUS
 62
    7
 10
207.29113563982438
 20
199.36798024177551
 11
207.29113563982438
 21
264.11797638436485
  0
ENDBLK
  0
BLOCK
  2
-005-_D5
 70
   64
 10
0
 20
0
 30
0
  0
LINE
  8
_0-9_寸法線層１
  6
CONTINUOUS
 62
    7
 10
134.29112377850163
 20
269.61797638436485
 11
205.29114803758679
 21
269.61797638436485
  0
TEXT
  8
_0-9_寸法線層１
 62
    7
 10
167.90290734039044
 20
270.61797638436485
 40
3
 41
1
 50
0
  1
71
  0
LINE
  8
_0-9_寸法線層１
  6
CONTINUOUS
 62
    7
 10
134.29112377850163
 20
255.11797638436485
 11
134.29112377850163
 21
271.61797638436485
  0
LINE
  8
_0-9_寸法線層１
  6
CONTINUOUS
 62
    7
 10
205.29114803758679
 20
251.36798405647278
 11
205.29114803758679
 21
271.61797638436485
  0
ENDBLK
  0
BLOCK
  2
-006-_D6
 70
   64
 10
0
 20
0
 30
0
  0
LINE
  8
_0-9_寸法線層１
  6
CONTINUOUS
 62
    7
 10
182.29114803758679
 20
262.11797638436485
 11
205.29114803758679
 21
262.11797638436485
  0
TEXT
  8
_0-9_寸法線層１
 62
    7
 10
190.40291946993301
 20
263.11797638436485
 40
3
 41
1
 50
0
  1
(23)
  0
LINE
  8
_0-9_寸法線層１
  6
CONTINUOUS
 62
    7
 10
182.29114803758679
 20
251.36798405647278
 11
182.29114803758679
 21
264.11797638436485
  0
LINE
  8
_0-9_寸法線層１
  6
CONTINUOUS
 62
    7
 10
205.29114803758679
 20
251.36798405647278
 11
205.29114803758679
 21
264.11797638436485
  0
ENDBLK
  0
BLOCK
  2
-007-_D7
 70
   64
 10
0
 20
0
 30
0
  0
LINE
  8
_0-9_寸法線層１
  6
CONTINUOUS
 62
    7
 10
221.79112377850163
 20
250.86798401375938
 11
221.79112377850163
 21
183.36798019906212
  0
TEXT
  8
_0-9_寸法線層１
 62
    7
 10
220.79112377850163
 20
215.22975353875697
 40
3
 41
1
 50
90
  1
68
  0
LINE
  8
_0-9_寸法線層１
  6
CONTINUOUS
 62
    7
 10
172.79114803758679
 20
250.86798401375938
 11
223.79112377850163
 21
250.86798401375938
  0
LINE
  8
_0-9_寸法線層１
  6
CONTINUOUS
 62
    7
 10
172.79113194433776
 20
183.36798019906212
 11
223.79112377850163
 21
183.36798019906212
  0
ENDBLK
  0
BLOCK
  2
-008-_D8
 70
   64
 10
0
 20
0
 30
0
  0
LINE
  8
_0-9_寸法線層１
  6
CONTINUOUS
 62
    7
 10
329.29112377850163
 20
130.11797638436485
 11
329.29112377850163
 21
62.117976384364852
  0
TEXT
  8
_0-9_寸法線層１
 62
    7
 10
327.69112377850161
 20
90.882987819353417
 40
3
 41
1
 50
90
  1
68±
  0
TEXT
  8
_0-9_寸法線層１
 62
    7
 10
326.19112377850161
 20
97.659444954660984
 40
2.0999999999999996
 41
1
 50
90
  1
0.5
  0
TEXT
  8
_0-9_寸法線層１
 62
    7
 10
328.29112377850163
 20
97.659444954660984
 40
2.0999999999999996
 41
1
 50
90
  1
0
  0
LINE
  8
_0-9_寸法線層１
  6
CONTINUOUS
 62
    7
 10
336.29112377850163
 20
130.11797638436485
 11
327.29112377850163
 21
130.11797638436485
  0
LINE
  8
_0-9_寸法線層１
  6
CONTINUOUS
 62
    7
 10
336.29112377850163
 20
62.117976384364852
 11
327.29112377850163
 21
62.117976384364852
  0
ENDBLK
  0
BLOCK
  2
-009-_D9
 70
   64
 10
0
 20
0
 30
0
  0
LINE
  8
_0-9_寸法線層１
  6
CONTINUOUS
 62
    7
 10
404.79112377850163
 20
137.11797638436485
 11
336.79112377850163
 21
137.11797638436485
  0
TEXT
  8
_0-9_寸法線層１
 62
    7
 10
365.55613521349022
 20
138.71797638436485
 40
3
 41
1
 50
0
  1
68±
  0
TEXT
  8
_0-9_寸法線層１
 62
    7
 10
372.33259234879773
 20
140.21797638436485
 40
2.0999999999999996
 41
1
 50
0
  1
0.5
  0
TEXT
  8
_0-9_寸法線層１
 62
    7
 10
372.33259234879773
 20
138.11797638436485
 40
2.0999999999999996
 41
1
 50
0
  1
0
  0
LINE
  8
_0-9_寸法線層１
  6
CONTINUOUS
 62
    7
 10
404.79112377850163
 20
130.61797638436485
 11
404.79112377850163
 21
139.11797638436485
  0
LINE
  8
_0-9_寸法線層１
  6
CONTINUOUS
 62
    7
 10
336.79112377850163
 20
130.61797638436485
 11
336.79112377850163
 21
139.11797638436485
  0
ENDBLK
  0
ENDSEC
  0
SECTION
  2
ENTITIES
  0
TEXT
  8
_0-7_注記層１
 62
    7
 10
209.75
 20
219.5
 40
3.5
 41
1
 50
0
  1
型　　 　番
  0
TEXT
  8
_0-7_注記層１
 62
    7
 10
209.75
 20
209.5
 40
3.5
 41
1
 50
0
  1
許容電圧変動範囲
  0
TEXT
  8
_0-7_注記層１
 62
    7
 10
209.75
 20
204.5
 40
3.5
 41
1
 50
0
  1
周　　波　　数
  0
TEXT
  8
_0-7_注記層１
 62
    7
 10
209.75
 20
199.5
 40
3.5
 41
1
 50
0
  1
停　電　補　償
  0
TEXT
  8
_0-7_注記層１
 62
    7
 10
209.75
 20
214.5
 40
3.5
 41
1
 50
0
  1
電  源  電  圧
  0
TEXT
  8
_0-7_注記層１
 62
    7
 10
207.25
 20
228.75
 40
5
 41
1
 50
0
  1
規　格
  0
LINE
  8
_0-1_作画層１
  6
CONTINUOUS
 62
    7
 10
204.75
 20
228.75
 11
224.75
 21
228.75
  0
TEXT
  8
_0-7_注記層１
 62
    7
 10
239.625
 20
-15.5
 40
3.5
 41
1
 50
0
  1
1/1
  0
TEXT
  8
_0-7_注記層１
 62
    7
 10
273.75
 20
-13
 40
3.5
 41
1
 50
0
  1
承認
  0
TEXT
  8
_0-7_注記層１
 62
    7
 10
212.25
 20
-26.25
 40
5
 41
1
 50
0
  1
スナオ電気株式会社
  0
LINE
  8
_0-1_作画層１
  6
CONTINUOUS
 62
    7
 10
207.25
 20
-8.75
 11
207.25
 21
-28.75
  0
LINE
  8
_0-1_作画層１
  6
CONTINUOUS
 62
    7
 10
232.25
 20
-8.75
 11
232.25
 21
-18.75
  0
LINE
  8
_0-1_作画層１
  6
CONTINUOUS
 62
    7
 10
252.25
 20
-8.75
 11
252.25
 21
-18.75
  0
LINE
  8
_0-1_作画層１
  6
CONTINUOUS
 62
    7
 10
272.25
 20
-8.75
 11
272.25
 21
-18.75
  0
LINE
  8
_0-1_作画層１
  6
CONTINUOUS
 62
    7
 10
297.25
 20
-28.75
 11
297.25
 21
-8.75
  0
LINE
  8
_0-1_作画層１
  6
CONTINUOUS
 62
    7
 10
352.25
 20
248.75
 11
-45.25
 21
248.75
  0
LINE
  8
_0-1_作画層１
  6
CONTINUOUS
 62
    7
 10
-45.25
 20
-28.75
 11
-45.25
 21
248.75
  0
LINE
  8
_0-1_作画層１
  6
CONTINUOUS
 62
    7
 10
352.25
 20
-28.75
 11
-45.25
 21
-28.75
  0
LINE
  8
_0-1_作画層１
  6
CONTINUOUS
 62
    7
 10
352.25
 20
-8.75
 11
207.25
 21
-8.75
  0
LINE
  8
_0-1_作画層１
  6
CONTINUOUS
 62
    7
 10
352.25
 20
-18.75
 11
207.25
 21
-18.75
  0
LINE
  8
_0-1_作画層１
  6
CONTINUOUS
 62
    7
 10
352.25
 20
-28.75
 11
352.25
 21
248.75
  0
TEXT
  8
_0-7_注記層１
 62
    7
 10
257
 20
-15.5
 40
3.5
 41
1
 50
0
  1
ゴトウ
  0
LINE
  8
_0-1_作画層１
  6
CONTINUOUS
 62
    7
 10
319.75
 20
223.75
 11
207.25
 21
223.75
  0
LINE
  8
_0-1_作画層１
  6
CONTINUOUS
 62
    7
 10
319.75
 20
218.75
 11
207.25
 21
218.75
  0
LINE
  8
_0-1_作画層１
  6
CONTINUOUS
 62
    7
 10
319.75
 20
213.75
 11
207.25
 21
213.75
  0
LINE
  8
_0-1_作画層１
  6
CONTINUOUS
 62
    7
 10
319.75
 20
208.75
 11
207.25
 21
208.75
  0
LINE
  8
_0-1_作画層１
  6
CONTINUOUS
 62
    7
 10
319.75
 20
203.75
 11
207.25
 21
203.75
  0
LINE
  8
_0-1_作画層１
  6
CONTINUOUS
 62
    7
 10
319.75
 20
198.75
 11
207.25
 21
198.75
  0
TEXT
  8
_0-7_注記層１
 62
    7
 10
209.75
 20
189.5
 40
3.5
 41
1
 50
0
  1
使 用 周 囲 温 度
  0
TEXT
  8
_0-7_注記層１
 62
    7
 10
209.75
 20
184.5
 40
3.5
 41
1
 50
0
  1
使 用 周 囲 湿 度
  0
TEXT
  8
_0-7_注記層１
 62
    7
 10
209.75
 20
179.5
 40
3.5
 41
1
 50
0
  1
接　点　定　格
  0
TEXT
  8
_0-7_注記層１
 62
    7
 10
209.75
 20
174.5
 40
3.5
 41
1
 50
0
  1
出　　　　　力
  0
TEXT
  8
_0-7_注記層１
 62
    7
 10
209.75
 20
169.5
 40
3.5
 41
1
 50
0
  1
設　定　回　数
  0
TEXT
  8
_0-7_注記層１
 62
    7
 10
209.75
 20
164.5
 40
3.5
 41
1
 50
0
  1
最 小 設 定 時 間
  0
TEXT
  8
_0-7_注記層１
 62
    7
 10
209.75
 20
159.5
 40
3.5
 41
1
 50
0
  1
時　間　精　度
  0
TEXT
  8
_0-7_注記層１
 62
    7
 10
209.75
 20
154.5
 40
3.5
 41
1
 50
0
  1
消　費　電　力　
  0
TEXT
  8
_0-7_注記層１
 62
    7
 10
209.75
 20
149.5
 40
3.5
 41
1
 50
0
  1
重　　　  　量
  0
TEXT
  8
_0-7_注記層１
 62
    7
 10
209.75
 20
144.5
 40
3.5
 41
1
 50
0
  1
外　形　寸　法
  0
TEXT
  8
_0-7_注記層１
 62
    7
 10
244.75
 20
174.5
 40
3.5
 41
1
 50
0
  1
接点出力（1a）
  0
TEXT
  8
_0-7_注記層１
 62
    7
 10
244.75
 20
179.5
 40
3.5
 41
1
 50
0
  1
抵抗負荷　AC250V  7A
  0
TEXT
  8
_0-7_注記層１
 62
    7
 10
209.75
 20
139.5
 40
3.5
 41
1
 50
0
  1
付　　属　　品
  0
LINE
  8
_0-1_作画層１
  6
CONTINUOUS
 62
    7
 10
319.75
 20
188.75
 11
207.25
 21
188.75
  0
LINE
  8
_0-1_作画層１
  6
CONTINUOUS
 62
    7
 10
319.75
 20
188.75
 11
207.25
 21
188.75
  0
LINE
  8
_0-1_作画層１
  6
CONTINUOUS
 62
    7
 10
319.75
 20
183.75
 11
207.25
 21
183.75
  0
LINE
  8
_0-1_作画層１
  6
CONTINUOUS
 62
    7
 10
319.75
 20
178.75
 11
207.25
 21
178.75
  0
LINE
  8
_0-1_作画層１
  6
CONTINUOUS
 62
    7
 10
319.75
 20
173.75
 11
207.25
 21
173.75
  0
LINE
  8
_0-1_作画層１
  6
CONTINUOUS
 62
    7
 10
319.75
 20
168.75
 11
207.25
 21
168.75
  0
LINE
  8
_0-1_作画層１
  6
CONTINUOUS
 62
    7
 10
319.75
 20
163.75
 11
207.25
 21
163.75
  0
LINE
  8
_0-1_作画層１
  6
CONTINUOUS
 62
    7
 10
319.75
 20
158.75
 11
207.25
 21
158.75
  0
LINE
  8
_0-1_作画層１
  6
CONTINUOUS
 62
    7
 10
319.75
 20
153.75
 11
207.25
 21
153.75
  0
LINE
  8
_0-1_作画層１
  6
CONTINUOUS
 62
    7
 10
319.75
 20
148.75
 11
207.25
 21
148.75
  0
LINE
  8
_0-1_作画層１
  6
CONTINUOUS
 62
    7
 10
319.75
 20
143.75
 11
207.25
 21
143.75
  0
LINE
  8
_0-1_作画層１
  6
CONTINUOUS
 62
    7
 10
319.75
 20
135
 11
207.25
 21
135
  0
LINE
  8
_0-1_作画層１
  6
CONTINUOUS
 62
    7
 10
319.75
 20
193.75
 11
207.25
 21
193.75
  0
LINE
  8
_0-1_作画層１
  6
CONTINUOUS
 62
    7
 10
319.75
 20
193.75
 11
207.25
 21
193.75
  0
TEXT
  8
_0-7_注記層１
 62
    7
 10
209.75
 20
194.5
 40
3.5
 41
1
 50
0
  1
充　電　時　間
  0
TEXT
  8
_0-7_注記層１
 62
    7
 10
244.75
 20
194.5
 40
3.5
 41
1
 50
0
  1
50時間（100％充電に対して）
  0
TEXT
  8
_0-7_注記層１
 62
    7
 10
244.75
 20
159.5
 40
3.5
 41
1
 50
0
  1
±15秒／月（25℃）
  0
LINE
  8
_0-1_作画層１
  6
CONTINUOUS
 62
    7
 10
207.25
 20
223.75
 11
207.25
 21
135
  0
LINE
  8
_0-1_作画層１
  6
CONTINUOUS
 62
    7
 10
242.25
 20
223.75
 11
242.25
 21
135
  0
LINE
  8
_0-1_作画層１
  6
CONTINUOUS
 62
    7
 10
319.75
 20
223.75
 11
319.75
 21
135
  0
TEXT
  8
_0-7_注記層１
 62
    7
 10
244.75
 20
209.5
 40
3.5
 41
1
 50
0
  1
AC85V～AC230V
  0
TEXT
  8
_0-7_注記層１
 62
    7
 10
244.75
 20
164.5
 40
3.5
 41
1
 50
0
  1
30分
  0
TEXT
  8
_0-7_注記層１
 62
    7
 10
244.75
 20
154.5
 40
3.5
 41
1
 50
0
  1
約10VA
  0
TEXT
  8
_0-7_注記層１
 62
    7
 10
244.75
 20
149.5
 40
3.5
 41
1
 50
0
  1
160g
  0
CIRCLE
  8
_0-1_作画層１
  6
CONTINUOUS
 62
    7
 10
94.75
 20
33.75
 40
5
  0
LINE
  8
_0-1_作画層１
  6
CONTINUOUS
 62
    7
 10
93.5
 20
38.125
 11
96
 21
38.125
  0
LINE
  8
_0-1_作画層１
  6
CONTINUOUS
 62
    7
 10
96
 20
29.375
 11
93.5
 21
29.375
  0
LINE
  8
_0-1_作画層１
  6
CONTINUOUS
 62
    7
 10
99.125
 20
35
 11
99.125
 21
32.5
  0
LINE
  8
_0-1_作画層１
  6
CONTINUOUS
 62
    7
 10
90.375
 20
32.5
 11
90.375
 21
35
  0
ARC
  8
_0-1_作画層１
  6
CONTINUOUS
 62
    7
 10
92.500000000000028
 20
35.999999999999986
 40
0.9999999999999712
 50
269.99999999999835
 51
0.0000000000008142
  0
LINE
  8
_0-1_作画層１
  6
CONTINUOUS
 62
    7
 10
90.375
 20
32.5
 11
92.5
 21
32.5
  0
ARC
  8
_0-1_作画層１
  6
CONTINUOUS
 62
    7
 10
92.500000000000028
 20
31.500000000000014
 40
0.9999999999999853
 50
359.9999999999992
 51
90.000000000001634
  0
LINE
  8
_0-1_作画層１
  6
CONTINUOUS
 62
    7
 10
99.125
 20
35
 11
97
 21
35
  0
ARC
  8
_0-1_作画層１
  6
CONTINUOUS
 62
    7
 10
96.999999999999972
 20
35.999999999999986
 40
0.9999999999999853
 50
179.99999999999918
 51
270.00000000000171
  0
LINE
  8
_0-1_作画層１
  6
CONTINUOUS
 62
    7
 10
92.500000127156596
 20
35
 11
90.375
 21
35
  0
LINE
  8
_0-1_作画層１
  6
CONTINUOUS
 62
    7
 10
99.125
 20
32.5
 11
97
 21
32.5
  0
LINE
  8
_0-1_作画層１
  6
CONTINUOUS
 62
    7
 10
96
 20
29.375
 11
96
 21
31.5
  0
ARC
  8
_0-1_作画層１
  6
CONTINUOUS
 62
    7
 10
96.999999999999972
 20
31.500000000000014
 40
0.9999999999999853
 50
89.99999999999838
 51
180.00000000000082
  0
LINE
  8
_0-1_作画層１
  6
CONTINUOUS
 62
    7
 10
93.5
 20
35.999999999999986
 11
93.5
 21
38.125
  0
LINE
  8
_0-1_作画層１
  6
CONTINUOUS
 62
    7
 10
93.5
 20
31.500000000000014
 11
93.5
 21
29.375
  0
LINE
  8
_0-1_作画層１
  6
CONTINUOUS
 62
    7
 10
96
 20
35.999999999999986
 11
96
 21
38.125
  0
CIRCLE
  8
_0-1_作画層１
  6
CONTINUOUS
 62
    7
 10
112.25
 20
33.75
 40
5
  0
LINE
  8
_0-1_作画層１
  6
CONTINUOUS
 62
    7
 10
111
 20
38.125
 11
113.5
 21
38.125
  0
LINE
  8
_0-1_作画層１
  6
CONTINUOUS
 62
    7
 10
113.5
 20
29.375
 11
111
 21
29.375
  0
LINE
  8
_0-1_作画層１
  6
CONTINUOUS
 62
    7
 10
116.625
 20
35
 11
116.625
 21
32.5
  0
LINE
  8
_0-1_作画層１
  6
CONTINUOUS
 62
    7
 10
107.875
 20
32.5
 11
107.875
 21
35
  0
ARC
  8
_0-1_作画層１
  6
CONTINUOUS
 62
    7
 10
110.00000000000003
 20
35.999999999999986
 40
0.9999999999999712
 50
269.99999999999835
 51
0.0000000000008142
  0
LINE
  8
_0-1_作画層１
  6
CONTINUOUS
 62
    7
 10
107.875
 20
32.5
 11
110
 21
32.5
  0
ARC
  8
_0-1_作画層１
  6
CONTINUOUS
 62
    7
 10
110.00000000000003
 20
31.500000000000014
 40
0.9999999999999853
 50
359.9999999999992
 51
90.000000000001634
  0
LINE
  8
_0-1_作画層１
  6
CONTINUOUS
 62
    7
 10
116.625
 20
35
 11
114.5
 21
35
  0
ARC
  8
_0-1_作画層１
  6
CONTINUOUS
 62
    7
 10
114.49999999999997
 20
35.999999999999986
 40
0.9999999999999853
 50
179.99999999999918
 51
270.00000000000171
  0
LINE
  8
_0-1_作画層１
  6
CONTINUOUS
 62
    7
 10
110.0000001271566
 20
35
 11
107.875
 21
35
  0
LINE
  8
_0-1_作画層１
  6
CONTINUOUS
 62
    7
 10
116.625
 20
32.5
 11
114.5
 21
32.5
  0
LINE
  8
_0-1_作画層１
  6
CONTINUOUS
 62
    7
 10
113.5
 20
29.375
 11
113.5
 21
31.5
  0
ARC
  8
_0-1_作画層１
  6
CONTINUOUS
 62
    7
 10
114.49999999999997
 20
31.500000000000014
 40
0.9999999999999853
 50
89.99999999999838
 51
180.00000000000082
  0
LINE
  8
_0-1_作画層１
  6
CONTINUOUS
 62
    7
 10
111
 20
35.999999999999986
 11
111
 21
38.125
  0
LINE
  8
_0-1_作画層１
  6
CONTINUOUS
 62
    7
 10
111
 20
31.500000000000014
 11
111
 21
29.375
  0
LINE
  8
_0-1_作画層１
  6
CONTINUOUS
 62
    7
 10
113.5
 20
35.999999999999986
 11
113.5
 21
38.125
  0
CIRCLE
  8
_0-1_作画層１
  6
CONTINUOUS
 62
    7
 10
129.75
 20
33.75
 40
5
  0
LINE
  8
_0-1_作画層１
  6
CONTINUOUS
 62
    7
 10
128.5
 20
38.125
 11
131
 21
38.125
  0
LINE
  8
_0-1_作画層１
  6
CONTINUOUS
 62
    7
 10
131
 20
29.375
 11
128.5
 21
29.375
  0
LINE
  8
_0-1_作画層１
  6
CONTINUOUS
 62
    7
 10
134.125
 20
35
 11
134.125
 21
32.5
  0
LINE
  8
_0-1_作画層１
  6
CONTINUOUS
 62
    7
 10
125.375
 20
32.5
 11
125.375
 21
35
  0
ARC
  8
_0-1_作画層１
  6
CONTINUOUS
 62
    7
 10
127.50000000000003
 20
35.999999999999986
 40
0.9999999999999712
 50
269.99999999999835
 51
0.0000000000008142
  0
LINE
  8
_0-1_作画層１
  6
CONTINUOUS
 62
    7
 10
125.375
 20
32.5
 11
127.5
 21
32.5
  0
ARC
  8
_0-1_作画層１
  6
CONTINUOUS
 62
    7
 10
127.50000000000003
 20
31.500000000000014
 40
0.9999999999999853
 50
359.9999999999992
 51
90.000000000001634
  0
LINE
  8
_0-1_作画層１
  6
CONTINUOUS
 62
    7
 10
134.125
 20
35
 11
132
 21
35
  0
ARC
  8
_0-1_作画層１
  6
CONTINUOUS
 62
    7
 10
131.99999999999997
 20
35.999999999999986
 40
0.9999999999999853
 50
179.99999999999918
 51
270.00000000000171
  0
LINE
  8
_0-1_作画層１
  6
CONTINUOUS
 62
    7
 10
127.5000001271566
 20
35
 11
125.375
 21
35
  0
LINE
  8
_0-1_作画層１
  6
CONTINUOUS
 62
    7
 10
134.125
 20
32.5
 11
132
 21
32.5
  0
LINE
  8
_0-1_作画層１
  6
CONTINUOUS
 62
    7
 10
131
 20
29.375
 11
131
 21
31.5
  0
ARC
  8
_0-1_作画層１
  6
CONTINUOUS
 62
    7
 10
131.99999999999997
 20
31.500000000000014
 40
0.9999999999999853
 50
89.99999999999838
 51
180.00000000000082
  0
LINE
  8
_0-1_作画層１
  6
CONTINUOUS
 62
    7
 10
128.5
 20
35.999999999999986
 11
128.5
 21
38.125
  0
LINE
  8
_0-1_作画層１
  6
CONTINUOUS
 62
    7
 10
128.5
 20
31.500000000000014
 11
128.5
 21
29.375
  0
LINE
  8
_0-1_作画層１
  6
CONTINUOUS
 62
    7
 10
131
 20
35.999999999999986
 11
131
 21
38.125
  0
CIRCLE
  8
_0-1_作画層１
  6
CONTINUOUS
 62
    7
 10
147.25
 20
33.75
 40
5
  0
LINE
  8
_0-1_作画層１
  6
CONTINUOUS
 62
    7
 10
146
 20
38.125
 11
148.5
 21
38.125
  0
LINE
  8
_0-1_作画層１
  6
CONTINUOUS
 62
    7
 10
148.5
 20
29.375
 11
146
 21
29.375
  0
LINE
  8
_0-1_作画層１
  6
CONTINUOUS
 62
    7
 10
151.625
 20
35
 11
151.625
 21
32.5
  0
LINE
  8
_0-1_作画層１
  6
CONTINUOUS
 62
    7
 10
142.875
 20
32.5
 11
142.875
 21
35
  0
ARC
  8
_0-1_作画層１
  6
CONTINUOUS
 62
    7
 10
145.00000000000003
 20
35.999999999999986
 40
0.9999999999999712
 50
269.99999999999835
 51
0.0000000000008142
  0
LINE
  8
_0-1_作画層１
  6
CONTINUOUS
 62
    7
 10
142.875
 20
32.5
 11
145
 21
32.5
  0
ARC
  8
_0-1_作画層１
  6
CONTINUOUS
 62
    7
 10
145.00000000000003
 20
31.500000000000014
 40
0.9999999999999853
 50
359.9999999999992
 51
90.000000000001634
  0
LINE
  8
_0-1_作画層１
  6
CONTINUOUS
 62
    7
 10
151.625
 20
35
 11
149.5
 21
35
  0
ARC
  8
_0-1_作画層１
  6
CONTINUOUS
 62
    7
 10
149.49999999999997
 20
35.999999999999986
 40
0.9999999999999853
 50
179.99999999999918
 51
270.00000000000171
  0
LINE
  8
_0-1_作画層１
  6
CONTINUOUS
 62
    7
 10
145.0000001271566
 20
35
 11
142.875
 21
35
  0
LINE
  8
_0-1_作画層１
  6
CONTINUOUS
 62
    7
 10
151.625
 20
32.5
 11
149.5
 21
32.5
  0
LINE
  8
_0-1_作画層１
  6
CONTINUOUS
 62
    7
 10
148.5
 20
29.375
 11
148.5
 21
31.5
  0
ARC
  8
_0-1_作画層１
  6
CONTINUOUS
 62
    7
 10
149.49999999999997
 20
31.500000000000014
 40
0.9999999999999853
 50
89.99999999999838
 51
180.00000000000082
  0
LINE
  8
_0-1_作画層１
  6
CONTINUOUS
 62
    7
 10
146
 20
35.999999999999986
 11
146
 21
38.125
  0
LINE
  8
_0-1_作画層１
  6
CONTINUOUS
 62
    7
 10
146
 20
31.500000000000014
 11
146
 21
29.375
  0
LINE
  8
_0-1_作画層１
  6
CONTINUOUS
 62
    7
 10
148.5
 20
35.999999999999986
 11
148.5
 21
38.125
  0
LINE
  8
_0-1_作画層１
  6
CONTINUOUS
 62
    7
 10
87.25
 20
41.25
 11
154.75
 21
41.25
  0
LINE
  8
_0-1_作画層１
  6
CONTINUOUS
 62
    7
 10
154.75
 20
41.25
 11
154.75
 21
26.25
  0
LINE
  8
_0-1_作画層１
  6
CONTINUOUS
 62
    7
 10
154.75
 20
26.25
 11
87.25
 21
26.25
  0
LINE
  8
_0-1_作画層１
  6
CONTINUOUS
 62
    7
 10
87.25
 20
26.25
 11
87.25
 21
41.25
  0
LINE
  8
_0-1_作画層１
  6
CONTINUOUS
 62
    7
 10
147.25
 20
18.75
 11
159.75
 21
18.75
  0
CIRCLE
  8
_0-1_作画層１
  6
CONTINUOUS
 62
    7
 10
103.5
 20
11.25
 40
5
  0
ARC
  8
_0-1_作画層１
  6
CONTINUOUS
 62
    7
 10
101.9375
 20
11.409974466828913
 40
1.5706680362308238
 50
185.84578235473452
 51
354.15421764526542
  0
ARC
  8
_0-1_作画層１
  6
CONTINUOUS
 62
    7
 10
105.0625
 20
11.090025533171058
 40
1.5706680362308283
 50
5.8457823547360706
 51
174.15421764526394
  0
LINE
  8
_0-1_作画層１
  6
CONTINUOUS
 62
    7
 10
98.5
 20
11.25
 11
94.75
 21
11.25
  0
LINE
  8
_0-1_作画層１
  6
CONTINUOUS
 62
    7
 10
112.25
 20
11.25
 11
108.5
 21
11.25
  0
LINE
  8
_0-1_作画層１
  6
CONTINUOUS
 62
    7
 10
132.25
 20
11.25
 11
129.75
 21
11.25
  0
TEXT
  8
_0-7_注記層１
 62
    7
 10
98.75
 20
2
 40
3.5
 41
1
 50
0
  1
電源
  0
TEXT
  8
_0-7_注記層１
 62
    7
 10
92.625
 20
-1.5
 40
3.5
 41
1
 50
0
  1
AC100V-200V
  0
TEXT
  8
_0-7_注記層１
 62
    7
 10
133.75
 20
9.5
 40
3.5
 41
1
 50
0
  1
負荷
  0
LINE
  8
_0-1_作画層１
  6
CONTINUOUS
 62
    7
 10
132.25
 20
8.75
 11
142.25
 21
8.75
  0
LINE
  8
_0-1_作画層１
  6
CONTINUOUS
 62
    7
 10
142.25
 20
8.75
 11
142.25
 21
13.75
  0
LINE
  8
_0-1_作画層１
  6
CONTINUOUS
 62
    7
 10
142.25
 20
13.75
 11
132.25
 21
13.75
  0
LINE
  8
_0-1_作画層１
  6
CONTINUOUS
 62
    7
 10
132.25
 20
13.75
 11
132.25
 21
8.75
  0
LINE
  8
_0-1_作画層１
  6
CONTINUOUS
 62
    7
 10
142.25
 20
11.25
 11
159.75
 21
11.25
  0
CIRCLE
  8
_0-1_作画層１
  6
CONTINUOUS
 62
    7
 10
133.5
 20
56.25
 40
1.25
  0
CIRCLE
  8
_0-1_作画層１
  6
CONTINUOUS
 62
    7
 10
143.5
 20
56.25
 40
1.25
  0
LINE
  8
_0-1_作画層１
  6
CONTINUOUS
 62
    7
 10
132.25
 20
56.25
 11
129.75
 21
56.25
  0
LINE
  8
_0-1_作画層１
  6
CONTINUOUS
 62
    7
 10
144.75
 20
56.25
 11
147.25
 21
56.25
  0
TEXT
  8
_0-7_注記層１
 62
    7
 10
96.5
 20
54.5
 40
3.5
 41
1
 50
0
  1
内部回路
  0
LINE
  8
_0-1_作画層１
  6
CONTINUOUS
 62
    7
 10
92.25
 20
53.75
 11
114.75
 21
53.75
  0
LINE
  8
_0-1_作画層１
  6
CONTINUOUS
 62
    7
 10
114.75
 20
53.75
 11
114.75
 21
58.75
  0
LINE
  8
_0-1_作画層１
  6
CONTINUOUS
 62
    7
 10
114.75
 20
58.75
 11
92.25
 21
58.75
  0
LINE
  8
_0-1_作画層１
  6
CONTINUOUS
 62
    7
 10
92.25
 20
58.75
 11
92.25
 21
53.75
  0
LINE
  8
_0-1_作画層１
  6
CONTINUOUS
 62
    7
 10
129.75
 20
41.25
 11
129.75
 21
56.25
  0
LINE
  8
_0-1_作画層１
  6
CONTINUOUS
 62
    7
 10
147.25
 20
41.25
 11
147.25
 21
56.25
  0
LINE
  8
_0-1_作画層１
  6
CONTINUOUS
 62
    7
 10
94.75
 20
41.25
 11
94.75
 21
53.75
  0
LINE
  8
_0-1_作画層１
  6
CONTINUOUS
 62
    7
 10
112.25
 20
41.25
 11
112.25
 21
53.75
  0
LINE
  8
_0-1_作画層１
  6
CONTINUOUS
 62
    7
 10
94.75
 20
26.25
 11
94.75
 21
11.25
  0
LINE
  8
_0-1_作画層１
  6
CONTINUOUS
 62
    7
 10
112.25
 20
26.25
 11
112.25
 21
11.25
  0
LINE
  8
_0-1_作画層１
  6
CONTINUOUS
 62
    7
 10
147.25
 20
26.25
 11
147.25
 21
18.75
  0
LINE
  8
_0-1_作画層１
  6
CONTINUOUS
 62
    7
 10
129.75
 20
26.25
 11
129.75
 21
11.25
  0
TEXT
  8
_0-7_注記層１
 62
    7
 10
161
 20
13.75
 40
3.5
 41
1
 50
0
  1
負荷用電源
  0
LINE
  8
_0-1_作画層１
  6
CONTINUOUS
 62
    7
 10
134.25
 20
57.25
 11
142.25
 21
61.25
  0
TEXT
  8
_0-7_注記層１
 62
    7
 10
132.75
 20
64.5
 40
3.5
 41
1
 50
0
  1
接点出力
  0
LINE
  8
_0-1_作画層１
  6
CONTINUOUS
 62
    7
 10
94.75
 20
73.75
 11
119.75
 21
73.75
  0
TEXT
  8
_0-7_注記層１
 62
    7
 10
97.25
 20
73.75
 40
5
 41
1
 50
0
  1
端子接続
  0
LINE
  8
_0-1_作画層１
  6
DASHED
 62
    7
 10
167.25
 20
66.25
 11
167.25
 21
33.75
  0
LINE
  8
_0-1_作画層１
  6
DASHED
 62
    7
 10
167.25
 20
33.75
 11
154.75
 21
33.75
  0
LINE
  8
_0-1_作画層１
  6
DASHED
 62
    7
 10
74.75
 20
66.25
 11
74.75
 21
33.75
  0
LINE
  8
_0-1_作画層１
  6
DASHED
 62
    7
 10
74.75
 20
33.75
 11
87.25
 21
33.75
  0
TEXT
  8
_0-7_注記層１
 62
    7
 10
-17.75
 20
233.75
 40
5
 41
1
 50
0
  1
外形寸法
  0
LINE
  8
_0-1_作画層１
  6
CONTINUOUS
 62
    7
 10
-20.25
 20
233.75
 11
4.75
 21
233.75
  0
LINE
  8
_0-1_作画層１
  6
CONTINUOUS
 62
    7
 10
14.644435197988628
 20
207.30591698189903
 11
15.004175693670391
 21
201.81765099068809
  0
LINE
  8
_0-1_作画層１
  6
CONTINUOUS
 62
    7
 10
12.755848080793498
 20
207.11986656685997
 11
13.473780543485759
 21
201.66691704293419
  0
LINE
  8
_0-1_作画層１
  6
CONTINUOUS
 62
    7
 10
10.883516223112224
 20
206.81073685189415
 11
11.956490904966472
 21
201.41645737191368
  0
LINE
  8
_0-1_作画層１
  6
CONTINUOUS
 62
    7
 10
9.035348326841472
 20
206.37984200020958
 11
10.458877474943279
 21
201.06724281808067
  0
LINE
  8
_0-1_作画層１
  6
CONTINUOUS
 62
    7
 10
7.2193845817242845
 20
205.82893295785118
 11
8.987273604551433
 21
200.62082787057091
  0
LINE
  8
_0-1_作画層１
  6
CONTINUOUS
 62
    7
 10
5.443297774473308
 20
205.16047401925255
 11
7.5480493613873705
 21
200.07914848824669
  0
LINE
  8
_0-1_作画層１
  6
CONTINUOUS
 62
    7
 10
3.7147687980328783
 20
204.37728615304161
 11
6.1473287650738939
 21
199.44451256295372
  0
LINE
  8
_0-1_作画層１
  6
CONTINUOUS
 62
    7
 10
2.0411390372906908
 20
203.48274155160118
 11
4.7911209174786791
 21
198.71958084603477
  0
LINE
  8
_0-1_作画層１
  6
CONTINUOUS
 62
    7
 10
0.4296087333356126
 20
202.48060532113243
 11
3.4852193900738939
 21
197.90749474068809
  0
LINE
  8
_0-1_作画層１
  6
CONTINUOUS
 62
    7
 10
2.2352212974225267
 20
197.01177902718712
 11
-1.1129575661028639
 21
201.37521667977501
  0
LINE
  8
_0-1_作画層１
  6
CONTINUOUS
 62
    7
 10
-2.5798879555071608
 20
200.17133446236778
 11
1.0464834281598314
 21
196.0362388660543
  0
LINE
  8
_0-1_作画層１
  6
CONTINUOUS
 62
    7
 10
-3.964966385682942
 20
198.87410278817345
 11
-0.0758863380755201
 21
194.98499603768516
  0
LINE
  8
_0-1_作画層１
  6
CONTINUOUS
 62
    7
 10
-5.262207596620442
 20
197.4890148212545
 11
-1.1270852974261061
 21
193.86259098550011
  0
LINE
  8
_0-1_作画層１
  6
CONTINUOUS
 62
    7
 10
-6.4661336830462233
 20
196.02203865548302
 11
-2.1026864937151686
 21
192.67386932870079
  0
LINE
  8
_0-1_作画層１
  6
CONTINUOUS
 62
    7
 10
-7.5714784553850905
 20
194.47953529854942
 11
-2.998404114564778
 21
191.42388077279259
  0
LINE
  8
_0-1_作画層１
  6
CONTINUOUS
 62
    7
 10
-8.5736146858538405
 20
192.86800499459434
 11
-3.8104730537737623
 21
190.11798782845665
  0
LINE
  8
_0-1_作画層１
  6
CONTINUOUS
 62
    7
 10
-9.4681669166888014
 20
191.19436569710899
 11
-4.5353780678118483
 21
188.7617370655172
  0
LINE
  8
_0-1_作画層１
  6
CONTINUOUS
 62
    7
 10
-10.9198327949847
 20
187.68973274727989
 11
-5.711762039979817
 21
185.92180033227135
  0
LINE
  8
_0-1_作画層１
  6
CONTINUOUS
 62
    7
 10
-10.251373856386067
 20
189.46578522225548
 11
-5.1700387886370436
 21
187.36104221841026
  0
LINE
  8
_0-1_作画層１
  6
CONTINUOUS
 62
    7
 10
-11.470734207948567
 20
185.87375183602501
 11
-6.158133118471028
 21
184.45023174782921
  0
LINE
  8
_0-1_作画層１
  6
CONTINUOUS
 62
    7
 10
-11.901671021303059
 20
184.02561016579796
 11
-6.5073133400286451
 21
182.95257444878746
  0
LINE
  8
_0-1_作画層１
  6
CONTINUOUS
 62
    7
 10
-12.210766403993489
 20
182.15321703454185
 11
-6.7577997139300123
 21
181.43536348839928
  0
LINE
  8
_0-1_作画層１
  6
CONTINUOUS
 62
    7
 10
-12.396799652894856
 20
180.26464744111229
 11
-6.9085679939593092
 21
179.90495069523979
  0
LINE
  8
_0-1_作画層１
  6
CONTINUOUS
 62
    7
 10
45.479003340879544
 20
180.26466496487785
 11
39.990788848081692
 21
179.90498574277092
  0
LINE
  8
_0-1_作画層１
  6
CONTINUOUS
 62
    7
 10
45.292994887510403
 20
182.15327830811668
 11
39.840047270933255
 21
181.43532844086815
  0
LINE
  8
_0-1_作画層１
  6
CONTINUOUS
 62
    7
 10
44.983884246030911
 20
184.02558393975426
 11
39.589570433775052
 21
182.95260925790001
  0
LINE
  8
_0-1_作画層１
  6
CONTINUOUS
 62
    7
 10
44.552964598814114
 20
185.87371702691246
 11
39.240373046079739
 21
184.45023174782921
  0
LINE
  8
_0-1_作画層１
  6
CONTINUOUS
 62
    7
 10
44.002097518125638
 20
187.68973274727989
 11
38.793958098569973
 21
185.92183514138389
  0
LINE
  8
_0-1_作画層１
  6
CONTINUOUS
 62
    7
 10
43.333596617857083
 20
189.46581097146202
 11
38.252278716245755
 21
187.36105080147911
  0
LINE
  8
_0-1_作画層１
  6
CONTINUOUS
 62
    7
 10
42.550406844297513
 20
191.1943485309713
 11
37.617625624815091
 21
188.76177139779259
  0
LINE
  8
_0-1_作画層１
  6
CONTINUOUS
 62
    7
 10
41.655854613462552
 20
192.86798687478233
 11
36.892711074033841
 21
190.1179792453878
  0
LINE
  8
_0-1_作画層１
  6
CONTINUOUS
 62
    7
 10
40.653735549131497
 20
194.47950096627403
 11
36.080632598081692
 21
191.4238988926046
  0
LINE
  8
_0-1_作画層１
  6
CONTINUOUS
 62
    7
 10
35.184909255186184
 20
192.67387886544395
 11
39.548354537168606
 21
196.02206535836388
  0
LINE
  8
_0-1_作画層１
  6
CONTINUOUS
 62
    7
 10
38.344464690366848
 20
197.48898811837364
 11
34.209351927915677
 21
193.8626081516378
  0
LINE
  8
_0-1_作画層１
  6
CONTINUOUS
 62
    7
 10
37.047213942686184
 20
198.87408371468712
 11
33.158126265684231
 21
194.984986500942
  0
LINE
  8
_0-1_作画層１
  6
CONTINUOUS
 62
    7
 10
35.662145049253567
 20
200.17132492562462
 11
32.035720259824856
 21
196.03622932931114
  0
LINE
  8
_0-1_作画層１
  6
CONTINUOUS
 62
    7
 10
34.195168883482083
 20
201.37522430916954
 11
30.846999556699856
 21
197.01178665658165
  0
LINE
  8
_0-1_作画層１
  6
CONTINUOUS
 62
    7
 10
32.652648360410794
 20
202.48058815499473
 11
29.596984297910794
 21
197.90748520394493
  0
LINE
  8
_0-1_作画層１
  6
CONTINUOUS
 62
    7
 10
31.041099936643704
 20
203.48270721932579
 11
28.291118056455716
 21
198.71957321664024
  0
LINE
  8
_0-1_作画層１
  6
CONTINUOUS
 62
    7
 10
29.367487342039212
 20
204.37726707955528
 11
26.934893042722805
 21
199.44446869393516
  0
LINE
  8
_0-1_作画層１
  6
CONTINUOUS
 62
    7
 10
25.862871558347805
 20
205.82893295785118
 11
24.094938666502102
 21
200.6208622028463
  0
LINE
  8
_0-1_作画層１
  6
CONTINUOUS
 62
    7
 10
27.638924033323391
 20
205.16047401925255
 11
25.534171492735013
 21
200.07914848824669
  0
LINE
  8
_0-1_作画層１
  6
CONTINUOUS
 62
    7
 10
24.046820552030667
 20
206.3798782398336
 11
22.623370082059964
 21
201.06723328133751
  0
LINE
  8
_0-1_作画層１
  6
CONTINUOUS
 62
    7
 10
22.198748976865872
 20
206.81075401803184
 11
21.125739009061917
 21
201.41640587350059
  0
LINE
  8
_0-1_作画層１
  6
CONTINUOUS
 62
    7
 10
20.32636442867863
 20
207.11986656685997
 11
19.608502061048625
 21
201.66690941353966
  0
LINE
  8
_0-1_作画層１
  6
CONTINUOUS
 62
    7
 10
18.437829763570903
 20
207.30586357613731
 11
18.078080565611003
 21
201.81768532296348
  0
LINE
  8
_0-1_作画層１
  6
CONTINUOUS
 62
    7
 10
18.437812359014629
 20
149.43006248971153
 11
18.078071863332866
 21
154.91832085152794
  0
LINE
  8
_0-1_作画層１
  6
CONTINUOUS
 62
    7
 10
20.326373250166057
 20
149.61608620186973
 11
19.608467013517497
 21
155.06905289193321
  0
LINE
  8
_0-1_作画層１
  6
CONTINUOUS
 62
    7
 10
22.198731333891018
 20
149.92522545357872
 11
21.12575665203677
 21
155.31951256295372
  0
LINE
  8
_0-1_作画層１
  6
CONTINUOUS
 62
    7
 10
24.046882064024075
 20
150.35614510079552
 11
22.623370082059964
 21
155.66872711678673
  0
LINE
  8
_0-1_作画層１
  6
CONTINUOUS
 62
    7
 10
25.862845809141263
 20
150.90701981087852
 11
24.094973952451809
 21
156.11514206429649
  0
LINE
  8
_0-1_作画層１
  6
CONTINUOUS
 62
    7
 10
27.638932616392239
 20
151.57547874947716
 11
25.534198195615872
 21
156.65682144662071
  0
LINE
  8
_0-1_作画層１
  6
CONTINUOUS
 62
    7
 10
29.367478758970364
 20
152.35868568917442
 11
26.934918791929348
 21
157.29145737191368
  0
LINE
  8
_0-1_作画層１
  6
CONTINUOUS
 62
    7
 10
31.041125685850247
 20
153.25326462289024
 11
28.291126639524563
 21
158.01638908883263
  0
LINE
  8
_0-1_作画層１
  6
CONTINUOUS
 62
    7
 10
32.65263882366763
 20
154.25536461373497
 11
29.597028166929348
 21
158.8284751941793
  0
LINE
  8
_0-1_作画層１
  6
CONTINUOUS
 62
    7
 10
30.847026259580716
 20
159.72419090768028
 11
34.195195586362942
 21
155.3607360889547
  0
LINE
  8
_0-1_作画層１
  6
CONTINUOUS
 62
    7
 10
35.662135512510403
 20
156.56463547249962
 11
32.035764128843411
 21
160.69973106881309
  0
LINE
  8
_0-1_作画層１
  6
CONTINUOUS
 62
    7
 10
37.047213942686184
 20
157.86190338631798
 11
33.158133895078763
 21
161.75097389718223
  0
LINE
  8
_0-1_作画層１
  6
CONTINUOUS
 62
    7
 10
38.344455153623684
 20
159.2469551136129
 11
34.209332854429348
 21
162.87337990304161
  0
LINE
  8
_0-1_作画層１
  6
CONTINUOUS
 62
    7
 10
39.548371703306302
 20
160.71393890877891
 11
35.184934050718411
 21
164.06210060616661
  0
LINE
  8
_0-1_作画層１
  6
CONTINUOUS
 62
    7
 10
40.653769881406888
 20
162.25645180245567
 11
36.08065167156802
 21
165.31208916207481
  0
LINE
  8
_0-1_作画層１
  6
CONTINUOUS
 62
    7
 10
41.655818373838528
 20
163.86800022622276
 11
36.892720610777005
 21
166.61798210641075
  0
LINE
  8
_0-1_作画層１
  6
CONTINUOUS
 62
    7
 10
42.550406844297513
 20
165.54161282082725
 11
37.617625624815091
 21
167.97423382302452
  0
LINE
  8
_0-1_作画層１
  6
CONTINUOUS
 62
    7
 10
44.002089888731106
 20
169.04623718758751
 11
38.794009596983059
 21
170.81417007943321
  0
LINE
  8
_0-1_作画層１
  6
CONTINUOUS
 62
    7
 10
43.333621413389309
 20
167.27015896340538
 11
38.252286345640286
 21
169.37492867013145
  0
LINE
  8
_0-1_作画層１
  6
CONTINUOUS
 62
    7
 10
44.552928359190091
 20
170.86223574181724
 11
39.24038067547427
 21
172.28573866387535
  0
LINE
  8
_0-1_作画層１
  6
CONTINUOUS
 62
    7
 10
44.983901412168606
 20
172.71035976906944
 11
39.589560897031888
 21
173.7833959629171
  0
LINE
  8
_0-1_作画層１
  6
CONTINUOUS
 62
    7
 10
45.292994887510403
 20
174.582718091213
 11
39.840047270933255
 21
175.30060692330528
  0
LINE
  8
_0-1_作画層１
  6
CONTINUOUS
 62
    7
 10
45.479047209898098
 20
176.47132285138298
 11
39.990815550962552
 21
176.83101959725548
  0
LINE
  8
_0-1_作画層１
  6
CONTINUOUS
 62
    7
 10
-12.396772950013997
 20
176.47131414910484
 11
-6.9085412910784498
 21
176.83098454972435
  0
LINE
  8
_0-1_作画層１
  6
CONTINUOUS
 62
    7
 10
-12.210766403993489
 20
174.58270950814415
 11
-6.7577997139300123
 21
175.30064173241783
  0
LINE
  8
_0-1_作画層１
  6
CONTINUOUS
 62
    7
 10
-11.901627152284505
 20
172.71037741204429
 11
-6.5073228767718092
 21
173.78336115380455
  0
LINE
  8
_0-1_作画層１
  6
CONTINUOUS
 62
    7
 10
-11.470741837343098
 20
170.86223574181724
 11
-6.1581254890764967
 21
172.28573866387535
  0
LINE
  8
_0-1_作画層１
  6
CONTINUOUS
 62
    7
 10
-10.9198327949847
 20
169.04624577065636
 11
-5.7117105415667311
 21
170.81413527032066
  0
LINE
  8
_0-1_作画層１
  6
CONTINUOUS
 62
    7
 10
-10.251366226991536
 20
167.27015038033653
 11
-5.1700311592425123
 21
169.37491913338829
  0
LINE
  8
_0-1_作画層１
  6
CONTINUOUS
 62
    7
 10
-9.4681859901751295
 20
165.54158707162071
 11
-4.5353780678118483
 21
167.97419853707481
  0
LINE
  8
_0-1_作画層１
  6
CONTINUOUS
 62
    7
 10
-8.5736318519915358
 20
163.86798306008507
 11
-3.8104635170305983
 21
166.6179906894796
  0
LINE
  8
_0-1_作画層１
  6
CONTINUOUS
 62
    7
 10
-7.5714879921282545
 20
162.25646896859337
 11
-2.9983850410784498
 21
165.31207199593712
  0
LINE
  8
_0-1_作画層１
  6
CONTINUOUS
 62
    7
 10
-2.102661698182942
 20
164.06209202309776
 11
-6.4661336830462233
 21
160.71390457650352
  0
LINE
  8
_0-1_作画層１
  6
CONTINUOUS
 62
    7
 10
-5.2622247627581373
 20
159.24697227975059
 11
-1.1271043709124342
 21
162.8733617832296
  0
LINE
  8
_0-1_作画層１
  6
CONTINUOUS
 62
    7
 10
-3.9649930885638014
 20
157.86188622018028
 11
-0.0758787086809888
 21
161.7509834339254
  0
LINE
  8
_0-1_作画層１
  6
CONTINUOUS
 62
    7
 10
-2.5798879555071608
 20
156.56461830636192
 11
1.0465272971783861
 21
160.69974060555626
  0
LINE
  8
_0-1_作画層１
  6
CONTINUOUS
 62
    7
 10
-1.1129308632220045
 20
155.3607360889547
 11
2.2352480003033861
 21
159.72418327828575
  0
LINE
  8
_0-1_作画層１
  6
CONTINUOUS
 62
    7
 10
0.4295991965924486
 20
154.25533791085411
 11
3.4852632590924486
 21
158.82848473092247
  0
LINE
  8
_0-1_作画層１
  6
CONTINUOUS
 62
    7
 10
2.0411037513409838
 20
153.25324554940391
 11
4.7911295005475267
 21
158.01639862557579
  0
LINE
  8
_0-1_作画層１
  6
CONTINUOUS
 62
    7
 10
3.7147430488263353
 20
152.35870285531212
 11
6.1473545142804369
 21
157.29150124093223
  0
LINE
  8
_0-1_作画層１
  6
CONTINUOUS
 62
    7
 10
7.2193759986554369
 20
150.90702934762169
 11
8.98730889050114
 21
156.1151077320211
  0
LINE
  8
_0-1_作画層１
  6
CONTINUOUS
 62
    7
 10
5.443297774473308
 20
151.57547874947716
 11
7.5480760642682299
 21
156.65682144662071
  0
LINE
  8
_0-1_作画層１
  6
CONTINUOUS
 62
    7
 10
9.0353917190228685
 20
150.35617943307091
 11
10.458877474943279
 21
155.66873665352989
  0
LINE
  8
_0-1_作画層１
  6
CONTINUOUS
 62
    7
 10
10.883524806181072
 20
149.92520638009239
 11
11.956508547941326
 21
155.3195640613668
  0
LINE
  8
_0-1_作画層１
  6
CONTINUOUS
 62
    7
 10
12.755856902280925
 20
149.61608620186973
 11
13.473745495954631
 21
155.06906052132774
  0
LINE
  8
_0-1_作画層１
  6
CONTINUOUS
 62
    7
 10
14.644461543241619
 20
149.43005295296837
 11
15.004166991392253
 21
154.91828461190391
  0
LINE
  8
_0-1_作画層１
  6
CONTINUOUS
 62
    7
 10
-6.9588724068011061
 20
178.36797638436485
 11
-12.458872406801106
 21
178.36797638436485
  0
LINE
  8
_0-1_作画層１
  6
CONTINUOUS
 62
    7
 10
16.541123778501628
 20
201.86798210641075
 11
16.541123778501628
 21
207.36798019906212
  0
LINE
  8
_0-1_作画層１
  6
CONTINUOUS
 62
    7
 10
40.041119963804348
 20
178.36797638436485
 11
45.541119963804348
 21
178.36797638436485
  0
LINE
  8
_0-1_作画層１
  6
CONTINUOUS
 62
    7
 10
16.541123778501628
 20
154.86798782845665
 11
16.541123778501628
 21
149.36798019906212
  0
LINE
  8
_0-1_作画層１
  6
CONTINUOUS
 62
    7
 10
16.541123778501628
 20
190.86797543069054
 11
16.541123778501628
 21
194.36798973580528
  0
LINE
  8
_0-1_作画層１
  6
CONTINUOUS
 62
    7
 10
16.541123778501628
 20
190.86797543069054
 11
16.541123778501628
 21
185.36797733803917
  0
LINE
  8
_0-1_作画層１
  6
CONTINUOUS
 62
    7
 10
-17.958853333314778
 20
212.86798019906212
 11
51.04110089031802
 21
212.86801453133751
  0
LINE
  8
_0-1_作画層１
  6
CONTINUOUS
 62
    7
 10
-17.958876221498372
 20
143.86801834603477
 11
51.041081816831692
 21
143.86798401375938
  0
LINE
  8
_0-1_作画層１
  6
CONTINUOUS
 62
    7
 10
51.04110089031802
 20
212.86801453133751
 11
51.041081816831692
 21
143.86798401375938
  0
LINE
  8
_0-1_作画層１
  6
CONTINUOUS
 62
    7
 10
11.614379317442058
 20
183.27788849373985
 11
11.631211669126628
 21
183.29472084542442
  0
LINE
  8
_0-1_作画層１
  6
CONTINUOUS
 62
    7
 10
29.050423056760891
 20
188.34382553597618
 11
29.008105666318997
 21
188.31007309456993
  0
LINE
  8
_0-1_作画層１
  6
CONTINUOUS
 62
    7
 10
16.541123778501628
 20
194.14437122842003
 11
16.763202429691432
 21
194.36644096871544
  0
LINE
  8
_0-1_作画層１
  6
CONTINUOUS
 62
    7
 10
31.851401717344388
 20
195.87822647591759
 11
32.223303229490384
 21
196.2501289417379
  0
LINE
  8
_0-1_作画層１
  6
CONTINUOUS
 62
    7
 10
16.541106280971348
 20
144.23919983407188
 11
16.541106280971348
 21
140.79572220345665
  0
LINE
  8
_0-1_作画層１
  6
CONTINUOUS
 62
    7
 10
50.54110089031802
 20
214.36800690194298
 11
-17.458857148012044
 21
214.36797256966759
  0
LINE
  8
_0-1_作画層１
  6
CONTINUOUS
 62
    7
 10
52.541085631528958
 20
144.36798401375938
 11
52.54110089031802
 21
212.36800308724571
  0
LINE
  8
_0-1_作画層１
  6
CONTINUOUS
 62
    7
 10
-17.458880036195637
 20
142.36801453133751
 11
50.541081816831692
 21
142.36798019906212
  0
CIRCLE
  8
_0-1_作画層１
  6
CONTINUOUS
 62
    7
 10
16.541123778501628
 20
178.36797638436485
 40
7
  0
CIRCLE
  8
_0-1_作画層１
  6
CONTINUOUS
 62
    7
 10
16.541123778501628
 20
178.36797638436485
 40
31.500001907348633
  0
ARC
  8
_0-1_作画層１
  6
CONTINUOUS
 62
    7
 10
16.541123776828158
 20
178.36798513312226
 40
15.999999999999998
 50
90.264892572132311
 51
90.264587396351089
  0
ARC
  8
_0-1_作画層１
  6
CONTINUOUS
 62
    7
 10
16.541123778501458
 20
178.36798513312979
 40
23.499998092651627
 50
37.50003051757826
 51
63.749999999999837
  0
ARC
  8
_0-1_作画層１
  6
CONTINUOUS
 62
    7
 10
-17.458857148012072
 20
212.36796875497035
 40
1.9999999999999716
 50
89.999999999999588
 51
180.0000000000008
  0
ARC
  8
_0-1_作画層１
  6
CONTINUOUS
 62
    7
 10
50.541100890318035
 20
212.36800308724574
 40
1.9999999999999858
 50
359.9999999999992
 51
90.000000000000384
  0
ARC
  8
_0-1_作画層１
  6
CONTINUOUS
 62
    7
 10
50.541081816831706
 20
144.36798401375935
 40
1.9999999999999716
 50
269.9999999999996
 51
0.0000000000007887
  0
ARC
  8
_0-1_作画層１
  6
CONTINUOUS
 62
    7
 10
-17.458880036195666
 20
144.36801834603475
 40
1.9999999999999858
 50
179.99999999999918
 51
270.0000000000004
  0
INSERT
  2
-000-_D0
  8
_0-9_寸法線層１
 10
-55.25
 20
-38.75
 41
1
 42
1
 50
0
  0
LINE
  8
_0-1_作画層１
  6
CENTER
 62
    7
 10
-24.958906739080362
 20
178.36797638436485
 11
57.541093260919638
 21
178.36797638436485
  0
LINE
  8
_0-1_作画層１
  6
CONTINUOUS
 62
    7
 10
-17.958876221498372
 20
143.86801834603477
 11
-17.958853333314778
 21
212.86798019906212
  0
LINE
  8
_0-1_作画層１
  6
CONTINUOUS
 62
    7
 10
-19.458876221498372
 20
144.36801834603477
 11
-19.458853333314778
 21
212.36796875497032
  0
INSERT
  2
-001-_D1
  8
_0-9_寸法線層１
 10
-55.25
 20
-38.75
 41
1
 42
1
 50
0
  0
LINE
  8
_0-1_作画層１
  6
CONTINUOUS
 62
    7
 10
10.88349858013737
 20
206.81075401803184
 11
11.956508547941326
 21
201.41640587350059
  0
LINE
  8
_0-1_作画層１
  6
CONTINUOUS
 62
    7
 10
12.755883128324626
 20
207.11986656685997
 11
13.473745495954631
 21
201.66690941353966
  0
LINE
  8
_0-1_作画層１
  6
CONTINUOUS
 62
    7
 10
12.36022034374821
 20
200.87084122201134
 11
12.029814154783367
 21
201.20124741097618
  0
LINE
  8
_0-1_作画層１
  6
CONTINUOUS
 62
    7
 10
12.728630692640422
 20
200.78526039620567
 11
11.921504408994792
 21
201.59238739510704
  0
LINE
  8
_0-1_作画層１
  6
CONTINUOUS
 62
    7
 10
12.968110711256145
 20
200.82862778206993
 11
11.851269633451579
 21
201.94547005196739
  0
LINE
  8
_0-1_作画層１
  6
CONTINUOUS
 62
    7
 10
13.154888064542888
 20
200.92469902535606
 11
11.781042964140056
 21
202.29854317208458
  0
LINE
  8
_0-1_作画層１
  6
CONTINUOUS
 62
    7
 10
13.302365929762004
 20
201.06005020638634
 11
11.710808188596843
 21
202.65160866280723
  0
LINE
  8
_0-1_作画層１
  6
CONTINUOUS
 62
    7
 10
13.411961705366252
 20
201.23330231209923
 11
11.640572936216472
 21
203.00469131966759
  0
LINE
  8
_0-1_作画層１
  6
CONTINUOUS
 62
    7
 10
13.475364119688152
 20
201.4527484943502
 11
11.570346743742107
 21
203.35775681039024
  0
LINE
  8
_0-1_作画層１
  6
CONTINUOUS
 62
    7
 10
13.463089377561687
 20
201.74785347481895
 11
11.500120074430583
 21
203.7108223011129
  0
LINE
  8
_0-1_作画層１
  6
CONTINUOUS
 62
    7
 10
13.420203120390056
 20
202.07358665963341
 11
11.42988529888737
 21
204.06390495797325
  0
LINE
  8
_0-1_作画層１
  6
CONTINUOUS
 62
    7
 10
13.377325446287273
 20
202.39931221505333
 11
11.359650046506999
 21
204.4169876148336
  0
LINE
  8
_0-1_作画層１
  6
CONTINUOUS
 62
    7
 10
13.334447533765911
 20
202.72502060433555
 11
11.289423854032634
 21
204.77003403206993
  0
LINE
  8
_0-1_作画層１
  6
CONTINUOUS
 62
    7
 10
13.291569859663127
 20
203.05074425240684
 11
11.219188601652263
 21
205.12311668893028
  0
LINE
  8
_0-1_作画層１
  6
CONTINUOUS
 62
    7
 10
13.248683602491496
 20
203.37646217843223
 11
11.148962409177898
 21
205.47618217965294
  0
LINE
  8
_0-1_作画層１
  6
CONTINUOUS
 62
    7
 10
13.205805689970134
 20
203.70217819710899
 11
11.078736216703533
 21
205.82926483651329
  0
LINE
  8
_0-1_作画層１
  6
CONTINUOUS
 62
    7
 10
13.162928015867351
 20
204.02791138192345
 11
11.008500964323161
 21
206.18234749337364
  0
LINE
  8
_0-1_作画層１
  6
CONTINUOUS
 62
    7
 10
13.120050341764568
 20
204.35362930794884
 11
10.938274771848796
 21
206.5353958179586
  0
LINE
  8
_0-1_作画層１
  6
CONTINUOUS
 62
    7
 10
13.077163846174358
 20
204.67934532662559
 11
10.87318363873112
 21
206.88333435555626
  0
LINE
  8
_0-1_作画層１
  6
CONTINUOUS
 62
    7
 10
13.034286172071575
 20
205.00507851144005
 11
10.884338290372966
 21
207.1550190021627
  0
LINE
  8
_0-1_作画層１
  6
CONTINUOUS
 62
    7
 10
12.991408497968791
 20
205.33079643746544
 11
10.951878935972331
 21
207.37032623788048
  0
LINE
  8
_0-1_作画層１
  6
CONTINUOUS
 62
    7
 10
12.948530823866008
 20
205.6565124561422
 11
11.056706816831706
 21
207.54832764168907
  0
LINE
  8
_0-1_作画層１
  6
CONTINUOUS
 62
    7
 10
12.905644328275798
 20
205.98224564095665
 11
11.192688853422283
 21
207.69520111581016
  0
LINE
  8
_0-1_作画層１
  6
CONTINUOUS
 62
    7
 10
12.862766654173015
 20
206.30796356698204
 11
11.359020144621013
 21
207.81170006295372
  0
LINE
  8
_0-1_作画層１
  6
CONTINUOUS
 62
    7
 10
12.819888980070232
 20
206.6336795856588
 11
11.559568316618083
 21
207.89399071236778
  0
LINE
  8
_0-1_作画層１
  6
CONTINUOUS
 62
    7
 10
12.777011305967449
 20
206.95939560433555
 11
11.806834609190105
 21
207.92956467171837
  0
LINE
  8
_0-1_作画層１
  6
CONTINUOUS
 62
    7
 10
12.705927521864055
 20
207.31331749459434
 11
12.14985600201237
 21
207.86938972970177
  0
ARC
  8
_0-1_作画層１
  6
CONTINUOUS
 62
    7
 10
11.81716671673405
 20
206.98063774605922
 40
0.9489850401878342
 50
8.4374999999978932
 51
192.13920593261827
  0
ARC
  8
_0-1_作画層１
  6
CONTINUOUS
 62
    7
 10
12.71307531086552
 20
201.55410309334923
 40
0.7689954042434671
 50
190.31504821777369
 51
8.4637298583979135
  0
LINE
  8
_0-1_作画層１
  6
CONTINUOUS
 62
    7
 10
3.7147602149640306
 20
204.37726707955528
 11
6.1473545142804369
 21
199.44446869393516
  0
LINE
  8
_0-1_作画層１
  6
CONTINUOUS
 62
    7
 10
5.443323523679851
 20
205.16047401925255
 11
7.5480760642682299
 21
200.07914848824669
  0
ARC
  8
_0-1_作画層１
  6
CONTINUOUS
 62
    7
 10
4.5726207801495775
 20
204.78303642769981
 40
0.9489914178848332
 50
23.437316894531826
 51
207.21160888671875
  0
ARC
  8
_0-1_作画層１
  6
CONTINUOUS
 62
    7
 10
6.8425144263898119
 20
199.7732917835348
 40
0.7690062522888108
 50
205.31291198730753
 51
23.451339721677265
  0
LINE
  8
_0-1_作画層１
  6
CONTINUOUS
 62
    7
 10
-2.5798974922503248
 20
200.17132492562462
 11
1.0465272971783861
 21
196.03622932931114
  0
LINE
  8
_0-1_作画層１
  6
CONTINUOUS
 62
    7
 10
-1.1129213264788405
 20
201.37522430916954
 11
2.2352480003033861
 21
197.01178665658165
  0
LINE
  8
_0-1_作画層１
  6
CONTINUOUS
 62
    7
 10
1.2308458396588549
 20
195.87822647591759
 11
0.8589443275128587
 21
196.2501289417379
  0
LINE
  8
_0-1_作画層１
  6
CONTINUOUS
 62
    7
 10
1.6271385261212572
 20
195.76477356454063
 11
-1.157532303651692
 21
198.54944344063927
  0
LINE
  8
_0-1_作画層１
  6
CONTINUOUS
 62
    7
 10
1.8719209739361986
 20
195.80283852120567
 11
-2.7221704414690748
 21
200.39692993661095
  0
LINE
  8
_0-1_作画層１
  6
CONTINUOUS
 62
    7
 10
2.0619958945904955
 20
195.89560242196251
 11
-2.8050027778948561
 21
200.76260109444786
  0
LINE
  8
_0-1_作画層１
  6
CONTINUOUS
 62
    7
 10
2.2122997352277025
 20
196.02813835641075
 11
-2.7765527656878248
 21
201.01698990365196
  0
LINE
  8
_0-1_作画層１
  6
CONTINUOUS
 62
    7
 10
2.3249057838116869
 20
196.19837875863243
 11
-2.6987844398821608
 21
201.22207756539513
  0
LINE
  8
_0-1_作画層１
  6
CONTINUOUS
 62
    7
 10
2.3924545356427416
 20
196.41367836495567
 11
-2.5859418800677076
 21
201.39207573434044
  0
LINE
  8
_0-1_作画層１
  6
CONTINUOUS
 62
    7
 10
2.3821577140485033
 20
196.7068054248922
 11
-2.4425683906878248
 21
201.53153152962852
  0
LINE
  8
_0-1_作画層１
  6
CONTINUOUS
 62
    7
 10
1.8237585136090502
 20
197.54806061288048
 11
-2.2683454445208326
 21
201.64016457101036
  0
LINE
  8
_0-1_作画層１
  6
CONTINUOUS
 62
    7
 10
0.8910087653790697
 20
198.76364822884727
 11
-2.0579629829729811
 21
201.71261330147911
  0
LINE
  8
_0-1_作画層１
  6
CONTINUOUS
 62
    7
 10
-0.0417924812639967
 20
199.97929878731895
 11
-1.7947927406634108
 21
201.73229713936973
  0
LINE
  8
_0-1_作画層１
  6
CONTINUOUS
 62
    7
 10
-0.9745431831682935
 20
201.19487877389122
 11
-1.3934255531634108
 21
201.61376114388634
  0
ARC
  8
_0-1_作画層１
  6
CONTINUOUS
 62
    7
 10
-1.8562780311907545
 20
200.78529663582967
 40
0.9489969611167724
 50
38.435592651368687
 51
220.29386901855273
  0
ARC
  8
_0-1_作画層１
  6
CONTINUOUS
 62
    7
 10
1.6328958579693733
 20
196.53373642464805
 40
0.7689873576164184
 50
220.31311035156224
 51
38.436859130858323
  0
LINE
  8
_0-1_作画層１
  6
CONTINUOUS
 62
    7
 10
-7.5714879921282545
 20
194.47950096627403
 11
-2.9983850410784498
 21
191.4238988926046
  0
LINE
  8
_0-1_作画層１
  6
CONTINUOUS
 62
    7
 10
-2.102661698182942
 20
192.67387886544395
 11
-6.4661069801653639
 21
196.02206535836388
  0
ARC
  8
_0-1_作画層１
  6
CONTINUOUS
 62
    7
 10
-7.0314260414446608
 20
195.25983925362752
 40
0.9489868879318093
 50
51.563339233399383
 51
237.15467834472528
  0
ARC
  8
_0-1_作画層１
  6
CONTINUOUS
 62
    7
 10
-2.560755341371447
 20
192.05623264809773
 40
0.7690042853355596
 50
235.31338500976491
 51
53.5261688232425
  0
ARC
  8
_0-1_作画層１
  6
CONTINUOUS
 62
    7
 10
16.541123778501827
 20
178.36798513313113
 40
23.49999809265023
 50
63.75000481196053
 51
85.249588012695625
  0
ARC
  8
_0-1_作画層１
  6
CONTINUOUS
 62
    7
 10
16.541123778501799
 20
178.36798513312991
 40
28.999999999999993
 50
67.50001525878946
 51
63.74999061005559
  0
ARC
  8
_0-1_作画層１
  6
CONTINUOUS
 62
    7
 10
16.541123778501628
 20
178.36798513312999
 40
23.499998092651378
 50
85.249893188476591
 51
37.50002703741535
  0
LINE
  8
_0-1_作画層１
  6
CONTINUOUS
 62
    7
 10
29.36750005739998
 20
204.3772925355218
 11
27.638936181812767
 21
205.16049453148446
  0
LINE
  8
_0-1_作画層１
  6
CONTINUOUS
 62
    7
 10
-5.1700525155868604
 20
187.36103185565284
 11
-10.251379294107892
 21
189.46579027886079
  0
LINE
  8
_0-1_作画層１
  6
CONTINUOUS
 62
    7
 10
-10.919837168211814
 20
187.68973250071963
 11
-5.7117596282425325
 21
185.92182035906851
  0
LINE
  8
_0-1_作画層１
  6
CONTINUOUS
 62
    7
 10
-10.919840658902075
 20
187.6897194732862
 11
-5.7117168681864428
 21
185.92183403451594
  0
LINE
  8
_0-1_作画層１
  6
CONTINUOUS
 62
    7
 10
-10.251351724370124
 20
189.46581500592228
 11
-5.1700332049109363
 21
187.36105181434274
  0
LINE
  8
_0-1_作画層１
  6
CONTINUOUS
 62
    7
 10
-5.4730909013130429
 20
185.87715882084692
 11
-5.9811182914474728
 21
186.01328504790439
  0
LINE
  8
_0-1_作画層１
  6
CONTINUOUS
 62
    7
 10
-5.0731649118141604
 20
185.97705206069239
 11
-8.8770955296243415
 21
186.99631149966058
  0
LINE
  8
_0-1_作画層１
  6
CONTINUOUS
 62
    7
 10
-4.8802095719383942
 20
186.13240850406572
 11
-11.155855152690009
 21
187.81396266941206
  0
LINE
  8
_0-1_作画層１
  6
CONTINUOUS
 62
    7
 10
-4.7619818124078677
 20
186.30778185900243
 11
-11.410425639208
 21
188.08922701331721
  0
LINE
  8
_0-1_作画層１
  6
CONTINUOUS
 62
    7
 10
-4.6980828353538016
 20
186.49771326546752
 11
-11.512981610500788
 21
188.32375919062994
  0
LINE
  8
_0-1_作画層１
  6
CONTINUOUS
 62
    7
 10
-4.6856833377711382
 20
186.70144880283397
 11
-11.548176095614878
 21
188.54025447860511
  0
LINE
  8
_0-1_作画層１
  6
CONTINUOUS
 62
    7
 10
-4.734834205853133
 20
186.92167810725022
 11
-11.535450656660146
 21
188.74389849141582
  0
LINE
  8
_0-1_作画層１
  6
CONTINUOUS
 62
    7
 10
-4.8903150449002339
 20
187.17038517689477
 11
-11.481013470271989
 21
188.9363574975302
  0
LINE
  8
_0-1_作画層１
  6
CONTINUOUS
 62
    7
 10
-5.7945305319278759
 20
187.61973394053834
 11
-11.38444849366013
 21
189.11754794414074
  0
LINE
  8
_0-1_作画層１
  6
CONTINUOUS
 62
    7
 10
-7.2101093172519768
 20
188.20608882237636
 11
-11.238476302683353
 21
189.28548161597254
  0
LINE
  8
_0-1_作画層１
  6
CONTINUOUS
 62
    7
 10
-8.6257641727625014
 20
188.79247246481606
 11
-11.020406106268496
 21
189.43411344078459
  0
LINE
  8
_0-1_作画層１
  6
CONTINUOUS
 62
    7
 10
-10.041339969295507
 20
189.37882026256742
 11
-10.613543927906278
 21
189.53214185118307
  0
ARC
  8
_0-1_作画層１
  6
CONTINUOUS
 62
    7
 10
-10.600153678054198
 20
188.58324430205857
 40
0.9489969611167863
 50
68.435592651367685
 51
250.29386901855375
  0
ARC
  8
_0-1_作画層１
  6
CONTINUOUS
 62
    7
 10
-5.4526603462293508
 20
186.64587209803622
 40
0.7689873576163952
 50
250.31311035156241
 51
68.436859130857627
  0
LINE
  8
_0-1_作画層１
  6
CONTINUOUS
 62
    7
 10
-2.102688093440662
 20
192.67386683782061
 11
-6.4661212953621998
 21
196.02205150156732
  0
LINE
  8
_0-1_作画層１
  6
CONTINUOUS
 62
    7
 10
-7.5714795979308462
 20
194.47952105334605
 11
-2.9984323290858015
 21
191.42389940140043
  0
LINE
  8
_0-1_作画層１
  6
CONTINUOUS
 62
    7
 10
-7.5714863414266063
 20
194.47950937326874
 11
-2.9983874865770304
 21
191.42390154375141
  0
LINE
  8
_0-1_作画層１
  6
CONTINUOUS
 62
    7
 10
-6.4660882652060252
 20
196.02206825050141
 11
-2.1026642750710209
 21
192.67388111846392
  0
LINE
  8
_0-1_作画層１
  6
CONTINUOUS
 62
    7
 10
-2.7794552984923939
 20
191.3189876561907
 11
-3.2349400149850567
 21
191.58196265854133
  0
LINE
  8
_0-1_作画層１
  6
CONTINUOUS
 62
    7
 10
-2.3673021836821988
 20
191.31196865371533
 11
-5.7778132541313028
 21
193.28102735964148
  0
LINE
  8
_0-1_作画層１
  6
CONTINUOUS
 62
    7
 10
-2.1407124312514156
 20
191.41209093783598
 11
-7.7673023309731377
 21
194.66060413105996
  0
LINE
  8
_0-1_作画層１
  6
CONTINUOUS
 62
    7
 10
-1.9811232206754426
 20
191.55088899478602
 11
-7.9419548838715457
 21
194.99237676012632
  0
LINE
  8
_0-1_作画層１
  6
CONTINUOUS
 62
    7
 10
-1.8702436832091962
 20
191.71781037328986
 11
-7.9803149510055107
 21
195.24546088584808
  0
LINE
  8
_0-1_作画層１
  6
CONTINUOUS
 62
    7
 10
-1.8055360510264507
 20
191.91139456444091
 11
-7.9582771094172244
 21
195.46368827880326
  0
LINE
  8
_0-1_作画層１
  6
CONTINUOUS
 62
    7
 10
-1.7960126056187846
 20
192.13684091802517
 11
-7.8932783303434917
 21
195.65709970418749
  0
LINE
  8
_0-1_作画層１
  6
CONTINUOUS
 62
    7
 10
-1.8818254372718002
 20
192.41731490206945
 11
-7.7908839899167504
 21
195.82891144809628
  0
LINE
  8
_0-1_作画層１
  6
CONTINUOUS
 62
    7
 10
-2.6389305107981045
 20
193.08538066680325
 11
-7.6507138467189293
 21
195.9789351249172
  0
LINE
  8
_0-1_作画層１
  6
CONTINUOUS
 62
    7
 10
-3.8545148080810634
 20
194.01813474002623
 11
-7.4662511049504019
 21
196.10336621256295
  0
LINE
  8
_0-1_作画層１
  6
CONTINUOUS
 62
    7
 10
-5.0701651397302214
 20
194.95093628227016
 11
-7.2171427233196255
 21
196.19049281075596
  0
LINE
  8
_0-1_作画層１
  6
CONTINUOUS
 62
    7
 10
-6.2857483835592234
 20
195.88368273923484
 11
-6.7987724179270685
 21
196.17987730357788
  0
ARC
  8
_0-1_作画層１
  6
CONTINUOUS
 62
    7
 10
-7.0314311873390238
 20
195.25984700269572
 40
0.9489969611167955
 50
53.435592651369369
 51
235.29386901855298
  0
ARC
  8
_0-1_作画層１
  6
CONTINUOUS
 62
    7
 10
-2.5607632613318856
 20
192.05621984688148
 40
0.7689873576164079
 50
235.31311035156273
 51
53.436859130857414
  0
LINE
  8
_0-1_作画層１
  6
CONTINUOUS
 62
    7
 10
7.5480543007495555
 20
200.07914687678593
 11
5.4433026320423892
 21
205.16047645311278
  0
LINE
  8
_0-1_作画層１
  6
CONTINUOUS
 62
    7
 10
3.7147690376232276
 20
204.37728505012649
 11
6.1473333191773349
 21
199.44451544076531
  0
LINE
  8
_0-1_作画層１
  6
CONTINUOUS
 62
    7
 10
3.7147573575459774
 20
204.37727830663073
 11
6.147373225104559
 21
199.44449487484133
  0
LINE
  8
_0-1_作画層１
  6
CONTINUOUS
 62
    7
 10
5.4433396114637844
 20
205.16047444303715
 11
7.5480820683844172
 21
200.07914733500101
  0
LINE
  8
_0-1_作画層１
  6
CONTINUOUS
 62
    7
 10
6.2845171179116051
 20
199.24417068896162
 11
6.0215432835687182
 21
199.69965607980384
  0
LINE
  8
_0-1_作画層１
  6
CONTINUOUS
 62
    7
 10
6.6379426843484453
 20
199.0320154971036
 11
4.6688828104145443
 21
202.44252589320314
  0
LINE
  8
_0-1_作画層１
  6
CONTINUOUS
 62
    7
 10
6.8842363082510474
 20
199.00542906242165
 11
3.6357231150270763
 21
204.63201896214335
  0
LINE
  8
_0-1_作画層１
  6
CONTINUOUS
 62
    7
 10
7.0918436472547626
 20
199.0458371004483
 11
3.6503558819144359
 21
205.00666876364443
  0
LINE
  8
_0-1_作画層１
  6
CONTINUOUS
 62
    7
 10
7.2713288327123564
 20
199.13495548593426
 11
3.7436771521464323
 21
205.24502607938101
  0
LINE
  8
_0-1_作画層１
  6
CONTINUOUS
 62
    7
 10
7.4241593815768567
 20
199.27025049715076
 11
3.8718761792840724
 21
205.4229976246877
  0
LINE
  8
_0-1_作画層１
  6
CONTINUOUS
 62
    7
 10
7.545130104023599
 20
199.46073104384143
 11
4.0248724858690252
 21
205.55799744291573
  0
LINE
  8
_0-1_作画層１
  6
CONTINUOUS
 62
    7
 10
7.6110510038635084
 20
199.74653505495093
 11
4.1994544578366799
 21
205.65559360759585
  0
LINE
  8
_0-1_作画層１
  6
CONTINUOUS
 62
    7
 10
7.2894116592225373
 20
200.70364951537221
 11
4.3958572011085835
 21
205.71543285129303
  0
LINE
  8
_0-1_作画層１
  6
CONTINUOUS
 62
    7
 10
6.7030618139455669
 20
202.11923038690819
 11
4.6178221653547382
 21
205.73096196333051
  0
LINE
  8
_0-1_作画層１
  6
CONTINUOUS
 62
    7
 10
6.1166785157403751
 20
203.53488538500534
 11
4.8771196512391271
 21
205.68186161989561
  0
LINE
  8
_0-1_作画層１
  6
CONTINUOUS
 62
    7
 10
5.5303257746521126
 20
204.95045913394117
 11
5.2341312103090729
 21
205.46348316830904
  0
ARC
  8
_0-1_作画層１
  6
CONTINUOUS
 62
    7
 10
4.5726276551440321
 20
204.78304294019964
 40
0.9489969611167882
 50
23.435592651368026
 51
205.29386901855381
  0
ARC
  8
_0-1_作画層１
  6
CONTINUOUS
 62
    7
 10
6.8425260730433877
 20
199.7732864760072
 40
0.7689873576164254
 50
205.31311035156011
 51
23.436859130860707
  0
LINE
  8
_0-1_作画層１
  6
CONTINUOUS
 62
    7
 10
-12.396771470959408
 20
180.26468304372742
 11
-6.9085868441010803
 21
179.90493936457381
  0
LINE
  8
_0-1_作画層１
  6
CONTINUOUS
 62
    7
 10
-12.210765923978357
 20
182.15322790232929
 11
-6.7578255755698251
 21
181.43534856729477
  0
LINE
  8
_0-1_作画層１
  6
CONTINUOUS
 62
    7
 10
-6.7578361527061759
 20
181.43533500484369
 11
-12.210772485160049
 21
182.15323137924901
  0
LINE
  8
_0-1_作画層１
  6
CONTINUOUS
 62
    7
 10
-12.396775631357912
 20
180.26468167369404
 11
-6.9085896978582468
 21
179.90495933317797
  0
LINE
  8
_0-1_作画層１
  6
CONTINUOUS
 62
    7
 10
-12.396775631357912
 20
180.26466818670255
 11
-6.9085519342819737
 21
179.9049836097627
  0
LINE
  8
_0-1_作画層１
  6
CONTINUOUS
 62
    7
 10
-12.210752254672769
 20
182.15326239932952
 11
-6.7578226657146558
 21
181.43535928142842
  0
LINE
  8
_0-1_作画層１
  6
CONTINUOUS
 62
    7
 10
-6.6664941539142148
 20
179.92359161196765
 11
-7.1924429906077023
 21
179.92359228631722
  0
LINE
  8
_0-1_作画層１
  6
CONTINUOUS
 62
    7
 10
-6.3060495850020288
 20
180.12358953491983
 11
-10.244168164862089
 21
180.12358886057027
  0
LINE
  8
_0-1_作画層１
  6
CONTINUOUS
 62
    7
 10
-6.1598782452200567
 20
180.32359285266864
 11
-12.656904631667999
 21
180.32359285266864
  0
LINE
  8
_0-1_作画層１
  6
CONTINUOUS
 62
    7
 10
-6.0910689631663786
 20
180.52359010127128
 11
-12.974044493847003
 21
180.52359010127125
  0
LINE
  8
_0-1_作画層１
  6
CONTINUOUS
 62
    7
 10
-6.0785051562126569
 20
180.72358802422349
 11
-13.133807349336763
 21
180.7235873498739
  0
LINE
  8
_0-1_作画層１
  6
CONTINUOUS
 62
    7
 10
-6.1192587984992031
 20
180.9235906676227
 11
-13.223835715154337
 21
180.92359673676887
  0
LINE
  8
_0-1_作画層１
  6
CONTINUOUS
 62
    7
 10
-6.2237344296367212
 20
181.12359465972111
 11
-13.264250833953611
 21
181.12359533407067
  0
LINE
  8
_0-1_作画層１
  6
CONTINUOUS
 62
    7
 10
-6.4382875138410611
 20
181.32358583917753
 11
-13.26148060589469
 21
181.3235858391775
  0
LINE
  8
_0-1_作画層１
  6
CONTINUOUS
 62
    7
 10
-7.4279926232158289
 20
181.52359522607253
 11
-13.215101539443737
 21
181.52359522607253
  0
LINE
  8
_0-1_作画層１
  6
CONTINUOUS
 62
    7
 10
-8.9470965417158084
 20
181.72359180032555
 11
-13.117567662843328
 21
181.72358707987854
  0
LINE
  8
_0-1_作画層１
  6
CONTINUOUS
 62
    7
 10
-10.466281382164937
 20
181.92359646677355
 11
-12.945396775151977
 21
181.92359511807439
  0
LINE
  8
_0-1_作画層１
  6
CONTINUOUS
 62
    7
 10
-11.98538058021785
 20
182.12358697188037
 11
-12.577769708903929
 21
182.12358697188037
  0
ARC
  8
_0-1_作画層１
  6
CONTINUOUS
 62
    7
 10
-12.319242963186838
 20
181.21048797435904
 40
0.948996961116789
 50
83.435592651367557
 51
265.29386901855418
  0
ARC
  8
_0-1_作画層１
  6
CONTINUOUS
 62
    7
 10
-6.845717389473208
 20
180.67139943617374
 40
0.7689873576164174
 50
265.31311035156148
 51
83.43685913085865
  0
LINE
  8
_0-1_作画層１
  6
CONTINUOUS
 62
    7
 10
4.0891809029282058
 20
188.4153269481811
 11
4.131309530360852
 21
188.38133919177773
  0
LINE
  8
_0-d_0_1
  6
CONTINUOUS
 62
    7
 10
27.768282274171384
 20
192.06167696848451
 11
27.84301410095361
 21
192.13639925852357
  0
TEXT
  8
_0-d_0_1
 62
    7
 10
5.0503750603109552
 20
192.27212911781808
 40
5
 41
1
 50
29.999957756663811
  1
10
  0
TEXT
  8
_0-d_0_1
 62
    7
 10
10.014839765013221
 20
195.3708259589306
 40
5
 41
1
 50
14.999989403430712
  1
9
  0
TEXT
  8
_0-d_0_1
 62
    7
 10
13.634885648652585
 20
196.50327013865052
 40
5
 41
1
 50
0
  1
8
  0
TEXT
  8
_0-d_0_1
 62
    7
 10
18.528129085682281
 20
196.79218196941287
 40
5
 41
1
 50
-14.99997970226144
  1
7
  0
TEXT
  8
_0-d_0_1
 62
    7
 10
23.21876165011787
 20
195.77956802889909
 40
5
 41
1
 50
-29.99997589625999
  1
6
  0
TEXT
  8
_0-d_0_1
 62
    7
 10
27.457013326789962
 20
193.59388773903436
 40
5
 41
1
 50
-45.000009091158226
  1
5
  0
TEXT
  8
_0-d_0_1
 62
    7
 10
31.075057970814768
 20
190.44671187552308
 40
5
 41
1
 50
-59.999912760333949
  1
4
  0
TEXT
  8
_0-d_0_1
 62
    7
 10
33.734617184761632
 20
186.29823910555442
 40
5
 41
1
 50
-75.000243003075809
  1
3
  0
TEXT
  8
_0-d_0_1
 62
    7
 10
35.241332391664059
 20
181.73218726053773
 40
5
 41
1
 50
-90
  1
2
  0
TEXT
  8
_0-d_0_1
 62
    7
 10
35.427079943905625
 20
176.84250479053216
 40
5
 41
1
 50
-104.99975616503994
  1
1
  0
TEXT
  8
_0-d_0_1
 62
    7
 10
35.124251726439695
 20
173.33634624843006
 40
5
 41
1
 50
-120.00005854257884
  1
24
  0
TEXT
  8
_0-d_0_1
 62
    7
 10
33.184502939149425
 20
168.80971621499341
 40
5
 41
1
 50
-135.00000000000023
  1
23
  0
TEXT
  8
_0-d_0_1
 62
    7
 10
30.127401253376348
 20
164.85935031136492
 40
5
 41
1
 50
-150.00003053215451
  1
22
  0
TEXT
  8
_0-d_0_1
 62
    7
 10
26.252968192315905
 20
161.95977146839095
 40
5
 41
1
 50
-164.99996468005978
  1
21
  0
TEXT
  8
_0-d_0_1
 62
    7
 10
21.724990466996701
 20
160.02322291269837
 40
5
 41
1
 50
180
  1
20
  0
TEXT
  8
_0-d_0_1
 62
    7
 10
16.761290444098961
 20
159.51154556464209
 40
5
 41
1
 50
164.9999895175464
  1
19
  0
TEXT
  8
_0-d_0_1
 62
    7
 10
11.923244931321847
 20
160.28018239178127
 40
5
 41
1
 50
150.00003053215451
  1
18
  0
TEXT
  8
_0-d_0_1
 62
    7
 10
6.5835679577528481
 20
162.92127345934605
 40
5
 41
1
 50
135.0000193187177
  1
17
  0
TEXT
  8
_0-d_0_1
 62
    7
 10
2.936688275036488
 20
166.23349744604886
 40
5
 41
1
 50
119.99999141718867
  1
16
  0
TEXT
  8
_0-d_0_1
 62
    7
 10
0.3365001951947306
 20
170.23616080312792
 40
5
 41
1
 50
105.00004571869745
  1
15
  0
TEXT
  8
_0-d_0_1
 62
    7
 10
-1.1184030972275423
 20
174.92357515230714
 40
5
 41
1
 50
90
  1
14
  0
TEXT
  8
_0-d_0_1
 62
    7
 10
-1.3359403699451775
 20
179.74816887715704
 40
5
 41
1
 50
74.999957816881491
  1
13
  0
TEXT
  8
_0-d_0_1
 62
    7
 10
-0.3878616060233639
 20
184.38788133797189
 40
5
 41
1
 50
60.000042243336416
  1
12
  0
TEXT
  8
_0-d_0_1
 62
    7
 10
1.7470456344192655
 20
188.56430188263664
 40
5
 41
1
 50
45.000042243336281
  1
11
  0
LINE
  8
_0-1_作画層１
  6
CENTER
 62
    7
 10
16.541123778501628
 20
137.36799736518827
 11
16.541123778501628
 21
219.36798973580625
  0
LINE
  8
_0-1_作画層１
  6
CONTINUOUS
 62
    7
 10
11.591378600278972
 20
183.31772156258751
 11
15.376190693060039
 21
181.13255997201134
  0
LINE
  8
_0-1_作画層１
  6
CONTINUOUS
 62
    7
 10
11.591378600278972
 20
183.31772156258751
 11
13.776540190855144
 21
179.53291817208458
  0
LINE
  8
_0-1_作画層１
  6
CONTINUOUS
 62
    7
 10
13.776540190855144
 20
179.53291817208458
 11
15.376190693060039
 21
181.13255997201134
  0
LINE
  8
_0-1_作画層１
  6
CONTINUOUS
 62
    7
 10
15.341123778501668
 20
181.09749324822096
 11
15.341123778501668
 21
181.15280585817808
  0
LINE
  8
_0-1_作画層１
  6
CONTINUOUS
 62
    7
 10
15.241123778501674
 20
180.99749379223215
 11
15.241123778501674
 21
181.21054086686567
  0
LINE
  8
_0-1_作画層１
  6
CONTINUOUS
 62
    7
 10
15.141123778501679
 20
180.89749433624337
 11
15.141123778501679
 21
181.26827587555326
  0
LINE
  8
_0-1_作画層１
  6
CONTINUOUS
 62
    7
 10
15.041123778501685
 20
180.79749488025459
 11
15.041123778501685
 21
181.32601088424084
  0
LINE
  8
_0-1_作画層１
  6
CONTINUOUS
 62
    7
 10
14.941123778501691
 20
180.69749542426581
 11
14.941123778501691
 21
181.38374589292843
  0
LINE
  8
_0-1_作画層１
  6
CONTINUOUS
 62
    7
 10
14.841123778501697
 20
180.59749596827703
 11
14.841123778501697
 21
181.44148090161602
  0
LINE
  8
_0-1_作画層１
  6
CONTINUOUS
 62
    7
 10
14.741123778501702
 20
180.49749651228825
 11
14.741123778501702
 21
181.4992159103036
  0
LINE
  8
_0-1_作画層１
  6
CONTINUOUS
 62
    7
 10
14.641123778501708
 20
180.39749705629947
 11
14.641123778501708
 21
181.55695091899119
  0
LINE
  8
_0-1_作画層１
  6
CONTINUOUS
 62
    7
 10
14.541123778501714
 20
180.29749760031069
 11
14.541123778501714
 21
181.61468592767878
  0
LINE
  8
_0-1_作画層１
  6
CONTINUOUS
 62
    7
 10
14.441123778501719
 20
180.19749814432191
 11
14.441123778501719
 21
181.67242093636636
  0
LINE
  8
_0-1_作画層１
  6
CONTINUOUS
 62
    7
 10
14.341123778501725
 20
180.09749868833313
 11
14.341123778501725
 21
181.73015594505395
  0
LINE
  8
_0-1_作画層１
  6
CONTINUOUS
 62
    7
 10
14.241123778501731
 20
179.99749923234435
 11
14.241123778501731
 21
181.78789095374154
  0
LINE
  8
_0-1_作画層１
  6
CONTINUOUS
 62
    7
 10
14.141123778501736
 20
179.89749977635557
 11
14.141123778501736
 21
181.84562596242912
  0
LINE
  8
_0-1_作画層１
  6
CONTINUOUS
 62
    7
 10
14.041123778501742
 20
179.79750032036679
 11
14.041123778501742
 21
181.90336097111674
  0
LINE
  8
_0-1_作画層１
  6
CONTINUOUS
 62
    7
 10
13.941123778501748
 20
179.69750086437801
 11
13.941123778501748
 21
181.96109597980433
  0
LINE
  8
_0-1_作画層１
  6
CONTINUOUS
 62
    7
 10
13.841123778501753
 20
179.59750140838923
 11
13.841123778501753
 21
182.01883098849191
  0
LINE
  8
_0-1_作画層１
  6
CONTINUOUS
 62
    7
 10
13.741123778501759
 20
179.59426107602931
 11
13.741123778501759
 21
182.0765659971795
  0
LINE
  8
_0-1_作画層１
  6
CONTINUOUS
 62
    7
 10
13.641123778501765
 20
179.76746581323619
 11
13.641123778501765
 21
182.13430100586709
  0
LINE
  8
_0-1_作画層１
  6
CONTINUOUS
 62
    7
 10
13.54112377850177
 20
179.94067055044303
 11
13.54112377850177
 21
182.19203601455467
  0
LINE
  8
_0-1_作画層１
  6
CONTINUOUS
 62
    7
 10
13.441123778501776
 20
180.1138752876499
 11
13.441123778501776
 21
182.24977102324226
  0
LINE
  8
_0-1_作画層１
  6
CONTINUOUS
 62
    7
 10
13.341123778501782
 20
180.28708002485678
 11
13.341123778501782
 21
182.30750603192985
  0
LINE
  8
_0-1_作画層１
  6
CONTINUOUS
 62
    7
 10
13.241123778501787
 20
180.46028476206362
 11
13.241123778501787
 21
182.36524104061743
  0
LINE
  8
_0-1_作画層１
  6
CONTINUOUS
 62
    7
 10
13.141123778501793
 20
180.63348949927047
 11
13.141123778501793
 21
182.42297604930502
  0
LINE
  8
_0-1_作画層１
  6
CONTINUOUS
 62
    7
 10
13.041123778501799
 20
180.80669423647734
 11
13.041123778501799
 21
182.48071105799261
  0
LINE
  8
_0-1_作画層１
  6
CONTINUOUS
 62
    7
 10
12.941123778501805
 20
180.97989897368421
 11
12.941123778501805
 21
182.53844606668019
  0
LINE
  8
_0-1_作画層１
  6
CONTINUOUS
 62
    7
 10
12.84112377850181
 20
181.15310371089106
 11
12.84112377850181
 21
182.59618107536778
  0
LINE
  8
_0-1_作画層１
  6
CONTINUOUS
 62
    7
 10
12.741123778501816
 20
181.32630844809793
 11
12.741123778501816
 21
182.65391608405537
  0
LINE
  8
_0-1_作画層１
  6
CONTINUOUS
 62
    7
 10
12.641123778501822
 20
181.49951318530481
 11
12.641123778501822
 21
182.71165109274295
  0
LINE
  8
_0-1_作画層１
  6
CONTINUOUS
 62
    7
 10
12.541123778501827
 20
181.67271792251165
 11
12.541123778501827
 21
182.76938610143054
  0
LINE
  8
_0-1_作画層１
  6
CONTINUOUS
 62
    7
 10
12.441123778501833
 20
181.8459226597185
 11
12.441123778501833
 21
182.82712111011813
  0
LINE
  8
_0-1_作画層１
  6
CONTINUOUS
 62
    7
 10
12.341123778501839
 20
182.01912739692537
 11
12.341123778501839
 21
182.88485611880571
  0
LINE
  8
_0-1_作画層１
  6
CONTINUOUS
 62
    7
 10
12.241123778501844
 20
182.19233213413224
 11
12.241123778501844
 21
182.9425911274933
  0
LINE
  8
_0-1_作画層１
  6
CONTINUOUS
 62
    7
 10
12.14112377850185
 20
182.36553687133909
 11
12.14112377850185
 21
183.00032613618089
  0
LINE
  8
_0-1_作画層１
  6
CONTINUOUS
 62
    7
 10
12.041123778501856
 20
182.53874160854593
 11
12.041123778501856
 21
183.05806114486847
  0
LINE
  8
_0-1_作画層１
  6
CONTINUOUS
 62
    7
 10
11.941123778501861
 20
182.71194634575281
 11
11.941123778501861
 21
183.11579615355606
  0
LINE
  8
_0-1_作画層１
  6
CONTINUOUS
 62
    7
 10
11.841123778501867
 20
182.88515108295968
 11
11.841123778501867
 21
183.17353116224368
  0
LINE
  8
_0-1_作画層１
  6
CONTINUOUS
 62
    7
 10
11.741123778501873
 20
183.05835582016653
 11
11.741123778501873
 21
183.23126617093126
  0
LINE
  8
_0-1_作画層１
  6
CONTINUOUS
 62
    7
 10
11.641123778501878
 20
183.23156055737337
 11
11.641123778501878
 21
183.28900117961885
  0
LINE
  8
_0-1_作画層１
  6
CONTINUOUS
 62
    7
 10
-5.958853333314778
 20
211.36796875497032
 11
-2.9588590553606764
 21
211.36796875497032
  0
LINE
  8
_0-1_作画層１
  6
CONTINUOUS
 62
    7
 10
-2.9588590553606764
 20
210.36796684762169
 11
-2.9588590553606764
 21
211.36796875497032
  0
LINE
  8
_0-1_作画層１
  6
CONTINUOUS
 62
    7
 10
-5.958853333314778
 20
210.36796684762169
 11
-5.958853333314778
 21
211.36796875497032
  0
LINE
  8
_0-1_作画層１
  6
CONTINUOUS
 62
    7
 10
-0.9588552406634107
 20
210.36796684762169
 11
-0.9588552406634107
 21
211.36796875497032
  0
LINE
  8
_0-1_作画層１
  6
CONTINUOUS
 62
    7
 10
-0.9588552406634107
 20
210.36796684762169
 11
4.04114189831364
 21
210.36796684762169
  0
LINE
  8
_0-1_作画層１
  6
CONTINUOUS
 62
    7
 10
4.04114189831364
 20
210.36796684762169
 11
4.04114189831364
 21
211.36796875497032
  0
LINE
  8
_0-1_作画層１
  6
CONTINUOUS
 62
    7
 10
-0.9588552406634107
 20
211.36796875497032
 11
4.04114189831364
 21
211.36796875497032
  0
LINE
  8
_0-1_作画層１
  6
CONTINUOUS
 62
    7
 10
3.9148792335187181
 20
210.36796684762169
 11
4.04114189831364
 21
210.49422760506798
  0
LINE
  8
_0-1_作画層１
  6
CONTINUOUS
 62
    7
 10
3.6320318290387377
 20
210.36796684762169
 11
4.04114189831364
 21
210.77707596322227
  0
LINE
  8
_0-1_作画層１
  6
CONTINUOUS
 62
    7
 10
3.3491930076276049
 20
210.36796684762169
 11
4.04114189831364
 21
211.05990524789024
  0
LINE
  8
_0-1_作画層１
  6
CONTINUOUS
 62
    7
 10
3.066354186216472
 20
210.36796684762169
 11
4.04114189831364
 21
211.34275360604454
  0
LINE
  8
_0-1_作画層１
  6
CONTINUOUS
 62
    7
 10
2.7835067817364916
 20
210.36796684762169
 11
3.7835086890851244
 21
211.36796875497032
  0
LINE
  8
_0-1_作画層１
  6
CONTINUOUS
 62
    7
 10
2.5006593772565111
 20
210.36796684762169
 11
3.5006603309308275
 21
211.36796875497032
  0
LINE
  8
_0-1_作画層１
  6
CONTINUOUS
 62
    7
 10
2.2178119727765306
 20
210.36796684762169
 11
3.217812926450847
 21
211.36796875497032
  0
LINE
  8
_0-1_作画層１
  6
CONTINUOUS
 62
    7
 10
1.9349731513653978
 20
210.36796684762169
 11
2.9349741050397142
 21
211.36796875497032
  0
LINE
  8
_0-1_作画層１
  6
CONTINUOUS
 62
    7
 10
1.6521257468854174
 20
210.36796684762169
 11
2.6521267005597338
 21
211.36796875497032
  0
LINE
  8
_0-1_作画層１
  6
CONTINUOUS
 62
    7
 10
1.3692869254742845
 20
210.36796684762169
 11
2.369287879148601
 21
211.36796875497032
  0
LINE
  8
_0-1_作画層１
  6
CONTINUOUS
 62
    7
 10
1.0864385673199877
 20
210.36796684762169
 11
2.0864404746686205
 21
211.36796875497032
  0
LINE
  8
_0-1_作画層１
  6
CONTINUOUS
 62
    7
 10
0.8035911628400072
 20
210.36796684762169
 11
1.80359307018864
 21
211.36796875497032
  0
LINE
  8
_0-1_作画層１
  6
CONTINUOUS
 62
    7
 10
0.5207437583600267
 20
210.36796684762169
 11
1.5207447120343431
 21
211.36796875497032
  0
LINE
  8
_0-1_作画層１
  6
CONTINUOUS
 62
    7
 10
0.2379049369488939
 20
210.36796684762169
 11
1.2379058906232103
 21
211.36796875497032
  0
LINE
  8
_0-1_作画層１
  6
CONTINUOUS
 62
    7
 10
-0.0449338844622388
 20
210.36796684762169
 11
0.9550670692120775
 21
211.36796875497032
  0
LINE
  8
_0-1_作画層１
  6
CONTINUOUS
 62
    7
 10
-0.3277822426165357
 20
210.36796684762169
 11
0.672219664732097
 21
211.36796875497032
  0
LINE
  8
_0-1_作画層１
  6
CONTINUOUS
 62
    7
 10
-0.6106286934221998
 20
210.36796684762169
 11
0.3893732139264329
 21
211.36796875497032
  0
LINE
  8
_0-1_作画層１
  6
CONTINUOUS
 62
    7
 10
-0.8934770515764967
 20
210.36796684762169
 11
0.1065248557721361
 21
211.36796875497032
  0
LINE
  8
_0-1_作画層１
  6
CONTINUOUS
 62
    7
 10
-0.9588552406634107
 20
210.58542557259727
 11
-0.1763139656389967
 21
211.36796875497032
  0
LINE
  8
_0-1_作画層１
  6
CONTINUOUS
 62
    7
 10
-0.9588552406634107
 20
210.86827393075157
 11
-0.4591623237932935
 21
211.36796875497032
  0
LINE
  8
_0-1_作画層１
  6
CONTINUOUS
 62
    7
 10
-0.9588552406634107
 20
211.15112228890587
 11
-0.7420011452044263
 21
211.36796875497032
  0
LINE
  8
_0-1_作画層１
  6
CONTINUOUS
 62
    7
 10
-3.1562219551409498
 20
210.36796684762169
 11
-2.9588590553606764
 21
210.56532211800743
  0
LINE
  8
_0-1_作画層１
  6
CONTINUOUS
 62
    7
 10
-3.4390703132952467
 20
210.36796684762169
 11
-2.9588590553606764
 21
210.84818573495079
  0
LINE
  8
_0-1_作画層１
  6
CONTINUOUS
 62
    7
 10
-3.7219167641009108
 20
210.36796684762169
 11
-2.9588590553606764
 21
211.13101883431602
  0
LINE
  8
_0-1_作画層１
  6
CONTINUOUS
 62
    7
 10
-4.0047651222552076
 20
210.36796684762169
 11
-3.0047632149065748
 21
211.36796875497032
  0
LINE
  8
_0-1_作画層１
  6
CONTINUOUS
 62
    7
 10
-4.2876039436663405
 20
210.36796684762169
 11
-3.2876020363177076
 21
211.36796875497032
  0
LINE
  8
_0-1_作画層１
  6
CONTINUOUS
 62
    7
 10
-4.5704427650774733
 20
210.36796684762169
 11
-3.5704408577288405
 21
211.36796875497032
  0
LINE
  8
_0-1_作画層１
  6
CONTINUOUS
 62
    7
 10
-4.8532911232317701
 20
210.36796684762169
 11
-3.8532892158831373
 21
211.36796875497032
  0
LINE
  8
_0-1_作画層１
  6
CONTINUOUS
 62
    7
 10
-5.1361375740374342
 20
210.36796684762169
 11
-4.1361356666888014
 21
211.36796875497032
  0
LINE
  8
_0-1_作画層１
  6
CONTINUOUS
 62
    7
 10
-5.4189859321917311
 20
210.36796684762169
 11
-4.4189840248430983
 21
211.36796875497032
  0
LINE
  8
_0-1_作画層１
  6
CONTINUOUS
 62
    7
 10
-5.7018247536028639
 20
210.36796684762169
 11
-4.7018228462542311
 21
211.36796875497032
  0
LINE
  8
_0-1_作画層１
  6
CONTINUOUS
 62
    7
 10
-5.958853333314778
 20
210.39377518197227
 11
-4.9846616676653639
 21
211.36796875497032
  0
LINE
  8
_0-1_作画層１
  6
CONTINUOUS
 62
    7
 10
-5.958853333314778
 20
210.67662354012657
 11
-5.267517655214192
 21
211.36796875497032
  0
LINE
  8
_0-1_作画層１
  6
CONTINUOUS
 62
    7
 10
-5.958853333314778
 20
210.95947189828087
 11
-5.5503564766253248
 21
211.36796875497032
  0
LINE
  8
_0-1_作画層１
  6
CONTINUOUS
 62
    7
 10
-5.958853333314778
 20
211.24232025643516
 11
-5.8332048347796217
 21
211.36796875497032
  0
LINE
  8
_0-1_作画層１
  6
CONTINUOUS
 62
    7
 10
-5.958853333314778
 20
210.36796684762169
 11
-2.9588590553606764
 21
210.36796684762169
  0
LINE
  8
_0-1_作画層１
  6
CONTINUOUS
 62
    7
 10
-6.4824148109759108
 20
201.38505859872032
 11
-6.4759241035784498
 21
201.39155121346641
  0
LINE
  8
_0-1_作画層１
  6
CONTINUOUS
 62
    7
 10
-9.5607648781145826
 20
204.46986504098106
 11
-10.267874329408528
 21
203.76275368233848
  0
LINE
  8
_0-1_作画層１
  6
CONTINUOUS
 62
    7
 10
-6.6561399391497389
 20
201.49418182870079
 11
-6.5850473335589186
 21
201.56527443429161
  0
LINE
  8
_0-1_作画層１
  6
CONTINUOUS
 62
    7
 10
-6.8298631599749342
 20
201.60330505868126
 11
-6.6941705635393873
 21
201.73899956246544
  0
LINE
  8
_0-1_作画層１
  6
CONTINUOUS
 62
    7
 10
-7.0035882881487623
 20
201.7124206592672
 11
-6.803284256776692
 21
201.91272278329063
  0
LINE
  8
_0-1_作画層１
  6
CONTINUOUS
 62
    7
 10
-7.1773115089739576
 20
201.8215343525045
 11
-6.9124074867571608
 21
202.0864383747213
  0
LINE
  8
_0-1_作画層１
  6
CONTINUOUS
 62
    7
 10
-7.3510366371477858
 20
201.93065758248497
 11
-7.0215326240862623
 21
202.26017113228966
  0
LINE
  8
_0-1_作画層１
  6
CONTINUOUS
 62
    7
 10
-7.5247598579729811
 20
202.03977318307091
 11
-7.130646317323567
 21
202.43388672372032
  0
LINE
  8
_0-1_作画層１
  6
CONTINUOUS
 62
    7
 10
-7.6984945228899733
 20
202.14889641305138
 11
-7.2397695473040358
 21
202.60761948128868
  0
LINE
  8
_0-1_作画層１
  6
CONTINUOUS
 62
    7
 10
-7.8722177437151686
 20
202.25801010628868
 11
-7.3488927772845045
 21
202.78133507271934
  0
LINE
  8
_0-1_作画層１
  6
CONTINUOUS
 62
    7
 10
-8.0459333351458326
 20
202.36713333626915
 11
-7.458008377870442
 21
202.95505066415001
  0
LINE
  8
_0-1_作画層１
  6
CONTINUOUS
 62
    7
 10
-8.219666092714192
 20
202.47624893685509
 11
-7.5671316078509108
 21
203.12878342171837
  0
LINE
  8
_0-1_作画層１
  6
CONTINUOUS
 62
    7
 10
-6.4649702003802076
 20
201.37410469552208
 11
-10.267874329408528
 21
203.76275368233848
  0
LINE
  8
_0-1_作画層１
  6
CONTINUOUS
 62
    7
 10
-8.7408471992815748
 20
202.80360909005333
 11
-7.894491761049153
 21
203.64996452828575
  0
LINE
  8
_0-1_作画層１
  6
CONTINUOUS
 62
    7
 10
-8.9145627907122389
 20
202.91272469063927
 11
-8.0036149910296217
 21
203.82368011971641
  0
LINE
  8
_0-1_作画層１
  6
CONTINUOUS
 62
    7
 10
-9.0882955482805983
 20
203.02183838387657
 11
-8.1127305916155592
 21
203.99739571114708
  0
LINE
  8
_0-1_作画層１
  6
CONTINUOUS
 62
    7
 10
-9.2620206764544264
 20
203.1309711506002
 11
-8.221853821596028
 21
204.17112846871544
  0
LINE
  8
_0-1_作画層１
  6
CONTINUOUS
 62
    7
 10
-9.4357438972796217
 20
203.24008484383751
 11
-8.3309770515764967
 21
204.34486313363243
  0
LINE
  8
_0-1_作画層１
  6
CONTINUOUS
 62
    7
 10
-9.6094690254534498
 20
203.34920044442345
 11
-8.4401002815569655
 21
204.51857872506309
  0
LINE
  8
_0-1_作画層１
  6
CONTINUOUS
 62
    7
 10
-9.7831922462786451
 20
203.45831413766075
 11
-8.5492139747942701
 21
204.69229240914513
  0
LINE
  8
_0-1_作画層１
  6
CONTINUOUS
 62
    7
 10
-9.9569173744524733
 20
203.56744690438438
 11
-8.6583372047747389
 21
204.86602707406212
  0
LINE
  8
_0-1_作画層１
  6
CONTINUOUS
 62
    7
 10
-10.130642502626301
 20
203.67656250497032
 11
-8.7674623421038405
 21
205.03974266549278
  0
LINE
  8
_0-1_作画層１
  6
CONTINUOUS
 62
    7
 10
-9.5704065254534498
 20
204.4602233936422
 11
-8.8536535194720045
 21
205.17697449227501
  0
LINE
  8
_0-1_作画層１
  6
CONTINUOUS
 62
    7
 10
-8.3933912208880201
 20
202.58537216683555
 11
-7.6762548378313795
 21
203.30251617928673
  0
LINE
  8
_0-1_作画層１
  6
CONTINUOUS
 62
    7
 10
-8.5671239784563795
 20
202.69448586007286
 11
-7.7853780678118483
 21
203.47623177071739
  0
LINE
  8
_0-1_作画層１
  6
CONTINUOUS
 62
    7
 10
-8.8536535194720045
 20
205.17697449227501
 11
-6.4649702003802076
 21
201.37410469552208
  0
LINE
  8
_0-1_作画層１
  6
CONTINUOUS
 62
    7
 10
-1.744232743104817
 20
206.4163944294088
 11
-0.245218842347981
 21
207.12882347603966
  0
LINE
  8
_0-1_作画層１
  6
CONTINUOUS
 62
    7
 10
-0.245218842347981
 20
207.12882347603966
 11
-0.2295499733294263
 21
207.13627739449669
  0
LINE
  8
_0-1_作画層１
  6
CONTINUOUS
 62
    7
 10
-2.1734815529192701
 20
207.31958313485313
 11
-0.6633497169817701
 21
208.03729553719688
  0
LINE
  8
_0-1_作画層１
  6
CONTINUOUS
 62
    7
 10
-0.6633497169817701
 20
208.03729553719688
 11
-0.6588006904925123
 21
208.03946609994102
  0
LINE
  8
_0-1_作画層１
  6
CONTINUOUS
 62
    7
 10
-2.1734815529192701
 20
207.31958313485313
 11
-3.6828809669817701
 21
206.60221786996055
  0
LINE
  8
_0-1_作画層１
  6
CONTINUOUS
 62
    7
 10
-1.744232743104817
 20
206.4163944294088
 11
-3.2455202034319655
 21
205.70288010140587
  0
LINE
  8
_0-1_作画層１
  6
CONTINUOUS
 62
    7
 10
-0.646219818910481
 20
206.93824120064903
 11
-0.2674508980120435
 21
207.31701012154747
  0
LINE
  8
_0-1_作画層１
  6
CONTINUOUS
 62
    7
 10
-1.1852479866350905
 20
206.68205948373009
 11
-0.3384462288225904
 21
207.52887077828575
  0
LINE
  8
_0-1_作画層１
  6
CONTINUOUS
 62
    7
 10
-1.7242761543596998
 20
206.42587776681114
 11
-0.4302297523821607
 21
207.71992607613731
  0
LINE
  8
_0-1_作画層１
  6
CONTINUOUS
 62
    7
 10
-2.263296692689778
 20
206.16969795724083
 11
-0.540262787660481
 21
207.89273186227013
  0
LINE
  8
_0-1_作画層１
  6
CONTINUOUS
 62
    7
 10
-2.8023267677630201
 20
205.91351624032188
 11
-0.6922899177874342
 21
208.0235435535543
  0
LINE
  8
_0-1_作画層１
  6
CONTINUOUS
 62
    7
 10
-3.2792306831682936
 20
205.71945114632774
 11
-1.2313180855120436
 21
207.76736183663536
  0
LINE
  8
_0-1_作画層１
  6
CONTINUOUS
 62
    7
 10
-3.4025693825091139
 20
205.87895889779259
 11
-1.7703481605852858
 21
207.51118011971641
  0
LINE
  8
_0-1_作画層１
  6
CONTINUOUS
 62
    7
 10
-3.5088315895403639
 20
206.055543141567
 11
-2.3093858650530592
 21
207.25499840279747
  0
ARC
  8
_0-1_作画層１
  6
CONTINUOUS
 62
    7
 10
-1.9588571480120436
 20
206.86798782845662
 40
1.7500000000000056
 50
43.385589599609901
 51
187.66662597656128
  0
ARC
  8
_0-1_作画層１
  6
CONTINUOUS
 62
    7
 10
-1.9588571480122141
 20
206.86798782845659
 40
1.750000000000157
 50
8.0641479492204127
 51
43.385284423826633
  0
ARC
  8
_0-1_作画層１
  6
CONTINUOUS
 62
    7
 10
-1.9588571480120436
 20
206.86798782845665
 40
1.7500000000000002
 50
222.75694274902352
 51
8.0641479492192616
  0
LINE
  8
_0-1_作画層１
  6
CONTINUOUS
 62
    7
 10
-3.2455202034319655
 20
205.70288010140587
 11
-3.2589059761370436
 21
205.69651146432091
  0
LINE
  8
_0-1_作画層１
  6
CONTINUOUS
 62
    7
 10
-3.6828809669817701
 20
206.60221786996055
 11
-3.6881738594378248
 21
206.59969826241661
  0
LINE
  8
_0-1_作画層１
  6
CONTINUOUS
 62
    7
 10
-3.5964170387591139
 20
206.25081558724571
 11
-2.8484140327776686
 21
206.99881859322716
  0
LINE
  8
_0-1_作画層１
  6
CONTINUOUS
 62
    7
 10
-3.6624437263811842
 20
206.46761055489708
 11
-3.3874250343645826
 21
206.74263687630821
  0
ARC
  8
_0-1_作画層１
  6
CONTINUOUS
 62
    7
 10
-1.9588571480122141
 20
206.86798782845656
 40
1.7499999999998153
 50
187.6666259765602
 51
222.75694274902523
  0
LINE
  8
_0-1_作画層１
  6
CONTINUOUS
 62
    7
 10
-4.0571790626848951
 20
204.06672211190391
 11
-4.3569379738177076
 21
203.66655273934532
  0
LINE
  8
_0-1_作画層１
  6
CONTINUOUS
 62
    7
 10
-4.4287210396136061
 20
203.72160072823692
 11
-4.0722433021868483
 21
204.07807655831505
  0
LINE
  8
_0-1_作画層１
  6
CONTINUOUS
 62
    7
 10
-5.8951288154925123
 20
204.59773750802208
 11
-5.5097452095354811
 21
205.02646179696251
  0
LINE
  8
_0-1_作画層１
  6
CONTINUOUS
 62
    7
 10
-4.5835920265520826
 20
203.84957809945274
 11
-4.2290483406389967
 21
204.20411224862266
  0
LINE
  8
_0-1_作画層１
  6
CONTINUOUS
 62
    7
 10
-4.731323807557942
 20
203.98469276925255
 11
-4.3776899269427076
 21
204.33831902047325
  0
LINE
  8
_0-1_作画層１
  6
CONTINUOUS
 62
    7
 10
-4.8719774177874342
 20
204.12687798043419
 11
-4.5182386329973951
 21
204.48060722848106
  0
LINE
  8
_0-1_作画層１
  6
CONTINUOUS
 62
    7
 10
-5.0055528572405592
 20
204.27614899178673
 11
-4.650686829408528
 21
204.63101692696739
  0
LINE
  8
_0-1_作画層１
  6
CONTINUOUS
 62
    7
 10
-5.1319738319720045
 20
204.43255920907188
 11
-4.7749353340471998
 21
204.78959770699669
  0
LINE
  8
_0-1_作画層１
  6
CONTINUOUS
 62
    7
 10
-5.2511487892473951
 20
204.59624977608848
 11
-4.8908315590227858
 21
204.95655937691856
  0
ARC
  8
_0-1_作画層１
  6
CONTINUOUS
 62
    7
 10
-1.9588571480121573
 20
206.86798782845656
 40
3.9999999999998592
 50
207.41172790527315
 51
233.16444396972707
  0
LINE
  8
_0-1_作画層１
  6
CONTINUOUS
 62
    7
 10
-5.4325014046038405
 20
207.31842728158165
 11
-5.8951288154925123
 21
204.59773750802208
  0
LINE
  8
_0-1_作画層１
  6
CONTINUOUS
 62
    7
 10
-5.3628717354143873
 20
204.76735802193809
 11
-4.9980817726458326
 21
205.13214607735802
  0
LINE
  8
_0-1_作画層１
  6
CONTINUOUS
 62
    7
 10
-5.466919510682942
 20
204.94614716073204
 11
-5.0963216713274733
 21
205.31674500008751
  0
LINE
  8
_0-1_作画層１
  6
CONTINUOUS
 62
    7
 10
-5.8535276344622389
 20
204.84238739510704
 11
-5.1850439003313795
 21
205.51088066598106
  0
LINE
  8
_0-1_作画層１
  6
CONTINUOUS
 62
    7
 10
-5.7955766609514967
 20
205.18318672677208
 11
-5.2635637214983717
 21
205.7151996662252
  0
LINE
  8
_0-1_作画層１
  6
CONTINUOUS
 62
    7
 10
-5.7376237800921217
 20
205.52398605843712
 11
-5.3309999397600905
 21
205.93061180611778
  0
LINE
  8
_0-1_作画層１
  6
CONTINUOUS
 62
    7
 10
-5.6796804359759108
 20
205.86476822396446
 11
-5.3861509254778639
 21
206.15830727120567
  0
LINE
  8
_0-1_作画層１
  6
CONTINUOUS
 62
    7
 10
-5.6217294624651686
 20
206.2055503894918
 11
-5.4274106911028639
 21
206.39987679024864
  0
LINE
  8
_0-1_作画層１
  6
CONTINUOUS
 62
    7
 10
-5.5637861183489576
 20
206.54634972115684
 11
-5.4525285652483717
 21
206.65761681100059
  0
LINE
  8
_0-1_作画層１
  6
CONTINUOUS
 62
    7
 10
-5.5058351448382155
 20
206.88714905282188
 11
-5.4582239082659498
 21
206.93475838204552
  0
LINE
  8
_0-1_作画層１
  6
CONTINUOUS
 62
    7
 10
-5.4478822639788405
 20
207.22794838448692
 11
-5.439413636049153
 21
207.23641701241661
  0
ARC
  8
_0-1_作画層１
  6
CONTINUOUS
 62
    7
 10
-1.9588571480120436
 20
206.86798782845665
 40
3.50000000000002
 50
172.61149597167963
 51
233.1645355224608
  0
LINE
  8
_0-1_作画層１
  6
CONTINUOUS
 62
    7
 10
47.276542098203763
 20
207.06067200204063
 11
47.84843960491763
 21
207.63255997201134
  0
LINE
  8
_0-1_作画層１
  6
CONTINUOUS
 62
    7
 10
46.828912169614895
 20
206.89586182137657
 11
48.013230712095364
 21
208.08019943734337
  0
LINE
  8
_0-1_作画層１
  6
CONTINUOUS
 62
    7
 10
46.518365294614895
 20
206.86816330453087
 11
48.040929228941067
 21
208.39074631234337
  0
LINE
  8
_0-1_作画層１
  6
CONTINUOUS
 62
    7
 10
46.261624724546536
 20
206.89426918526817
 11
48.014832884946927
 21
208.64748688241173
  0
LINE
  8
_0-1_作画層１
  6
CONTINUOUS
 62
    7
 10
46.039037139097317
 20
206.95451469918419
 11
47.95457974163638
 21
208.87007446786095
  0
LINE
  8
_0-1_作画層１
  6
CONTINUOUS
 62
    7
 10
45.842347533384427
 20
207.04068871041466
 11
47.868413359800442
 21
209.06674500008751
  0
LINE
  8
_0-1_作画層１
  6
CONTINUOUS
 62
    7
 10
45.667485625425442
 20
207.14866753121544
 11
47.760444075742825
 21
209.24161644478966
  0
LINE
  8
_0-1_作画層１
  6
CONTINUOUS
 62
    7
 10
45.51235333172427
 20
207.2763626148336
 11
47.632739455381497
 21
209.39674873849083
  0
LINE
  8
_0-1_作画層１
  6
CONTINUOUS
 62
    7
 10
45.376178176084622
 20
207.42304535409141
 11
47.486056716123684
 21
209.53293343087364
  0
LINE
  8
_0-1_作画層１
  6
CONTINUOUS
 62
    7
 10
45.259269148985013
 20
207.58895607491661
 11
47.320136458555325
 21
209.64983292123009
  0
LINE
  8
_0-1_作画層１
  6
CONTINUOUS
 62
    7
 10
45.163051039854153
 20
207.77558632394005
 11
47.133517653623684
 21
209.74605293770958
  0
LINE
  8
_0-1_作画層１
  6
CONTINUOUS
 62
    7
 10
45.09056606976138
 20
207.98595924874473
 11
46.923144728818997
 21
209.81852646371055
  0
LINE
  8
_0-1_作画層１
  6
CONTINUOUS
 62
    7
 10
45.047837645689114
 20
208.22606010934044
 11
46.68303433148013
 21
209.86127396126915
  0
LINE
  8
_0-1_作画層１
  6
CONTINUOUS
 62
    7
 10
45.047723204771145
 20
208.5088016559713
 11
46.400300414243802
 21
209.86137886544395
  0
LINE
  8
_0-1_作画層１
  6
CONTINUOUS
 62
    7
 10
45.128440291563138
 20
208.87234802743126
 11
46.036746413389309
 21
209.78066177865196
  0
CIRCLE
  8
_0-1_作画層１
  6
CONTINUOUS
 62
    7
 10
46.541102797666653
 20
208.36799927254845
 40
1.5
  0
LINE
  8
_0-1_作画層１
  6
CONTINUOUS
 62
    7
 10
44.332608611265286
 20
150.09383125802208
 11
44.815242201963528
 21
150.57646484872032
  0
LINE
  8
_0-1_作画層１
  6
CONTINUOUS
 62
    7
 10
43.857734114805325
 20
149.90179558297325
 11
45.007277877012356
 21
151.05133934518028
  0
LINE
  8
_0-1_作画層１
  6
CONTINUOUS
 62
    7
 10
43.541089446226223
 20
149.86798973580528
 11
45.041083724180325
 21
151.36798401375938
  0
LINE
  8
_0-1_作画層１
  6
CONTINUOUS
 62
    7
 10
43.280972869077786
 20
149.89071960946251
 11
45.018353850523098
 21
151.62810249825645
  0
LINE
  8
_0-1_作画層１
  6
CONTINUOUS
 62
    7
 10
43.05600681988345
 20
149.9485923816793
 11
44.960481078306302
 21
151.85306854745079
  0
LINE
  8
_0-1_作画層１
  6
CONTINUOUS
 62
    7
 10
42.857427031675442
 20
150.03285141488243
 11
44.876229674497708
 21
152.05164642831016
  0
LINE
  8
_0-1_作画層１
  6
CONTINUOUS
 62
    7
 10
42.680877120176419
 20
150.1391498615377
 11
44.769923598447903
 21
152.22819633980919
  0
LINE
  8
_0-1_作画層１
  6
CONTINUOUS
 62
    7
 10
42.52419415203677
 20
150.26529808541466
 11
44.64377537457095
 21
152.38487930794884
  0
LINE
  8
_0-1_作画層１
  6
CONTINUOUS
 62
    7
 10
42.386489302793606
 20
150.41043968697716
 11
44.49863377300845
 21
152.522584157192
  0
LINE
  8
_0-1_作画層１
  6
CONTINUOUS
 62
    7
 10
42.267978102842434
 20
150.57476730843712
 11
44.334306151548489
 21
152.64109535714317
  0
LINE
  8
_0-1_作画層１
  6
CONTINUOUS
 62
    7
 10
42.169991881528958
 20
150.75961990853477
 11
44.149453551450833
 21
152.73908157845665
  0
LINE
  8
_0-1_作画層１
  6
CONTINUOUS
 62
    7
 10
42.095425994077786
 20
150.9679023792379
 11
43.941171080747708
 21
152.81364746590782
  0
LINE
  8
_0-1_作画層１
  6
CONTINUOUS
 62
    7
 10
42.049933821836575
 20
151.20524712105919
 11
43.703826338926419
 21
152.85914154549766
  0
LINE
  8
_0-1_作画層１
  6
CONTINUOUS
 62
    7
 10
42.045550734678372
 20
151.48370285531212
 11
43.425370604673489
 21
152.86352463265587
  0
LINE
  8
_0-1_作画層１
  6
CONTINUOUS
 62
    7
 10
42.116433531919583
 20
151.83743401070763
 11
43.071639449277981
 21
152.79264183541466
  0
CIRCLE
  8
_0-1_作画層１
  6
CONTINUOUS
 62
    7
 10
43.541081816831692
 20
151.36799164315391
 40
1.5
  0
LINE
  8
_0-1_作画層１
  6
CONTINUOUS
 62
    7
 10
-15.958872406801106
 20
152.86802025338341
 11
-14.958874314149739
 21
152.86802025338341
  0
LINE
  8
_0-1_作画層１
  6
CONTINUOUS
 62
    7
 10
-14.958874314149739
 20
145.86801834603477
 11
-14.958874314149739
 21
152.86802025338341
  0
LINE
  8
_0-1_作画層１
  6
CONTINUOUS
 62
    7
 10
-15.958876221498372
 20
145.86801834603477
 11
-14.958874314149739
 21
145.86801834603477
  0
LINE
  8
_0-1_作画層１
  6
CONTINUOUS
 62
    7
 10
-15.958876221498372
 20
145.86801834603477
 11
-15.958872406801106
 21
152.86802025338341
  0
LINE
  8
_0-1_作画層１
  6
CONTINUOUS
 62
    7
 10
-12.958872406801106
 20
152.86802025338341
 11
-11.958870499452473
 21
152.86802025338341
  0
LINE
  8
_0-1_作画層１
  6
CONTINUOUS
 62
    7
 10
-11.958870499452473
 20
145.86801834603477
 11
-11.958870499452473
 21
152.86802025338341
  0
LINE
  8
_0-1_作画層１
  6
CONTINUOUS
 62
    7
 10
-12.958872406801106
 20
145.86801834603477
 11
-11.958870499452473
 21
145.86801834603477
  0
LINE
  8
_0-1_作画層１
  6
CONTINUOUS
 62
    7
 10
-12.958872406801106
 20
145.86801834603477
 11
-12.958872406801106
 21
152.86802025338341
  0
LINE
  8
_0-1_作画層１
  6
CONTINUOUS
 62
    7
 10
-9.9588685921038405
 20
152.86802025338341
 11
-8.9588666847552076
 21
152.86802025338341
  0
LINE
  8
_0-1_作画層１
  6
CONTINUOUS
 62
    7
 10
-8.9588666847552076
 20
145.86801834603477
 11
-8.9588666847552076
 21
152.86802025338341
  0
LINE
  8
_0-1_作画層１
  6
CONTINUOUS
 62
    7
 10
-9.9588685921038405
 20
145.86801834603477
 11
-8.9588666847552076
 21
145.86801834603477
  0
LINE
  8
_0-1_作画層１
  6
CONTINUOUS
 62
    7
 10
-9.9588685921038405
 20
145.86801834603477
 11
-9.9588685921038405
 21
152.86802025338341
  0
CIRCLE
  8
_0-1_作画層１
  6
CONTINUOUS
 62
    7
 10
16.541123778501628
 20
178.36797638436485
 40
11.180339887498949
  0
LINE
  8
_0-1_作画層１
  6
CONTINUOUS
 62
    7
 10
28.041137129942058
 20
178.36797638436485
 11
34.011439711729167
 21
178.36797638436485
  0
LINE
  8
_0-1_作画層１
  6
CONTINUOUS
 62
    7
 10
33.916175276914714
 20
178.36797638436485
 11
34.040686995664714
 21
178.49248810311485
  0
LINE
  8
_0-1_作画層１
  6
CONTINUOUS
 62
    7
 10
33.774762541929363
 20
178.36797638436485
 11
34.039126784483074
 21
178.6323410739534
  0
LINE
  8
_0-1_作画層１
  6
CONTINUOUS
 62
    7
 10
26.440621764341472
 20
188.2674743702047
 11
27.147730261961101
 21
188.97458286782432
  0
LINE
  8
_0-1_作画層１
  6
CONTINUOUS
 62
    7
 10
6.6416257926617845
 20
188.2674743702047
 11
8.709504992643474
 21
191.84919090768028
  0
LINE
  8
_0-1_作画層１
  6
CONTINUOUS
 62
    7
 10
8.7153939315472826
 20
191.87329121133018
 11
9.3482460090314135
 21
191.57062263985802
  0
LINE
  8
_0-1_作画層１
  6
CONTINUOUS
 62
    7
 10
25.870248229185222
 20
190.11394424935509
 11
27.078645140806316
 21
188.90552254220177
  0
LINE
  8
_0-1_作画層１
  6
CONTINUOUS
 62
    7
 10
25.291684538999675
 20
190.55104752083946
 11
27.00795212475407
 21
188.83480473061729
  0
LINE
  8
_0-1_作画層１
  6
CONTINUOUS
 62
    7
 10
24.834662825742839
 20
190.86665649911095
 11
26.937233359495281
 21
188.7640859653585
  0
LINE
  8
_0-1_作画層１
  6
CONTINUOUS
 62
    7
 10
24.440392405668376
 20
191.1194908191793
 11
26.866540343443035
 21
188.69339294930626
  0
LINE
  8
_0-1_作画層１
  6
CONTINUOUS
 62
    7
 10
24.086330802122234
 20
191.33214016457725
 11
26.795821578184245
 21
188.62267418404747
  0
LINE
  8
_0-1_作画層１
  6
CONTINUOUS
 62
    7
 10
23.760898024717449
 20
191.516161160671
 11
26.725103766599773
 21
188.551956372463
  0
LINE
  8
_0-1_作画層１
  6
CONTINUOUS
 62
    7
 10
23.457264811674236
 20
191.67840786477257
 11
26.654385001340984
 21
188.48123760720421
  0
LINE
  8
_0-1_作画層１
  6
CONTINUOUS
 62
    7
 10
23.170927436033367
 20
191.82330818673302
 11
26.583667189756511
 21
188.41051979561973
  0
LINE
  8
_0-1_作画層１
  6
CONTINUOUS
 62
    7
 10
22.898793131986736
 20
191.95400639077354
 11
26.512973220029949
 21
188.33982582589317
  0
LINE
  8
_0-1_作画層１
  6
CONTINUOUS
 62
    7
 10
22.638634593168376
 20
192.07272739907432
 11
26.442255408445476
 21
188.2691080143087
  0
LINE
  8
_0-1_作画層１
  6
CONTINUOUS
 62
    7
 10
22.388770014921306
 20
192.18120499154259
 11
25.204189688840984
 21
189.36573620339561
  0
LINE
  8
_0-1_作画層１
  6
CONTINUOUS
 62
    7
 10
22.147763640562175
 20
192.28075047036339
 11
24.64314499584782
 21
189.78539391060997
  0
LINE
  8
_0-1_作画層１
  6
CONTINUOUS
 62
    7
 10
21.914675624052165
 20
192.37242718239952
 11
24.199559600034831
 21
190.0875427295797
  0
LINE
  8
_0-1_作画層１
  6
CONTINUOUS
 62
    7
 10
21.688564688840984
 20
192.45710106393028
 11
23.816671282926677
 21
190.32901974221397
  0
LINE
  8
_0-1_作画層１
  6
CONTINUOUS
 62
    7
 10
21.468789012113689
 20
192.53548927804161
 11
23.472655684629558
 21
190.53159828683067
  0
LINE
  8
_0-1_作画層１
  6
CONTINUOUS
 62
    7
 10
21.25470391003239
 20
192.6081382801168
 11
23.156377703825115
 21
190.70646400948692
  0
LINE
  8
_0-1_作画層１
  6
CONTINUOUS
 62
    7
 10
21.045840174833415
 20
192.67558975716759
 11
22.861157328764079
 21
190.86027260323692
  0
LINE
  8
_0-1_作画層１
  6
CONTINUOUS
 62
    7
 10
20.841751486936687
 20
192.73824234505821
 11
22.582738310972331
 21
190.99725552102257
  0
LINE
  8
_0-1_作画層１
  6
CONTINUOUS
 62
    7
 10
20.642092616239665
 20
192.79648895760704
 11
22.318076522031902
 21
191.12050552865196
  0
LINE
  8
_0-1_作画層１
  6
CONTINUOUS
 62
    7
 10
20.446515948454021
 20
192.85065384408165
 11
22.06501999584782
 21
191.23212547799278
  0
LINE
  8
_0-1_作画層１
  6
CONTINUOUS
 62
    7
 10
20.254725367704509
 20
192.9010078479879
 11
21.821910292783855
 21
191.33382339974571
  0
LINE
  8
_0-1_作画層１
  6
CONTINUOUS
 62
    7
 10
20.06649795261967
 20
192.94782372018028
 11
21.587436110654949
 21
191.42686005135704
  0
LINE
  8
_0-1_作画層１
  6
CONTINUOUS
 62
    7
 10
19.881610781828044
 20
192.99127407571007
 11
21.360608012357829
 21
191.51227684518028
  0
LINE
  8
_0-1_作画層１
  6
CONTINUOUS
 62
    7
 10
19.699841649213909
 20
193.03163166543175
 11
21.140584857145427
 21
191.59086342354942
  0
LINE
  8
_0-1_作画層１
  6
CONTINUOUS
 62
    7
 10
19.521041543165325
 20
193.06899471779991
 11
20.926697642484783
 21
191.66333885689903
  0
LINE
  8
_0-1_作画層１
  6
CONTINUOUS
 62
    7
 10
19.345037610212444
 20
193.1035863926046
 11
20.718353182951091
 21
191.73027153512169
  0
LINE
  8
_0-1_作画層１
  6
CONTINUOUS
 62
    7
 10
19.171681315580486
 20
193.13553162118126
 11
20.515081555524944
 21
191.79213066598106
  0
LINE
  8
_0-1_作画層１
  6
CONTINUOUS
 62
    7
 10
19.000848920026897
 20
193.16492672463585
 11
20.31643691746342
 21
191.84933872719932
  0
LINE
  8
_0-1_作画層１
  6
CONTINUOUS
 62
    7
 10
18.832416445890544
 20
193.19194717904259
 11
20.122097642103313
 21
191.90224190255333
  0
LINE
  8
_0-1_作画層１
  6
CONTINUOUS
 62
    7
 10
18.666260630766033
 20
193.21666641732384
 11
19.931742102781413
 21
191.95118542214561
  0
LINE
  8
_0-1_作画層１
  6
CONTINUOUS
 62
    7
 10
18.502282292524455
 20
193.23920841714073
 11
19.745073468366741
 21
191.99641724129845
  0
LINE
  8
_0-1_作画層１
  6
CONTINUOUS
 62
    7
 10
18.340407163778423
 20
193.25967140694786
 11
19.56189385143864
 21
192.03821011086632
  0
LINE
  8
_0-1_作画層１
  6
CONTINUOUS
 62
    7
 10
18.180561096349834
 20
193.27810593148399
 11
19.381930977979778
 21
192.0767366459005
  0
LINE
  8
_0-1_作画層１
  6
CONTINUOUS
 62
    7
 10
18.022595436254619
 20
193.29463501473595
 11
19.205060870329021
 21
192.11219425698448
  0
LINE
  8
_0-1_作画層１
  6
CONTINUOUS
 62
    7
 10
17.866510421911357
 20
193.30930824776817
 11
19.03103652683842
 21
192.1447822620504
  0
LINE
  8
_0-1_作画層１
  6
CONTINUOUS
 62
    7
 10
17.712206990400432
 20
193.32220001717735
 11
18.859758526960491
 21
192.17462368508507
  0
LINE
  8
_0-1_作画層１
  6
CONTINUOUS
 62
    7
 10
17.55963555065739
 20
193.33335896035362
 11
18.69107881275761
 21
192.20191593667198
  0
LINE
  8
_0-1_作画層１
  6
CONTINUOUS
 62
    7
 10
17.408697278181194
 20
193.34288616677452
 11
18.524824053922771
 21
192.22673435708214
  0
LINE
  8
_0-1_作画層１
  6
CONTINUOUS
 62
    7
 10
17.259367317834972
 20
193.35075397988487
 11
18.360944659391521
 21
192.24920197030235
  0
LINE
  8
_0-1_作画層１
  6
CONTINUOUS
 62
    7
 10
17.111571521440624
 20
193.35711403390098
 11
18.199267537275432
 21
192.26944275399376
  0
LINE
  8
_0-1_作画層１
  6
CONTINUOUS
 62
    7
 10
16.965309859195827
 20
193.36198826333214
 11
18.039767772832988
 21
192.28753014107872
  0
LINE
  8
_0-1_作画層１
  6
CONTINUOUS
 62
    7
 10
16.82048332778561
 20
193.36537857552696
 11
17.882297069707988
 21
192.30358906289268
  0
LINE
  8
_0-1_作画層１
  6
CONTINUOUS
 62
    7
 10
16.677091957012294
 20
193.3673574497335
 11
17.726756364980815
 21
192.31769295235802
  0
LINE
  8
_0-1_作画層１
  6
CONTINUOUS
 62
    7
 10
16.535036758927731
 20
193.36797638436485
 11
17.573145777860759
 21
192.32989235421348
  0
LINE
  8
_0-1_作画層１
  6
CONTINUOUS
 62
    7
 10
16.39434248296368
 20
193.3672582676046
 11
17.421316713968395
 21
192.34028454323936
  0
LINE
  8
_0-1_作画層１
  6
CONTINUOUS
 62
    7
 10
16.254934878030895
 20
193.36525459786583
 11
17.271269173303722
 21
192.34892006417442
  0
LINE
  8
_0-1_作画層１
  6
CONTINUOUS
 62
    7
 10
16.116789222637294
 20
193.36196346779991
 11
17.122879535833476
 21
192.35589809914757
  0
LINE
  8
_0-1_作画層１
  6
CONTINUOUS
 62
    7
 10
15.979856044927715
 20
193.35748501321007
 11
16.97612297622311
 21
192.36121769448448
  0
LINE
  8
_0-1_作画層１
  6
CONTINUOUS
 62
    7
 10
15.844160051027416
 20
193.35176868935753
 11
16.83095005241978
 21
192.36497898598839
  0
LINE
  8
_0-1_作画層１
  6
CONTINUOUS
 62
    7
 10
15.709602267423747
 20
193.34491463204552
 11
16.687286482134937
 21
192.36723061104942
  0
LINE
  8
_0-1_作画層１
  6
CONTINUOUS
 62
    7
 10
15.57618269411671
 20
193.3368980457418
 11
16.545107559708981
 21
192.36797256966759
  0
LINE
  8
_0-1_作画層１
  6
CONTINUOUS
 62
    7
 10
15.443876654783367
 20
193.32779236336876
 11
16.404339046159862
 21
192.3673049976461
  0
LINE
  8
_0-1_作画層１
  6
CONTINUOUS
 62
    7
 10
15.312659294286846
 20
193.31759758492638
 11
16.264980942884563
 21
192.36525078316856
  0
LINE
  8
_0-1_作画層１
  6
CONTINUOUS
 62
    7
 10
15.182505995908855
 20
193.30631466408897
 11
16.126958996931194
 21
192.36186142464805
  0
LINE
  8
_0-1_作画層１
  6
CONTINUOUS
 62
    7
 10
15.053391844907878
 20
193.2940160801046
 11
15.990273267904399
 21
192.35713501473595
  0
LINE
  8
_0-1_作画層１
  6
CONTINUOUS
 62
    7
 10
14.925292284170268
 20
193.28067989846397
 11
15.854824692884563
 21
192.35114689370323
  0
LINE
  8
_0-1_作画層１
  6
CONTINUOUS
 62
    7
 10
14.798182398954509
 20
193.26637764474083
 11
15.720662803331493
 21
192.34392185708214
  0
LINE
  8
_0-1_作画層１
  6
CONTINUOUS
 62
    7
 10
14.67206230846989
 20
193.25108547707725
 11
15.58766391960728
 21
192.33548374673057
  0
LINE
  8
_0-1_作画層１
  6
CONTINUOUS
 62
    7
 10
14.546907336393474
 20
193.23482914467979
 11
15.455852777639507
 21
192.32585831185509
  0
LINE
  8
_0-1_作画層１
  6
CONTINUOUS
 62
    7
 10
14.422667653242229
 20
193.21763153573204
 11
15.325229198614238
 21
192.3150703479879
  0
LINE
  8
_0-1_作画層１
  6
CONTINUOUS
 62
    7
 10
14.299368531385539
 20
193.19951935311485
 11
15.195694477239726
 21
192.30316849251915
  0
LINE
  8
_0-1_作画層１
  6
CONTINUOUS
 62
    7
 10
14.176959902921794
 20
193.1804906894796
 11
15.067273289838909
 21
192.29017754098106
  0
LINE
  8
_0-1_作画層１
  6
CONTINUOUS
 62
    7
 10
14.055442244688152
 20
193.16059704323936
 11
14.939940721670268
 21
192.27612324258018
  0
LINE
  8
_0-1_作画層１
  6
CONTINUOUS
 62
    7
 10
13.934790761152385
 20
193.13981171151329
 11
14.813622624555705
 21
192.26097984810997
  0
LINE
  8
_0-1_作画層１
  6
CONTINUOUS
 62
    7
 10
13.815029771009563
 20
193.11816139718223
 11
14.688343913236736
 21
192.24484653969932
  0
LINE
  8
_0-1_作画層１
  6
CONTINUOUS
 62
    7
 10
13.696085364500163
 20
193.09569378396202
 11
14.564079553762554
 21
192.22767467995811
  0
LINE
  8
_0-1_作画層１
  6
CONTINUOUS
 62
    7
 10
13.577982337156413
 20
193.07238502999473
 11
14.440805108228801
 21
192.2095377018087
  0
LINE
  8
_0-1_作画層１
  6
CONTINUOUS
 62
    7
 10
13.460671336332439
 20
193.04825897713829
 11
14.31852021900761
 21
192.19040985604454
  0
LINE
  8
_0-1_作画層１
  6
CONTINUOUS
 62
    7
 10
13.344176442304729
 20
193.02334232827354
 11
14.197151095548747
 21
192.17036743661095
  0
LINE
  8
_0-1_作画層１
  6
CONTINUOUS
 62
    7
 10
13.228473574796794
 20
192.99760838051964
 11
14.076722056547283
 21
192.14935989876915
  0
LINE
  8
_0-1_作画層１
  6
CONTINUOUS
 62
    7
 10
13.113562733808635
 20
192.97113247414757
 11
13.957208783308147
 21
192.12746162911583
  0
LINE
  8
_0-1_作画層１
  6
CONTINUOUS
 62
    7
 10
12.99939385143864
 20
192.94386406441856
 11
13.838586003461955
 21
192.10464783211876
  0
LINE
  8
_0-1_作画層１
  6
CONTINUOUS
 62
    7
 10
12.885992200056194
 20
192.91582985421348
 11
13.720854193845867
 21
192.08096714516807
  0
LINE
  8
_0-1_作画層１
  6
CONTINUOUS
 62
    7
 10
12.773357541242717
 20
192.88705177804161
 11
13.604013116041301
 21
192.05642147561241
  0
LINE
  8
_0-1_作画層１
  6
CONTINUOUS
 62
    7
 10
12.661415965238689
 20
192.85755749245811
 11
13.487988621870159
 21
192.03100986977745
  0
LINE
  8
_0-1_作画層１
  6
CONTINUOUS
 62
    7
 10
12.550241143385051
 20
192.82732029458214
 11
13.372805268446086
 21
192.0047561695211
  0
LINE
  8
_0-1_作画層１
  6
CONTINUOUS
 62
    7
 10
12.439759165922283
 20
192.79639072915245
 11
13.258463294187663
 21
191.97768612404991
  0
LINE
  8
_0-1_作画層１
  6
CONTINUOUS
 62
    7
 10
12.329995066801189
 20
192.76471825143028
 11
13.144937903562663
 21
191.94979973336388
  0
LINE
  8
_0-1_作画層１
  6
CONTINUOUS
 62
    7
 10
12.220923335233806
 20
192.73237724801231
 11
13.032179743925212
 21
191.921096997463
  0
LINE
  8
_0-1_作画層１
  6
CONTINUOUS
 62
    7
 10
12.112544924894451
 20
192.69934483071495
 11
12.920262725034831
 21
191.89162655373741
  0
LINE
  8
_0-1_作画層１
  6
CONTINUOUS
 62
    7
 10
12.004858882108806
 20
192.66561813851524
 11
12.809087903181194
 21
191.86136456032921
  0
LINE
  8
_0-1_作画層１
  6
CONTINUOUS
 62
    7
 10
11.897816569486736
 20
192.63119907876182
 11
12.698680312315105
 21
191.83036060830284
  0
LINE
  8
_0-1_作画層１
  6
CONTINUOUS
 62
    7
 10
11.791467101255535
 20
192.59616203805138
 11
12.589039714017986
 21
191.79858894845177
  0
LINE
  8
_0-1_作画層１
  6
CONTINUOUS
 62
    7
 10
11.685785205045818
 20
192.5604316761129
 11
12.480141551176189
 21
191.7660505344503
  0
LINE
  8
_0-1_作画層１
  6
CONTINUOUS
 62
    7
 10
11.580747038999675
 20
192.52405758401085
 11
12.372010142484783
 21
191.7327949573629
  0
LINE
  8
_0-1_作画層１
  6
CONTINUOUS
 62
    7
 10
11.47632780758488
 20
192.48704071541954
 11
12.264572055021404
 21
191.69879646798302
  0
LINE
  8
_0-1_作画層１
  6
CONTINUOUS
 62
    7
 10
11.372551352659343
 20
192.44938107033897
 11
12.157851130643962
 21
191.66410561104942
  0
LINE
  8
_0-1_作画層１
  6
CONTINUOUS
 62
    7
 10
11.26941862789738
 20
192.41110153695274
 11
12.051847846189617
 21
191.62867184182335
  0
LINE
  8
_0-1_作画層１
  6
CONTINUOUS
 62
    7
 10
11.166928679624675
 20
192.37217922707725
 11
11.94653740612614
 21
191.59257050057579
  0
LINE
  8
_0-1_作画層１
  6
CONTINUOUS
 62
    7
 10
11.065032870451091
 20
192.33266373177696
 11
11.841919810453533
 21
191.55575199624229
  0
LINE
  8
_0-1_作画層１
  6
CONTINUOUS
 62
    7
 10
10.963731200376628
 20
192.29250355263878
 11
11.737995059171794
 21
191.518264966213
  0
LINE
  8
_0-1_作画層１
  6
CONTINUOUS
 62
    7
 10
10.863072783628581
 20
192.25177498360802
 11
11.634738356748699
 21
191.48008461495567
  0
LINE
  8
_0-1_作画層１
  6
CONTINUOUS
 62
    7
 10
10.763008029142497
 20
192.21042843362022
 11
11.53217497555363
 21
191.44126148720909
  0
LINE
  8
_0-1_作画層１
  6
CONTINUOUS
 62
    7
 10
10.663512618223308
 20
192.16848679085899
 11
11.43025437084782
 21
191.40174503823448
  0
LINE
  8
_0-1_作画層１
  6
CONTINUOUS
 62
    7
 10
10.564635665098308
 20
192.12592716714073
 11
11.329001815000652
 21
191.36158581277061
  0
LINE
  8
_0-1_作画層１
  6
CONTINUOUS
 62
    7
 10
10.466327578703044
 20
192.0828229953878
 11
11.228392989317058
 21
191.32075806161095
  0
LINE
  8
_0-1_作画層１
  6
CONTINUOUS
 62
    7
 10
10.368613631406902
 20
192.03912563821007
 11
11.12842741695988
 21
191.27931232949425
  0
LINE
  8
_0-1_作画層１
  6
CONTINUOUS
 62
    7
 10
10.271469027677654
 20
191.99483414193321
 11
11.02910462109196
 21
191.23722286721397
  0
LINE
  8
_0-1_作画層１
  6
CONTINUOUS
 62
    7
 10
10.174893290678142
 20
191.94999809762169
 11
10.93037644116032
 21
191.19448967477013
  0
LINE
  8
_0-1_作画層１
  6
CONTINUOUS
 62
    7
 10
10.078886420408367
 20
191.90456791421104
 11
10.832315833250163
 21
191.15116329690147
  0
LINE
  8
_0-1_作画層１
  6
CONTINUOUS
 62
    7
 10
9.9834488937054857
 20
191.85859318276573
 11
10.734849364439128
 21
191.10719318886925
  0
LINE
  8
_0-1_作画層１
  6
CONTINUOUS
 62
    7
 10
9.8885559150372728
 20
191.81207485696007
 11
10.638050944486736
 21
191.06260414620567
  0
LINE
  8
_0-1_作画層１
  6
CONTINUOUS
 62
    7
 10
9.7942318030987963
 20
191.76496239205528
 11
10.541797072569011
 21
191.01742191811729
  0
LINE
  8
_0-1_作画層１
  6
CONTINUOUS
 62
    7
 10
9.7004517623578295
 20
191.71733017464805
 11
10.446185977140544
 21
190.97162075539757
  0
LINE
  8
_0-1_作画層１
  6
CONTINUOUS
 62
    7
 10
9.6072167464886888
 20
191.66915340920616
 11
10.351169020811199
 21
190.92522545357872
  0
LINE
  8
_0-1_作画層１
  6
CONTINUOUS
 62
    7
 10
9.514525801817058
 20
191.62040825387169
 11
10.256721408048747
 21
190.87823696633507
  0
LINE
  8
_0-1_作画層１
  6
CONTINUOUS
 62
    7
 10
9.4223789283429369
 20
191.57114239236046
 11
10.162892253080486
 21
190.83062954446007
  0
LINE
  8
_0-1_作画層１
  6
CONTINUOUS
 62
    7
 10
9.2202700683270677
 20
191.63183994790245
 11
10.06963196484196
 21
190.7824775745504
  0
LINE
  8
_0-1_作画層１
  6
CONTINUOUS
 62
    7
 10
8.9492248603497728
 20
191.76147289773155
 11
9.976965815702556
 21
190.73373146554161
  0
LINE
  8
_0-1_作画層１
  6
CONTINUOUS
 62
    7
 10
8.66162529675114
 20
191.76622410317589
 11
9.7933410712872728
 21
190.63450832863975
  0
LINE
  8
_0-1_作画層１
  6
CONTINUOUS
 62
    7
 10
8.6098608085309252
 20
191.67657681008507
 11
9.7023819991742357
 21
190.58403130074669
  0
LINE
  8
_0-1_作画層１
  6
CONTINUOUS
 62
    7
 10
8.5580967971478685
 20
191.58690472146202
 11
9.6120170661603197
 21
190.53298397561241
  0
LINE
  8
_0-1_作画層１
  6
CONTINUOUS
 62
    7
 10
8.5063318320904955
 20
191.49723263283897
 11
9.5221962043439135
 21
190.48139305611778
  0
LINE
  8
_0-1_作画層１
  6
CONTINUOUS
 62
    7
 10
8.4545673438702806
 20
191.40760918160606
 11
9.4329446860944017
 21
190.42923279305626
  0
LINE
  8
_0-1_作画層１
  6
CONTINUOUS
 62
    7
 10
8.4028038093243822
 20
191.31793709298302
 11
9.344237715879558
 21
190.37650318642784
  0
LINE
  8
_0-1_作画層１
  6
CONTINUOUS
 62
    7
 10
8.3510393211041674
 20
191.22826500435997
 11
9.2560996123944506
 21
190.32322903176475
  0
LINE
  8
_0-1_作画層１
  6
CONTINUOUS
 62
    7
 10
8.2992748328839525
 20
191.13864250680138
 11
9.1684812614117845
 21
190.26941128274132
  0
LINE
  8
_0-1_作画層１
  6
CONTINUOUS
 62
    7
 10
8.2475103446637377
 20
191.04897041817833
 11
9.0814317771588549
 21
190.21504898568321
  0
LINE
  8
_0-1_作画層１
  6
CONTINUOUS
 62
    7
 10
8.1957706519757494
 20
190.95929832955528
 11
8.9949268409405931
 21
190.16011734505821
  0
LINE
  8
_0-1_作画層１
  6
CONTINUOUS
 62
    7
 10
8.143981368223308
 20
190.86965103646446
 11
8.9089664527569994
 21
190.104690747463
  0
LINE
  8
_0-1_作画層１
  6
CONTINUOUS
 62
    7
 10
8.0922168800030931
 20
190.78000278969932
 11
8.8235253402386888
 21
190.04867001076866
  0
LINE
  8
_0-1_作画層１
  6
CONTINUOUS
 62
    7
 10
8.0404771873151049
 20
190.69033070107628
 11
8.7386535712872728
 21
189.99215431710411
  0
LINE
  8
_0-1_作画層１
  6
CONTINUOUS
 62
    7
 10
7.98871269909489
 20
190.60068340798546
 11
8.65430107800114
 21
189.93509502907921
  0
LINE
  8
_0-1_作画層１
  6
CONTINUOUS
 62
    7
 10
7.9369482108746752
 20
190.51103611489464
 11
8.5704683372174486
 21
189.87749119301964
  0
LINE
  8
_0-1_作画層１
  6
CONTINUOUS
 62
    7
 10
7.8851837226544603
 20
190.42136402627159
 11
8.4871801444684252
 21
189.8193428089254
  0
LINE
  8
_0-1_作画層１
  6
CONTINUOUS
 62
    7
 10
7.8334192344342455
 20
190.33171673318077
 11
8.4044117042218431
 21
189.76069946786095
  0
LINE
  8
_0-1_作画層１
  6
CONTINUOUS
 62
    7
 10
7.7816547462140306
 20
190.24206944008995
 11
8.3221878120099291
 21
189.70151157876182
  0
LINE
  8
_0-1_作画層１
  6
CONTINUOUS
 62
    7
 10
7.7298912116681322
 20
190.15239639779259
 11
8.2404579230939135
 21
189.64180489083458
  0
LINE
  8
_0-1_作画層１
  6
CONTINUOUS
 62
    7
 10
7.6781267234479174
 20
190.06272430916954
 11
8.1592973777447924
 21
189.58157749673057
  0
LINE
  8
_0-1_作画層１
  6
CONTINUOUS
 62
    7
 10
7.6263622352277025
 20
189.97307701607872
 11
8.078607947507976
 21
189.52083130379845
  0
LINE
  8
_0-1_作画層１
  6
CONTINUOUS
 62
    7
 10
7.5745977470074877
 20
189.8834297229879
 11
7.9984621116315111
 21
189.45954056283165
  0
LINE
  8
_0-1_作画層１
  6
CONTINUOUS
 62
    7
 10
7.5228332587872728
 20
189.79375763436485
 11
7.9188360282574877
 21
189.39775486489464
  0
LINE
  8
_0-1_作画層１
  6
CONTINUOUS
 62
    7
 10
7.471068770567058
 20
189.70411034127403
 11
7.8397049018536791
 21
189.33544941445518
  0
LINE
  8
_0-1_作画層１
  6
CONTINUOUS
 62
    7
 10
7.4193042823468431
 20
189.61446304818321
 11
7.761117369810222
 21
189.27262421151329
  0
LINE
  8
_0-1_作画層１
  6
CONTINUOUS
 62
    7
 10
7.3675397941266283
 20
189.52479000588585
 11
7.6830257484112963
 21
189.2093050052755
  0
LINE
  8
_0-1_作画層１
  6
CONTINUOUS
 62
    7
 10
7.3157753059064135
 20
189.43514271279503
 11
7.6054529258404955
 21
189.14544029732872
  0
LINE
  8
_0-1_作画層１
  6
CONTINUOUS
 62
    7
 10
7.2640108176861986
 20
189.34549541970421
 11
7.5284008094464525
 21
189.08108158608604
  0
LINE
  8
_0-1_作画層１
  6
CONTINUOUS
 62
    7
 10
7.2122463294659838
 20
189.25582333108116
 11
7.451842696348308
 21
189.01622696419884
  0
LINE
  8
_0-1_作画層１
  6
CONTINUOUS
 62
    7
 10
7.1604818412457689
 20
189.16615124245811
 11
7.3758043357526049
 21
188.95082874795128
  0
LINE
  8
_0-1_作画層１
  6
CONTINUOUS
 62
    7
 10
7.1087173530255541
 20
189.07650394936729
 11
7.3002857276593431
 21
188.88496037026573
  0
LINE
  8
_0-1_作画層１
  6
CONTINUOUS
 62
    7
 10
7.0569538184796556
 20
188.98685665627647
 11
7.2252620765362963
 21
188.81854744454552
  0
LINE
  8
_0-1_作画層１
  6
CONTINUOUS
 62
    7
 10
7.0051893302594408
 20
188.89718456765343
 11
7.1507333823834642
 21
188.75163956185509
  0
LINE
  8
_0-1_作画層１
  6
CONTINUOUS
 62
    7
 10
6.953424842039226
 20
188.80753632088829
 11
7.0767234870587572
 21
188.68423767586876
  0
LINE
  8
_0-1_作画層１
  6
CONTINUOUS
 62
    7
 10
6.9016603538190111
 20
188.71786423226524
 11
7.0032095023785814
 21
188.61631508370567
  0
LINE
  8
_0-1_作画層１
  6
CONTINUOUS
 62
    7
 10
6.8498958655987963
 20
188.62821693917442
 11
6.9302143165265306
 21
188.54789848824669
  0
LINE
  8
_0-1_作画層１
  6
CONTINUOUS
 62
    7
 10
6.7981313773785814
 20
188.53854485055138
 11
6.8577398368512377
 21
188.47896118661095
  0
LINE
  8
_0-1_作画層１
  6
CONTINUOUS
 62
    7
 10
6.7463668891583666
 20
188.44889755746055
 11
6.7857593604718431
 21
188.4095298816793
  0
LINE
  8
_0-1_作画層１
  6
CONTINUOUS
 62
    7
 10
6.6946024009381517
 20
188.35925026436973
 11
6.7142738410626635
 21
188.33957882424522
  0
LINE
  8
_0-1_作画層１
  6
CONTINUOUS
 62
    7
 10
6.6428379127179369
 20
188.26957817574669
 11
6.6432832786236986
 21
188.26913280984093
  0
ARC
  8
_0-1_作画層１
  6
CONTINUOUS
 62
    7
 10
16.541123778501628
 20
178.36797638436485
 40
13.999999999999993
 50
45
 51
135
  0
ARC
  8
_0-1_作画層１
  6
CONTINUOUS
 62
    7
 10
16.541123778501628
 20
178.36797638436488
 40
14.999998092651339
 50
44.999999999999915
 51
118.5817565917969
  0
ARC
  8
_0-1_作画層１
  6
CONTINUOUS
 62
    7
 10
16.541123778501628
 20
178.36797638436482
 40
14.000000000000014
 50
45.00000000000005
 51
135.63267517089827
  0
LINE
  8
_0-1_作画層１
  6
CONTINUOUS
 62
    7
 10
26.440621764341472
 20
165.96847839852501
 11
27.147730261961101
 21
165.26136990090538
  0
LINE
  8
_0-1_作画層１
  6
CONTINUOUS
 62
    7
 10
6.6416257926617845
 20
165.96847839852501
 11
8.709504992643474
 21
162.38676186104942
  0
LINE
  8
_0-1_作画層１
  6
CONTINUOUS
 62
    7
 10
8.7153939315472826
 20
162.36266155739952
 11
9.3482460090314135
 21
162.66533012887169
  0
LINE
  8
_0-1_作画層１
  6
CONTINUOUS
 62
    7
 10
25.870248229185222
 20
164.12200851937462
 11
27.078645140806316
 21
165.33043022652794
  0
LINE
  8
_0-1_作画層１
  6
CONTINUOUS
 62
    7
 10
25.291684538999675
 20
163.68490524789024
 11
27.00795212475407
 21
165.40114803811241
  0
LINE
  8
_0-1_作画層１
  6
CONTINUOUS
 62
    7
 10
24.834662825742839
 20
163.36929626961876
 11
26.937233359495281
 21
165.4718668033712
  0
LINE
  8
_0-1_作画層１
  6
CONTINUOUS
 62
    7
 10
24.440392405668376
 20
163.1164619495504
 11
26.866540343443035
 21
165.54255981942345
  0
LINE
  8
_0-1_作画層１
  6
CONTINUOUS
 62
    7
 10
24.086330802122234
 20
162.90381260415245
 11
26.795821578184245
 21
165.61327858468223
  0
LINE
  8
_0-1_作画層１
  6
CONTINUOUS
 62
    7
 10
23.760898024717449
 20
162.7197916080587
 11
26.725103766599773
 21
165.68399639626671
  0
LINE
  8
_0-1_作画層１
  6
CONTINUOUS
 62
    7
 10
23.457264811674236
 20
162.55754490395714
 11
26.654385001340984
 21
165.7547151615255
  0
LINE
  8
_0-1_作画層１
  6
CONTINUOUS
 62
    7
 10
23.170927436033367
 20
162.41264458199669
 11
26.583667189756511
 21
165.82543297310997
  0
LINE
  8
_0-1_作画層１
  6
CONTINUOUS
 62
    7
 10
22.898793131986736
 20
162.28194637795616
 11
26.512973220029949
 21
165.89612694283653
  0
LINE
  8
_0-1_作画層１
  6
CONTINUOUS
 62
    7
 10
22.638634593168376
 20
162.16322536965538
 11
26.442255408445476
 21
165.966844754421
  0
LINE
  8
_0-1_作画層１
  6
CONTINUOUS
 62
    7
 10
22.388770014921306
 20
162.05474777718712
 11
25.204189688840984
 21
164.87021656533409
  0
LINE
  8
_0-1_作画層１
  6
CONTINUOUS
 62
    7
 10
22.147763640562175
 20
161.95520229836632
 11
24.64314499584782
 21
164.45055885811973
  0
LINE
  8
_0-1_作画層１
  6
CONTINUOUS
 62
    7
 10
21.914675624052165
 20
161.86352558633018
 11
24.199559600034831
 21
164.14841003915001
  0
LINE
  8
_0-1_作画層１
  6
CONTINUOUS
 62
    7
 10
21.688564688840984
 20
161.77885170479942
 11
23.816671282926677
 21
163.90693302651573
  0
LINE
  8
_0-1_作画層１
  6
CONTINUOUS
 62
    7
 10
21.468789012113689
 20
161.70046349068809
 11
23.472655684629558
 21
163.70435448189903
  0
LINE
  8
_0-1_作画層１
  6
CONTINUOUS
 62
    7
 10
21.25470391003239
 20
161.6278144886129
 11
23.156377703825115
 21
163.52948875924278
  0
LINE
  8
_0-1_作画層１
  6
CONTINUOUS
 62
    7
 10
21.045840174833415
 20
161.56036301156212
 11
22.861157328764079
 21
163.37568016549278
  0
LINE
  8
_0-1_作画層１
  6
CONTINUOUS
 62
    7
 10
20.841751486936687
 20
161.49771042367149
 11
22.582738310972331
 21
163.23869724770714
  0
LINE
  8
_0-1_作画層１
  6
CONTINUOUS
 62
    7
 10
20.642092616239665
 20
161.43946381112266
 11
22.318076522031902
 21
163.11544724007774
  0
LINE
  8
_0-1_作画層１
  6
CONTINUOUS
 62
    7
 10
20.446515948454021
 20
161.38529892464805
 11
22.06501999584782
 21
163.00382729073692
  0
LINE
  8
_0-1_作画層１
  6
CONTINUOUS
 62
    7
 10
20.254725367704509
 20
161.3349449207418
 11
21.821910292783855
 21
162.90212936898399
  0
LINE
  8
_0-1_作画層１
  6
CONTINUOUS
 62
    7
 10
20.06649795261967
 20
161.28812904854942
 11
21.587436110654949
 21
162.80909271737266
  0
LINE
  8
_0-1_作画層１
  6
CONTINUOUS
 62
    7
 10
19.881610781828044
 20
161.24467869301964
 11
21.360608012357829
 21
162.72367592354942
  0
LINE
  8
_0-1_作画層１
  6
CONTINUOUS
 62
    7
 10
19.699841649213909
 20
161.20432110329796
 11
21.140584857145427
 21
162.64508934518028
  0
LINE
  8
_0-1_作画層１
  6
CONTINUOUS
 62
    7
 10
19.521041543165325
 20
161.16695805092979
 11
20.926697642484783
 21
162.57261391183067
  0
LINE
  8
_0-1_作画層１
  6
CONTINUOUS
 62
    7
 10
19.345037610212444
 20
161.13236637612511
 11
20.718353182951091
 21
162.50568123360802
  0
LINE
  8
_0-1_作画層１
  6
CONTINUOUS
 62
    7
 10
19.171681315580486
 20
161.10042114754845
 11
20.515081555524944
 21
162.44382210274864
  0
LINE
  8
_0-1_作画層１
  6
CONTINUOUS
 62
    7
 10
19.000848920026897
 20
161.07102604409386
 11
20.31643691746342
 21
162.38661404153038
  0
LINE
  8
_0-1_作画層１
  6
CONTINUOUS
 62
    7
 10
18.832416445890544
 20
161.04400558968712
 11
20.122097642103313
 21
162.33371086617638
  0
LINE
  8
_0-1_作画層１
  6
CONTINUOUS
 62
    7
 10
18.666260630766033
 20
161.01928635140587
 11
19.931742102781413
 21
162.28476734658409
  0
LINE
  8
_0-1_作画層１
  6
CONTINUOUS
 62
    7
 10
18.502282292524455
 20
160.99674435158897
 11
19.745073468366741
 21
162.23953552743126
  0
LINE
  8
_0-1_作画層１
  6
CONTINUOUS
 62
    7
 10
18.340407163778423
 20
160.97628136178184
 11
19.56189385143864
 21
162.19774265786339
  0
LINE
  8
_0-1_作画層１
  6
CONTINUOUS
 62
    7
 10
18.180561096349834
 20
160.95784683724571
 11
19.381930977979778
 21
162.15921612282921
  0
LINE
  8
_0-1_作画層１
  6
CONTINUOUS
 62
    7
 10
18.022595436254619
 20
160.94131775399376
 11
19.205060870329021
 21
162.12375851174522
  0
LINE
  8
_0-1_作画層１
  6
CONTINUOUS
 62
    7
 10
17.866510421911357
 20
160.92664452096153
 11
19.03103652683842
 21
162.0911705066793
  0
LINE
  8
_0-1_作画層１
  6
CONTINUOUS
 62
    7
 10
17.712206990400432
 20
160.91375275155235
 11
18.859758526960491
 21
162.06132908364464
  0
LINE
  8
_0-1_作画層１
  6
CONTINUOUS
 62
    7
 10
17.55963555065739
 20
160.90259380837608
 11
18.69107881275761
 21
162.03403683205772
  0
LINE
  8
_0-1_作画層１
  6
CONTINUOUS
 62
    7
 10
17.408697278181194
 20
160.89306660195518
 11
18.524824053922771
 21
162.00921841164757
  0
LINE
  8
_0-1_作画層１
  6
CONTINUOUS
 62
    7
 10
17.259367317834972
 20
160.88519878884483
 11
18.360944659391521
 21
161.98675079842735
  0
LINE
  8
_0-1_作画層１
  6
CONTINUOUS
 62
    7
 10
17.111571521440624
 20
160.87883873482872
 11
18.199267537275432
 21
161.96651001473595
  0
LINE
  8
_0-1_作画層１
  6
CONTINUOUS
 62
    7
 10
16.965309859195827
 20
160.87396450539757
 11
18.039767772832988
 21
161.94842262765098
  0
LINE
  8
_0-1_作画層１
  6
CONTINUOUS
 62
    7
 10
16.82048332778561
 20
160.87057419320274
 11
17.882297069707988
 21
161.93236370583702
  0
LINE
  8
_0-1_作画層１
  6
CONTINUOUS
 62
    7
 10
16.677091957012294
 20
160.8685953189962
 11
17.726756364980815
 21
161.91825981637169
  0
LINE
  8
_0-1_作画層１
  6
CONTINUOUS
 62
    7
 10
16.535036758927731
 20
160.86797638436485
 11
17.573145777860759
 21
161.90606041451622
  0
LINE
  8
_0-1_作画層１
  6
CONTINUOUS
 62
    7
 10
16.39434248296368
 20
160.86869450112511
 11
17.421316713968395
 21
161.89566822549034
  0
LINE
  8
_0-1_作画層１
  6
CONTINUOUS
 62
    7
 10
16.254934878030895
 20
160.87069817086388
 11
17.271269173303722
 21
161.88703270455528
  0
LINE
  8
_0-1_作画層１
  6
CONTINUOUS
 62
    7
 10
16.116789222637294
 20
160.87398930092979
 11
17.122879535833476
 21
161.88005466958214
  0
LINE
  8
_0-1_作画層１
  6
CONTINUOUS
 62
    7
 10
15.979856044927715
 20
160.87846775551964
 11
16.97612297622311
 21
161.87473507424522
  0
LINE
  8
_0-1_作画層１
  6
CONTINUOUS
 62
    7
 10
15.844160051027416
 20
160.88418407937218
 11
16.83095005241978
 21
161.87097378274132
  0
LINE
  8
_0-1_作画層１
  6
CONTINUOUS
 62
    7
 10
15.709602267423747
 20
160.89103813668419
 11
16.687286482134937
 21
161.86872215768028
  0
LINE
  8
_0-1_作画層１
  6
CONTINUOUS
 62
    7
 10
15.57618269411671
 20
160.8990547229879
 11
16.545107559708981
 21
161.86798019906212
  0
LINE
  8
_0-1_作画層１
  6
CONTINUOUS
 62
    7
 10
15.443876654783367
 20
160.90816040536095
 11
16.404339046159862
 21
161.8686477710836
  0
LINE
  8
_0-1_作画層１
  6
CONTINUOUS
 62
    7
 10
15.312659294286846
 20
160.91835518380333
 11
16.264980942884563
 21
161.87070198556114
  0
LINE
  8
_0-1_作画層１
  6
CONTINUOUS
 62
    7
 10
15.182505995908855
 20
160.92963810464073
 11
16.126958996931194
 21
161.87409134408165
  0
LINE
  8
_0-1_作画層１
  6
CONTINUOUS
 62
    7
 10
15.053391844907878
 20
160.94193668862511
 11
15.990273267904399
 21
161.87881775399376
  0
LINE
  8
_0-1_作画層１
  6
CONTINUOUS
 62
    7
 10
14.925292284170268
 20
160.95527287026573
 11
15.854824692884563
 21
161.88480587502647
  0
LINE
  8
_0-1_作画層１
  6
CONTINUOUS
 62
    7
 10
14.798182398954509
 20
160.96957512398888
 11
15.720662803331493
 21
161.89203091164757
  0
LINE
  8
_0-1_作画層１
  6
CONTINUOUS
 62
    7
 10
14.67206230846989
 20
160.98486729165245
 11
15.58766391960728
 21
161.90046902199913
  0
LINE
  8
_0-1_作画層１
  6
CONTINUOUS
 62
    7
 10
14.546907336393474
 20
161.00112362404991
 11
15.455852777639507
 21
161.91009445687462
  0
LINE
  8
_0-1_作画層１
  6
CONTINUOUS
 62
    7
 10
14.422667653242229
 20
161.01832123299766
 11
15.325229198614238
 21
161.9208824207418
  0
LINE
  8
_0-1_作画層１
  6
CONTINUOUS
 62
    7
 10
14.299368531385539
 20
161.03643341561485
 11
15.195694477239726
 21
161.93278427621055
  0
LINE
  8
_0-1_作画層１
  6
CONTINUOUS
 62
    7
 10
14.176959902921794
 20
161.05546207925011
 11
15.067273289838909
 21
161.94577522774864
  0
LINE
  8
_0-1_作画層１
  6
CONTINUOUS
 62
    7
 10
14.055442244688152
 20
161.07535572549034
 11
14.939940721670268
 21
161.95982952614952
  0
LINE
  8
_0-1_作画層１
  6
CONTINUOUS
 62
    7
 10
13.934790761152385
 20
161.09614105721641
 11
14.813622624555705
 21
161.97497292061973
  0
LINE
  8
_0-1_作画層１
  6
CONTINUOUS
 62
    7
 10
13.815029771009563
 20
161.11779137154747
 11
14.688343913236736
 21
161.99110622903038
  0
LINE
  8
_0-1_作画層１
  6
CONTINUOUS
 62
    7
 10
13.696085364500163
 20
161.14025898476768
 11
14.564079553762554
 21
162.00827808877159
  0
LINE
  8
_0-1_作画層１
  6
CONTINUOUS
 62
    7
 10
13.577982337156413
 20
161.16356773873497
 11
14.440805108228801
 21
162.026415066921
  0
LINE
  8
_0-1_作画層１
  6
CONTINUOUS
 62
    7
 10
13.460671336332439
 20
161.18769379159141
 11
14.31852021900761
 21
162.04554291268516
  0
LINE
  8
_0-1_作画層１
  6
CONTINUOUS
 62
    7
 10
13.344176442304729
 20
161.21261044045616
 11
14.197151095548747
 21
162.06558533211876
  0
LINE
  8
_0-1_作画層１
  6
CONTINUOUS
 62
    7
 10
13.228473574796794
 20
161.23834438821007
 11
14.076722056547283
 21
162.08659286996055
  0
LINE
  8
_0-1_作画層１
  6
CONTINUOUS
 62
    7
 10
13.113562733808635
 20
161.26482029458214
 11
13.957208783308147
 21
162.10849113961388
  0
LINE
  8
_0-1_作画層１
  6
CONTINUOUS
 62
    7
 10
12.99939385143864
 20
161.29208870431114
 11
13.838586003461955
 21
162.13130493661095
  0
LINE
  8
_0-1_作画層１
  6
CONTINUOUS
 62
    7
 10
12.885992200056194
 20
161.32012291451622
 11
13.720854193845867
 21
162.15498562356163
  0
LINE
  8
_0-1_作画層１
  6
CONTINUOUS
 62
    7
 10
12.773357541242717
 20
161.34890099068809
 11
13.604013116041301
 21
162.17953129311729
  0
LINE
  8
_0-1_作画層１
  6
CONTINUOUS
 62
    7
 10
12.661415965238689
 20
161.37839527627159
 11
13.487988621870159
 21
162.20494289895225
  0
LINE
  8
_0-1_作画層１
  6
CONTINUOUS
 62
    7
 10
12.550241143385051
 20
161.40863247414757
 11
13.372805268446086
 21
162.2311965992086
  0
LINE
  8
_0-1_作画層１
  6
CONTINUOUS
 62
    7
 10
12.439759165922283
 20
161.43956203957725
 11
13.258463294187663
 21
162.25826664467979
  0
LINE
  8
_0-1_作画層１
  6
CONTINUOUS
 62
    7
 10
12.329995066801189
 20
161.47123451729942
 11
13.144937903562663
 21
162.28615303536583
  0
LINE
  8
_0-1_作画層１
  6
CONTINUOUS
 62
    7
 10
12.220923335233806
 20
161.50357552071739
 11
13.032179743925212
 21
162.31485577126671
  0
LINE
  8
_0-1_作画層１
  6
CONTINUOUS
 62
    7
 10
12.112544924894451
 20
161.53660793801475
 11
12.920262725034831
 21
162.34432621499229
  0
LINE
  8
_0-1_作画層１
  6
CONTINUOUS
 62
    7
 10
12.004858882108806
 20
161.57033463021446
 11
12.809087903181194
 21
162.3745882084005
  0
LINE
  8
_0-1_作画層１
  6
CONTINUOUS
 62
    7
 10
11.897816569486736
 20
161.60475368996788
 11
12.698680312315105
 21
162.40559216042686
  0
LINE
  8
_0-1_作画層１
  6
CONTINUOUS
 62
    7
 10
11.791467101255535
 20
161.63979073067833
 11
12.589039714017986
 21
162.43736382027794
  0
LINE
  8
_0-1_作画層１
  6
CONTINUOUS
 62
    7
 10
11.685785205045818
 20
161.6755210926168
 11
12.480141551176189
 21
162.4699022342794
  0
LINE
  8
_0-1_作画層１
  6
CONTINUOUS
 62
    7
 10
11.580747038999675
 20
161.71189518471886
 11
12.372010142484783
 21
162.5031578113668
  0
LINE
  8
_0-1_作画層１
  6
CONTINUOUS
 62
    7
 10
11.47632780758488
 20
161.74891205331016
 11
12.264572055021404
 21
162.53715630074669
  0
LINE
  8
_0-1_作画層１
  6
CONTINUOUS
 62
    7
 10
11.372551352659343
 20
161.78657169839073
 11
12.157851130643962
 21
162.57184715768028
  0
LINE
  8
_0-1_作画層１
  6
CONTINUOUS
 62
    7
 10
11.26941862789738
 20
161.82485123177696
 11
12.051847846189617
 21
162.60728092690636
  0
LINE
  8
_0-1_作画層１
  6
CONTINUOUS
 62
    7
 10
11.166928679624675
 20
161.86377354165245
 11
11.94653740612614
 21
162.64338226815391
  0
LINE
  8
_0-1_作画層１
  6
CONTINUOUS
 62
    7
 10
11.065032870451091
 20
161.90328903695274
 11
11.841919810453533
 21
162.68020077248741
  0
LINE
  8
_0-1_作画層１
  6
CONTINUOUS
 62
    7
 10
10.963731200376628
 20
161.94344921609093
 11
11.737995059171794
 21
162.71768780251671
  0
LINE
  8
_0-1_作画層１
  6
CONTINUOUS
 62
    7
 10
10.863072783628581
 20
161.98417778512169
 11
11.634738356748699
 21
162.75586815377403
  0
LINE
  8
_0-1_作画層１
  6
CONTINUOUS
 62
    7
 10
10.763008029142497
 20
162.02552433510948
 11
11.53217497555363
 21
162.79469128152061
  0
LINE
  8
_0-1_作画層１
  6
CONTINUOUS
 62
    7
 10
10.663512618223308
 20
162.06746597787071
 11
11.43025437084782
 21
162.83420773049522
  0
LINE
  8
_0-1_作画層１
  6
CONTINUOUS
 62
    7
 10
10.564635665098308
 20
162.11002560158897
 11
11.329001815000652
 21
162.87436695595909
  0
LINE
  8
_0-1_作画層１
  6
CONTINUOUS
 62
    7
 10
10.466327578703044
 20
162.1531297733419
 11
11.228392989317058
 21
162.91519470711876
  0
LINE
  8
_0-1_作画層１
  6
CONTINUOUS
 62
    7
 10
10.368613631406902
 20
162.19682713051964
 11
11.12842741695988
 21
162.95664043923546
  0
LINE
  8
_0-1_作画層１
  6
CONTINUOUS
 62
    7
 10
10.271469027677654
 20
162.24111862679649
 11
11.02910462109196
 21
162.99872990151573
  0
LINE
  8
_0-1_作画層１
  6
CONTINUOUS
 62
    7
 10
10.174893290678142
 20
162.28595467110802
 11
10.93037644116032
 21
163.04146309395958
  0
LINE
  8
_0-1_作画層１
  6
CONTINUOUS
 62
    7
 10
10.078886420408367
 20
162.33138485451866
 11
10.832315833250163
 21
163.08478947182823
  0
LINE
  8
_0-1_作画層１
  6
CONTINUOUS
 62
    7
 10
9.9834488937054857
 20
162.37735958596397
 11
10.734849364439128
 21
163.12875957986046
  0
LINE
  8
_0-1_作画層１
  6
CONTINUOUS
 62
    7
 10
9.8885559150372728
 20
162.42387791176964
 11
10.638050944486736
 21
163.17334862252403
  0
LINE
  8
_0-1_作画層１
  6
CONTINUOUS
 62
    7
 10
9.7942318030987963
 20
162.47099037667442
 11
10.541797072569011
 21
163.21853085061241
  0
LINE
  8
_0-1_作画層１
  6
CONTINUOUS
 62
    7
 10
9.7004517623578295
 20
162.51862259408165
 11
10.446185977140544
 21
163.26433201333214
  0
LINE
  8
_0-1_作画層１
  6
CONTINUOUS
 62
    7
 10
9.6072167464886888
 20
162.56679935952354
 11
10.351169020811199
 21
163.31072731515098
  0
LINE
  8
_0-1_作画層１
  6
CONTINUOUS
 62
    7
 10
9.514525801817058
 20
162.61554451485802
 11
10.256721408048747
 21
163.35771580239464
  0
LINE
  8
_0-1_作画層１
  6
CONTINUOUS
 62
    7
 10
9.4223789283429369
 20
162.66481037636925
 11
10.162892253080486
 21
163.40532322426964
  0
LINE
  8
_0-1_作画層１
  6
CONTINUOUS
 62
    7
 10
9.2202700683270677
 20
162.60411282082725
 11
10.06963196484196
 21
163.4534751941793
  0
LINE
  8
_0-1_作画層１
  6
CONTINUOUS
 62
    7
 10
8.9492248603497728
 20
162.47447987099815
 11
9.976965815702556
 21
163.50222130318809
  0
LINE
  8
_0-1_作画層１
  6
CONTINUOUS
 62
    7
 10
8.66162529675114
 20
162.46972866555382
 11
9.7933410712872728
 21
163.60144444008995
  0
LINE
  8
_0-1_作画層１
  6
CONTINUOUS
 62
    7
 10
8.6098608085309252
 20
162.55937595864464
 11
9.7023819991742357
 21
163.65192146798302
  0
LINE
  8
_0-1_作画層１
  6
CONTINUOUS
 62
    7
 10
8.5580967971478685
 20
162.64904804726768
 11
9.6120170661603197
 21
163.70296879311729
  0
LINE
  8
_0-1_作画層１
  6
CONTINUOUS
 62
    7
 10
8.5063318320904955
 20
162.73872013589073
 11
9.5221962043439135
 21
163.75455971261192
  0
LINE
  8
_0-1_作画層１
  6
CONTINUOUS
 62
    7
 10
8.4545673438702806
 20
162.82834358712364
 11
9.4329446860944017
 21
163.80671997567345
  0
LINE
  8
_0-1_作画層１
  6
CONTINUOUS
 62
    7
 10
8.4028038093243822
 20
162.91801567574669
 11
9.344237715879558
 21
163.85944958230186
  0
LINE
  8
_0-1_作画層１
  6
CONTINUOUS
 62
    7
 10
8.3510393211041674
 20
163.00768776436973
 11
9.2560996123944506
 21
163.91272373696495
  0
LINE
  8
_0-1_作画層１
  6
CONTINUOUS
 62
    7
 10
8.2992748328839525
 20
163.09731026192833
 11
9.1684812614117845
 21
163.96654148598839
  0
LINE
  8
_0-1_作画層１
  6
CONTINUOUS
 62
    7
 10
8.2475103446637377
 20
163.18698235055138
 11
9.0814317771588549
 21
164.02090378304649
  0
LINE
  8
_0-1_作画層１
  6
CONTINUOUS
 62
    7
 10
8.1957706519757494
 20
163.27665443917442
 11
8.9949268409405931
 21
164.07583542367149
  0
LINE
  8
_0-1_作画層１
  6
CONTINUOUS
 62
    7
 10
8.143981368223308
 20
163.36630173226524
 11
8.9089664527569994
 21
164.13126202126671
  0
LINE
  8
_0-1_作画層１
  6
CONTINUOUS
 62
    7
 10
8.0922168800030931
 20
163.45594997903038
 11
8.8235253402386888
 21
164.18728275796104
  0
LINE
  8
_0-1_作画層１
  6
CONTINUOUS
 62
    7
 10
8.0404771873151049
 20
163.54562206765343
 11
8.7386535712872728
 21
164.24379845162559
  0
LINE
  8
_0-1_作画層１
  6
CONTINUOUS
 62
    7
 10
7.98871269909489
 20
163.63526936074425
 11
8.65430107800114
 21
164.3008577396505
  0
LINE
  8
_0-1_作画層１
  6
CONTINUOUS
 62
    7
 10
7.9369482108746752
 20
163.72491665383507
 11
8.5704683372174486
 21
164.35846157571007
  0
LINE
  8
_0-1_作画層１
  6
CONTINUOUS
 62
    7
 10
7.8851837226544603
 20
163.81458874245811
 11
8.4871801444684252
 21
164.4166099598043
  0
LINE
  8
_0-1_作画層１
  6
CONTINUOUS
 62
    7
 10
7.8334192344342455
 20
163.90423603554893
 11
8.4044117042218431
 21
164.47525330086876
  0
LINE
  8
_0-1_作画層１
  6
CONTINUOUS
 62
    7
 10
7.7816547462140306
 20
163.99388332863975
 11
8.3221878120099291
 21
164.53444118996788
  0
LINE
  8
_0-1_作画層１
  6
CONTINUOUS
 62
    7
 10
7.7298912116681322
 20
164.08355637093712
 11
8.2404579230939135
 21
164.59414787789513
  0
LINE
  8
_0-1_作画層１
  6
CONTINUOUS
 62
    7
 10
7.6781267234479174
 20
164.17322845956016
 11
8.1592973777447924
 21
164.65437527199913
  0
LINE
  8
_0-1_作画層１
  6
CONTINUOUS
 62
    7
 10
7.6263622352277025
 20
164.26287575265098
 11
8.078607947507976
 21
164.71512146493126
  0
LINE
  8
_0-1_作画層１
  6
CONTINUOUS
 62
    7
 10
7.5745977470074877
 20
164.3525230457418
 11
7.9984621116315111
 21
164.77641220589805
  0
LINE
  8
_0-1_作画層１
  6
CONTINUOUS
 62
    7
 10
7.5228332587872728
 20
164.44219513436485
 11
7.9188360282574877
 21
164.83819790383507
  0
LINE
  8
_0-1_作画層１
  6
CONTINUOUS
 62
    7
 10
7.471068770567058
 20
164.53184242745567
 11
7.8397049018536791
 21
164.90050335427452
  0
LINE
  8
_0-1_作画層１
  6
CONTINUOUS
 62
    7
 10
7.4193042823468431
 20
164.62148972054649
 11
7.761117369810222
 21
164.96332855721641
  0
LINE
  8
_0-1_作画層１
  6
CONTINUOUS
 62
    7
 10
7.3675397941266283
 20
164.71116276284386
 11
7.6830257484112963
 21
165.02664776345421
  0
LINE
  8
_0-1_作画層１
  6
CONTINUOUS
 62
    7
 10
7.3157753059064135
 20
164.80081005593468
 11
7.6054529258404955
 21
165.09051247140098
  0
LINE
  8
_0-1_作画層１
  6
CONTINUOUS
 62
    7
 10
7.2640108176861986
 20
164.8904573490255
 11
7.5284008094464525
 21
165.15487118264366
  0
LINE
  8
_0-1_作画層１
  6
CONTINUOUS
 62
    7
 10
7.2122463294659838
 20
164.98012943764854
 11
7.451842696348308
 21
165.21972580453087
  0
LINE
  8
_0-1_作画層１
  6
CONTINUOUS
 62
    7
 10
7.1604818412457689
 20
165.06980152627159
 11
7.3758043357526049
 21
165.28512402077843
  0
LINE
  8
_0-1_作画層１
  6
CONTINUOUS
 62
    7
 10
7.1087173530255541
 20
165.15944881936241
 11
7.3002857276593431
 21
165.35099239846397
  0
LINE
  8
_0-1_作画層１
  6
CONTINUOUS
 62
    7
 10
7.0569538184796556
 20
165.24909611245323
 11
7.2252620765362963
 21
165.41740532418419
  0
LINE
  8
_0-1_作画層１
  6
CONTINUOUS
 62
    7
 10
7.0051893302594408
 20
165.33876820107628
 11
7.1507333823834642
 21
165.48431320687462
  0
LINE
  8
_0-1_作画層１
  6
CONTINUOUS
 62
    7
 10
6.953424842039226
 20
165.42841644784141
 11
7.0767234870587572
 21
165.55171509286095
  0
LINE
  8
_0-1_作画層１
  6
CONTINUOUS
 62
    7
 10
6.9016603538190111
 20
165.51808853646446
 11
7.0032095023785814
 21
165.61963768502403
  0
LINE
  8
_0-1_作画層１
  6
CONTINUOUS
 62
    7
 10
6.8498958655987963
 20
165.60773582955528
 11
6.9302143165265306
 21
165.68805428048302
  0
LINE
  8
_0-1_作画層１
  6
CONTINUOUS
 62
    7
 10
6.7981313773785814
 20
165.69740791817833
 11
6.8577398368512377
 21
165.75699158211876
  0
LINE
  8
_0-1_作画層１
  6
CONTINUOUS
 62
    7
 10
6.7463668891583666
 20
165.78705521126915
 11
6.7857593604718431
 21
165.8264228870504
  0
LINE
  8
_0-1_作画層１
  6
CONTINUOUS
 62
    7
 10
6.6946024009381517
 20
165.87670250435997
 11
6.7142738410626635
 21
165.89637394448448
  0
LINE
  8
_0-1_作画層１
  6
CONTINUOUS
 62
    7
 10
6.6428379127179369
 20
165.96637459298302
 11
6.6432832786236986
 21
165.96681995888878
  0
ARC
  8
_0-1_作画層１
  6
CONTINUOUS
 62
    7
 10
16.541123778501628
 20
175.86797638436485
 40
13.999999999999993
 50
225
 51
315
  0
ARC
  8
_0-1_作画層１
  6
CONTINUOUS
 62
    7
 10
16.541123778501628
 20
175.86797638436482
 40
14.999998092651339
 50
241.41824340820313
 51
315.00000000000006
  0
ARC
  8
_0-1_作画層１
  6
CONTINUOUS
 62
    7
 10
16.541123778501628
 20
175.86797638436488
 40
14.000000000000014
 50
224.36732482910168
 51
314.99999999999994
  0
LINE
  8
_0-1_作画層１
  6
CONTINUOUS
 62
    7
 10
16.5411237785016
 20
185.86797562142539
 11
16.5411237785016
 21
188.66798706551717
  0
LINE
  8
_0-1_作画層１
  6
CONTINUOUS
 62
    7
 10
26.548563201109033
 20
183.8486557056539
 11
26.514709288755512
 21
183.8216537525289
  0
LINE
  8
_0-1_作画層１
  6
CONTINUOUS
 62
    7
 10
16.5411237785016
 20
188.48909225960898
 11
16.71878669945346
 21
188.6667480518453
  0
LINE
  8
_0-d_0_1
  6
CONTINUOUS
 62
    7
 10
25.522850575037424
 20
186.82293685166056
 11
25.5826360364632
 21
186.8827146836918
  0
LINE
  8
_0-1_作画層１
  6
CONTINUOUS
 62
    7
 10
24.460722167173486
 20
183.78757477303671
 11
25.026408965269198
 21
184.35326157113241
  0
LINE
  8
_0-1_作画層１
  6
CONTINUOUS
 62
    7
 10
8.6215253898297419
 20
183.78757477303671
 11
10.275828749815105
 21
186.65294800301717
  0
LINE
  8
_0-1_作画層１
  6
CONTINUOUS
 62
    7
 10
10.280539900938152
 20
186.67222824593711
 11
10.786821562925439
 21
186.43009338875936
  0
LINE
  8
_0-1_作画層１
  6
CONTINUOUS
 62
    7
 10
24.004423339048486
 20
185.26475067635701
 11
24.971140868345373
 21
184.29801331063436
  0
LINE
  8
_0-1_作画層１
  6
CONTINUOUS
 62
    7
 10
23.541572386900057
 20
185.61443329354452
 11
24.914586455503567
 21
184.24143906136678
  0
LINE
  8
_0-1_作画層１
  6
CONTINUOUS
 62
    7
 10
23.17595501629458
 20
185.86692047616171
 11
24.858011443296533
 21
184.18486404915976
  0
LINE
  8
_0-1_作画層１
  6
CONTINUOUS
 62
    7
 10
22.86053868023501
 20
186.06918793221638
 11
24.801457030454742
 21
184.12830963631797
  0
LINE
  8
_0-1_作画層１
  6
CONTINUOUS
 62
    7
 10
22.577289397398104
 20
186.23930740853476
 11
24.744882018247708
 21
184.07173462411092
  0
LINE
  8
_0-1_作画層１
  6
CONTINUOUS
 62
    7
 10
22.316943175474279
 20
186.38652420540976
 11
24.688307768980138
 21
184.01516037484333
  0
LINE
  8
_0-1_作画層１
  6
CONTINUOUS
 62
    7
 10
22.074036605039709
 20
186.51632156869101
 11
24.631732756773104
 21
183.95858536263631
  0
LINE
  8
_0-1_作画層１
  6
CONTINUOUS
 62
    7
 10
21.84496670452701
 20
186.63224182625936
 11
24.57515850750552
 21
183.90201111336873
  0
LINE
  8
_0-1_作画層１
  6
CONTINUOUS
 62
    7
 10
21.627259261289709
 20
186.73680038949178
 11
24.518603331724279
 21
183.84545593758747
  0
LINE
  8
_0-1_作画層１
  6
CONTINUOUS
 62
    7
 10
21.41913243023501
 20
186.83177719613241
 11
24.462029082456695
 21
183.78888168831992
  0
LINE
  8
_0-1_作画層１
  6
CONTINUOUS
 62
    7
 10
21.219240767637359
 20
186.91855927010701
 11
23.471576506773104
 21
184.66618423958943
  0
LINE
  8
_0-1_作画層１
  6
CONTINUOUS
 62
    7
 10
21.026435668150057
 20
186.99819565316366
 11
23.022740752378567
 21
185.00191040536092
  0
LINE
  8
_0-1_作画層１
  6
CONTINUOUS
 62
    7
 10
20.839965254942044
 20
187.07153702279257
 11
22.667872435728185
 21
185.24362946053671
  0
LINE
  8
_0-1_作画層１
  6
CONTINUOUS
 62
    7
 10
20.659076506773104
 20
187.13927612801717
 11
22.361561782041662
 21
185.43681107064413
  0
LINE
  8
_0-1_作画層１
  6
CONTINUOUS
 62
    7
 10
20.483255965391265
 20
187.20198669930625
 11
22.086349303403964
 21
185.59887390633747
  0
LINE
  8
_0-1_作画層１
  6
CONTINUOUS
 62
    7
 10
20.311987883726232
 20
187.26010590096638
 11
21.833326918760406
 21
185.73876648446247
  0
LINE
  8
_0-1_作画層１
  6
CONTINUOUS
 62
    7
 10
20.144896895567058
 20
187.31406708260701
 11
21.597150618711581
 21
185.86181335946247
  0
LINE
  8
_0-1_作画層１
  6
CONTINUOUS
 62
    7
 10
19.981625945249675
 20
187.36418915291952
 11
21.374415404478185
 21
185.97139969369101
  0
LINE
  8
_0-1_作画層１
  6
CONTINUOUS
 62
    7
 10
19.821898848692058
 20
187.41078644295857
 11
21.162685973325836
 21
186.06999969979452
  0
LINE
  8
_0-1_作画層１
  6
CONTINUOUS
 62
    7
 10
19.66543751446352
 20
187.45411835213827
 11
20.960240752378567
 21
186.15929565926717
  0
LINE
  8
_0-1_作画層１
  6
CONTINUOUS
 62
    7
 10
19.512005049863916
 20
187.49440155526327
 11
20.765752989927392
 21
186.24065399666952
  0
LINE
  8
_0-1_作画層１
  6
CONTINUOUS
 62
    7
 10
19.361423117796051
 20
187.53185425301717
 11
20.578173644224279
 21
186.31508331795857
  0
LINE
  8
_0-1_作画層１
  6
CONTINUOUS
 62
    7
 10
19.213513381162755
 20
187.56661453744101
 11
20.396711165586566
 21
186.38341675301717
  0
LINE
  8
_0-1_作画層１
  6
CONTINUOUS
 62
    7
 10
19.068098075071447
 20
187.59890060921833
 11
20.220692641416662
 21
186.44628601571247
  0
LINE
  8
_0-1_作画層１
  6
CONTINUOUS
 62
    7
 10
18.925057990232574
 20
187.62879105111287
 11
20.049582869688152
 21
186.50426636239217
  0
LINE
  8
_0-1_作画層１
  6
CONTINUOUS
 62
    7
 10
18.784254843870258
 20
187.65646439095661
 11
19.882907302061199
 21
186.55781250497029
  0
LINE
  8
_0-1_作画層１
  6
CONTINUOUS
 62
    7
 10
18.645569808164709
 20
187.68202057381797
 11
19.720290000120258
 21
186.6072998096578
  0
LINE
  8
_0-1_作画層１
  6
CONTINUOUS
 62
    7
 10
18.508903891721843
 20
187.70553665658161
 11
19.561374289671051
 21
186.65306625863241
  0
LINE
  8
_0-1_作画層１
  6
CONTINUOUS
 62
    7
 10
18.374157912412755
 20
187.72715302010701
 11
19.40590286938297
 21
186.69538879891562
  0
LINE
  8
_0-1_作画層１
  6
CONTINUOUS
 62
    7
 10
18.241233260313152
 20
187.74692841073201
 11
19.253618437925439
 21
186.73454361458943
  0
LINE
  8
_0-1_作画層１
  6
CONTINUOUS
 62
    7
 10
18.11005058971989
 20
187.76496201058552
 11
19.104283530393701
 21
186.77072906991171
  0
LINE
  8
_0-1_作画層１
  6
CONTINUOUS
 62
    7
 10
17.980550486723047
 20
187.78133240243125
 11
18.957739836851232
 21
186.80416336556601
  0
LINE
  8
_0-1_作画層１
  6
CONTINUOUS
 62
    7
 10
17.852673632780181
 20
187.79608002206015
 11
18.813769538084131
 21
186.83498459359333
  0
LINE
  8
_0-1_作画層１
  6
CONTINUOUS
 62
    7
 10
17.726301104704021
 20
187.80930328866171
 11
18.67227345196352
 21
186.86335068246052
  0
LINE
  8
_0-1_作画層１
  6
CONTINUOUS
 62
    7
 10
17.601433093229389
 20
187.82104187508747
 11
18.533053977171051
 21
186.88942108651327
  0
LINE
  8
_0-1_作画層１
  6
CONTINUOUS
 62
    7
 10
17.477990348020654
 20
187.83135529061482
 11
18.396031577268701
 21
186.91329422494101
  0
LINE
  8
_0-1_作画層１
  6
CONTINUOUS
 62
    7
 10
17.355933196226232
 20
187.84028244515585
 11
18.261087805906413
 21
186.93512802621052
  0
LINE
  8
_0-1_作画層１
  6
CONTINUOUS
 62
    7
 10
17.235182578245258
 20
187.84790421029257
 11
18.12808399883852
 21
186.95498276253866
  0
LINE
  8
_0-1_作画層１
  6
CONTINUOUS
 62
    7
 10
17.115718609968297
 20
187.85419846078085
 11
17.99698048321352
 21
186.97295685311482
  0
LINE
  8
_0-1_作画層１
  6
CONTINUOUS
 62
    7
 10
16.997481972852825
 20
187.85928650399373
 11
17.867638785520654
 21
186.98914948006797
  0
LINE
  8
_0-1_作画層１
  6
CONTINUOUS
 62
    7
 10
16.880472643056976
 20
187.86318588753866
 11
17.740038973966705
 21
187.00361938973592
  0
LINE
  8
_0-1_作画層１
  6
CONTINUOUS
 62
    7
 10
16.764611417928791
 20
187.86589813729452
 11
17.614062411466705
 21
187.01646652718711
  0
LINE
  8
_0-1_作画層１
  6
CONTINUOUS
 62
    7
 10
16.649898321310161
 20
187.86748123665976
 11
17.489629847684967
 21
187.02774963875936
  0
LINE
  8
_0-1_作画層１
  6
CONTINUOUS
 62
    7
 10
16.536254162842511
 20
187.86797638436482
 11
17.366741377988916
 21
187.03750916024373
  0
LINE
  8
_0-1_作画層１
  6
CONTINUOUS
 62
    7
 10
16.423698742071252
 20
187.86740189095661
 11
17.245278126875036
 21
187.04582291146443
  0
LINE
  8
_0-1_作画層１
  6
CONTINUOUS
 62
    7
 10
16.312172658125036
 20
187.86579895516562
 11
17.125240094343297
 21
187.05273132821247
  0
LINE
  8
_0-1_作画層１
  6
CONTINUOUS
 62
    7
 10
16.201656133810161
 20
187.86316605111287
 11
17.006528384367101
 21
187.05831375619101
  0
LINE
  8
_0-1_作画層１
  6
CONTINUOUS
 62
    7
 10
16.092109591642497
 20
187.85958328744101
 11
16.889123136678791
 21
187.06256943246052
  0
LINE
  8
_0-1_作画層１
  6
CONTINUOUS
 62
    7
 10
15.983552796522247
 20
187.85501022835896
 11
16.772984797636127
 21
187.06557846566366
  0
LINE
  8
_0-1_作画層１
  6
CONTINUOUS
 62
    7
 10
15.875906569639312
 20
187.84952698250936
 11
16.658053941408269
 21
187.06737976571247
  0
LINE
  8
_0-1_作画層１
  6
CONTINUOUS
 62
    7
 10
15.769170910993694
 20
187.84311371346638
 11
16.544310803467511
 21
187.06797333260701
  0
LINE
  8
_0-1_作画層１
  6
CONTINUOUS
 62
    7
 10
15.663326079526996
 20
187.83582916756797
 11
16.431695992628192
 21
187.06743927498982
  0
LINE
  8
_0-1_作画層１
  6
CONTINUOUS
 62
    7
 10
15.558352191129785
 20
187.82767334481406
 11
16.32020951000797
 21
187.0657959034078
  0
LINE
  8
_0-1_作画層１
  6
CONTINUOUS
 62
    7
 10
15.454229552427392
 20
187.81864700814413
 11
16.209791953245258
 21
187.06308441659138
  0
LINE
  8
_0-1_作画層１
  6
CONTINUOUS
 62
    7
 10
15.350938231626628
 20
187.80880814095661
 11
16.100443370023839
 21
187.05930328866171
  0
LINE
  8
_0-1_作画層１
  6
CONTINUOUS
 62
    7
 10
15.248458583036523
 20
187.79813919564413
 11
15.99208451000797
 21
187.05451279183552
  0
LINE
  8
_0-1_作画層１
  6
CONTINUOUS
 62
    7
 10
15.146770674863916
 20
187.78669739266562
 11
15.884754998365509
 21
187.04873276253866
  0
LINE
  8
_0-1_作画層１
  6
CONTINUOUS
 62
    7
 10
15.045874602476232
 20
187.77446365853476
 11
15.778355891386127
 21
187.04198227425741
  0
LINE
  8
_0-1_作画層１
  6
CONTINUOUS
 62
    7
 10
14.945750624815105
 20
187.76145859261678
 11
15.67290697781192
 21
187.03428192635701
  0
LINE
  8
_0-1_作画層１
  6
CONTINUOUS
 62
    7
 10
14.846358878294097
 20
187.74770050545857
 11
15.568408114591705
 21
187.02565155526327
  0
LINE
  8
_0-1_作画層１
  6
CONTINUOUS
 62
    7
 10
14.747719580808734
 20
187.73321075936482
 11
15.464780337492101
 21
187.01613007088827
  0
LINE
  8
_0-1_作画層１
  6
CONTINUOUS
 62
    7
 10
14.649792678037755
 20
187.71798782845661
 11
15.362043387571447
 21
187.0057373096578
  0
LINE
  8
_0-1_作画層１
  6
CONTINUOUS
 62
    7
 10
14.552578551450836
 20
187.70207291146443
 11
15.260177333036523
 21
186.99449387093711
  0
LINE
  8
_0-1_作画層１
  6
CONTINUOUS
 62
    7
 10
14.456057364622211
 20
187.68544464608357
 11
15.15912285534489
 21
186.98237915536092
  0
LINE
  8
_0-1_作画層１
  6
CONTINUOUS
 62
    7
 10
14.36024857250797
 20
187.66812439461873
 11
15.058899886289709
 21
186.96947250863241
  0
LINE
  8
_0-1_作画層１
  6
CONTINUOUS
 62
    7
 10
14.265093047300439
 20
187.65015030404257
 11
14.959488398710363
 21
186.95573502083943
  0
LINE
  8
_0-1_作画層１
  6
CONTINUOUS
 62
    7
 10
14.170610625425439
 20
187.63150330086873
 11
14.860868842283367
 21
186.94122543831992
  0
LINE
  8
_0-1_作画層１
  6
CONTINUOUS
 62
    7
 10
14.076761824766265
 20
187.61220245858357
 11
14.763040930906413
 21
186.92592316170857
  0
LINE
  8
_0-1_作画層１
  6
CONTINUOUS
 62
    7
 10
13.983565909544097
 20
187.59226913949178
 11
14.665945632139312
 21
186.90988922616171
  0
LINE
  8
_0-1_作画層１
  6
CONTINUOUS
 62
    7
 10
13.891003615537755
 20
187.57168198128866
 11
14.569602400938152
 21
186.89308319588827
  0
LINE
  8
_0-1_作画層１
  6
CONTINUOUS
 62
    7
 10
13.799074942747211
 20
187.55050125619101
 11
14.473991782346843
 21
186.87556458016562
  0
LINE
  8
_0-1_作画層１
  6
CONTINUOUS
 62
    7
 10
13.707739836851232
 20
187.5286865284078
 11
14.37909355846989
 21
186.85731354256797
  0
LINE
  8
_0-1_作画層１
  6
CONTINUOUS
 62
    7
 10
13.617018515745258
 20
187.50625916024373
 11
14.284908110776996
 21
186.83836899300741
  0
LINE
  8
_0-1_作画層１
  6
CONTINUOUS
 62
    7
 10
13.526910788694494
 20
187.48323669930625
 11
14.191435248533367
 21
186.81873245736287
  0
LINE
  8
_0-1_作画層１
  6
CONTINUOUS
 62
    7
 10
13.437357527891265
 20
187.45964127083943
 11
14.098615653196447
 21
186.79840317269492
  0
LINE
  8
_0-1_作画層１
  6
CONTINUOUS
 62
    7
 10
13.348417670408367
 20
187.43545151253866
 11
14.006468970457178
 21
186.77740021248982
  0
LINE
  8
_0-1_作画層１
  6
CONTINUOUS
 62
    7
 10
13.260032088438152
 20
187.41070786019492
 11
13.914995391050439
 21
186.75574417611287
  0
LINE
  8
_0-1_作画層１
  6
CONTINUOUS
 62
    7
 10
13.172220809141265
 20
187.38536987801717
 11
13.824175078550439
 21
186.73343506356406
  0
LINE
  8
_0-1_作画層１
  6
CONTINUOUS
 62
    7
 10
13.084963423887359
 20
187.3594970752828
 11
13.733968550840473
 21
186.71047287484333
  0
LINE
  8
_0-1_作画層１
  6
CONTINUOUS
 62
    7
 10
12.998260695615869
 20
187.33307114144492
 11
13.644434935728185
 21
186.68689651986287
  0
LINE
  8
_0-1_作画層１
  6
CONTINUOUS
 62
    7
 10
12.912111861387359
 20
187.30608978768515
 11
13.555495078245258
 21
186.66268692513631
  0
LINE
  8
_0-1_作画層１
  6
CONTINUOUS
 62
    7
 10
12.826478011289709
 20
187.27855453988241
 11
13.467169005552392
 21
186.63788376351522
  0
LINE
  8
_0-1_作画層１
  6
CONTINUOUS
 62
    7
 10
12.741398436704742
 20
187.25052490731406
 11
13.379456526914709
 21
186.61246643563436
  0
LINE
  8
_0-1_作画層１
  6
CONTINUOUS
 62
    7
 10
12.656852919736963
 20
187.22194061776327
 11
13.292337996641265
 21
186.5864357044332
  0
LINE
  8
_0-1_作画層１
  6
CONTINUOUS
 62
    7
 10
12.572822386900043
 20
187.19284134408161
 11
13.205832869688152
 21
186.55983124276327
  0
LINE
  8
_0-1_作画層１
  6
CONTINUOUS
 62
    7
 10
12.489287001768218
 20
187.16322784920857
 11
13.119882399717426
 21
186.53263245125936
  0
LINE
  8
_0-1_作画層１
  6
CONTINUOUS
 62
    7
 10
12.406265837827789
 20
187.13310013314413
 11
13.034505660215473
 21
186.50487976571247
  0
LINE
  8
_0-1_作画層１
  6
CONTINUOUS
 62
    7
 10
12.323759658018218
 20
187.10247650643515
 11
12.949703032651996
 21
186.47653275033161
  0
LINE
  8
_0-1_作画層１
  6
CONTINUOUS
 62
    7
 10
12.241767699400043
 20
187.07133865853476
 11
12.865454680601232
 21
186.44765167733357
  0
LINE
  8
_0-1_作画層１
  6
CONTINUOUS
 62
    7
 10
12.160251052061199
 20
187.03972626229452
 11
12.781760604063152
 21
186.41819687386678
  0
LINE
  8
_0-1_作画層１
  6
CONTINUOUS
 62
    7
 10
12.079209716001628
 20
187.00759811898396
 11
12.698620803037755
 21
186.38820724984333
  0
LINE
  8
_0-1_作画層１
  6
CONTINUOUS
 62
    7
 10
11.998682982603185
 20
186.97501526375936
 11
12.616015441099279
 21
186.35766296883747
  0
LINE
  8
_0-1_作画層１
  6
CONTINUOUS
 62
    7
 10
11.918631179014312
 20
186.94193802376913
 11
12.533964736143218
 21
186.32660446664022
  0
LINE
  8
_0-1_作画層１
  6
CONTINUOUS
 62
    7
 10
11.839034850278949
 20
186.90838470956015
 11
12.452428252378581
 21
186.29499130746052
  0
LINE
  8
_0-1_作画層１
  6
CONTINUOUS
 62
    7
 10
11.759933287778949
 20
186.87433701058552
 11
12.371426207700836
 21
186.26286392708943
  0
LINE
  8
_0-1_作画層１
  6
CONTINUOUS
 62
    7
 10
11.681286818662755
 20
186.8398536731832
 11
12.290939147153949
 21
186.23020172616171
  0
LINE
  8
_0-1_作画層１
  6
CONTINUOUS
 62
    7
 10
11.603115660825836
 20
186.80489578744101
 11
12.210966689268218
 21
186.19704514046833
  0
LINE
  8
_0-1_作画層１
  6
CONTINUOUS
 62
    7
 10
11.525399977842426
 20
186.76946259041952
 11
12.131508452573883
 21
186.16337357064413
  0
LINE
  8
_0-1_作画層１
  6
CONTINUOUS
 62
    7
 10
11.448139388242822
 20
186.73359375497029
 11
12.052525908628581
 21
186.12918701668906
  0
LINE
  8
_0-1_作画層１
  6
CONTINUOUS
 62
    7
 10
11.371333892026996
 20
186.69724960824178
 11
11.974077422300439
 21
186.09452591439413
  0
LINE
  8
_0-1_作画層１
  6
CONTINUOUS
 62
    7
 10
11.294983870664709
 20
186.66046982308552
 11
11.896104247251628
 21
186.05934982796833
  0
LINE
  8
_0-1_作画層１
  6
CONTINUOUS
 62
    7
 10
11.219069487730138
 20
186.62325516244101
 11
11.818665511289709
 21
186.02367859383747
  0
LINE
  8
_0-1_作画層１
  6
CONTINUOUS
 62
    7
 10
11.143610198179346
 20
186.58556519051717
 11
11.741662413755535
 21
185.98753281136678
  0
LINE
  8
_0-1_作画層１
  6
CONTINUOUS
 62
    7
 10
11.068586165586566
 20
186.54745941659138
 11
11.665173537412755
 21
185.95089188119101
  0
LINE
  8
_0-1_作画層１
  6
CONTINUOUS
 62
    7
 10
10.993998152891265
 20
186.50891800423787
 11
11.589159972349279
 21
185.91377563973592
  0
LINE
  8
_0-1_作画層１
  6
CONTINUOUS
 62
    7
 10
10.919845397153949
 20
186.46992187997029
 11
11.513601882139312
 21
185.87618484994101
  0
LINE
  8
_0-1_作画層１
  6
CONTINUOUS
 62
    7
 10
10.846127898374675
 20
186.43050919076131
 11
11.438538558164709
 21
185.83809891244101
  0
LINE
  8
_0-1_作画層１
  6
CONTINUOUS
 62
    7
 10
10.684440810361963
 20
186.47906723519492
 11
11.363930327573883
 21
185.79957733651327
  0
LINE
  8
_0-1_作画層１
  6
CONTINUOUS
 62
    7
 10
10.467604643980138
 20
186.5827735950582
 11
11.289797408262359
 21
185.76058044930625
  0
LINE
  8
_0-1_作画層１
  6
CONTINUOUS
 62
    7
 10
10.237524993101232
 20
186.58657455941366
 11
11.142897612730138
 21
185.68120193978476
  0
LINE
  8
_0-1_作画層１
  6
CONTINUOUS
 62
    7
 10
10.196113402525043
 20
186.51485672494101
 11
11.070130355039709
 21
185.64082031747029
  0
LINE
  8
_0-1_作画層１
  6
CONTINUOUS
 62
    7
 10
10.154702193418615
 20
186.44311905404257
 11
10.997838408628581
 21
185.59998245736287
  0
LINE
  8
_0-1_作画層１
  6
CONTINUOUS
 62
    7
 10
10.113290221372722
 20
186.37138138314413
 11
10.925981719175439
 21
185.55870972176717
  0
LINE
  8
_0-1_作画層１
  6
CONTINUOUS
 62
    7
 10
10.071878630796533
 20
186.2996826221578
 11
10.854580504575836
 21
185.51698151131797
  0
LINE
  8
_0-1_作画層１
  6
CONTINUOUS
 62
    7
 10
10.030467803159809
 20
186.22794495125936
 11
10.783614928403949
 21
185.47479782601522
  0
LINE
  8
_0-1_作画層１
  6
CONTINUOUS
 62
    7
 10
9.9890562125836482
 20
186.15620728036092
 11
10.713104445615869
 21
185.43217850228476
  0
LINE
  8
_0-1_作画層１
  6
CONTINUOUS
 62
    7
 10
9.9476446220074877
 20
186.08450928231406
 11
10.643009764829742
 21
185.38912430306601
  0
LINE
  8
_0-1_作画層１
  6
CONTINUOUS
 62
    7
 10
9.9062330314312987
 20
186.01277161141562
 11
10.573370177427392
 21
185.34563446541952
  0
LINE
  8
_0-1_作画層１
  6
CONTINUOUS
 62
    7
 10
9.8648412772809024
 20
185.94103394051717
 11
10.504166228452789
 21
185.30168915291952
  0
LINE
  8
_0-1_作画層１
  6
CONTINUOUS
 62
    7
 10
9.8234098502789493
 20
185.86931610604452
 11
10.435397917905902
 21
185.25734787484333
  0
LINE
  8
_0-1_作画層１
  6
CONTINUOUS
 62
    7
 10
9.7819982597027888
 20
185.79759750863241
 11
10.367045027891265
 21
185.21253128548787
  0
LINE
  8
_0-1_作画層１
  6
CONTINUOUS
 62
    7
 10
9.7406065055523925
 20
185.72585983773396
 11
10.299147612730138
 21
185.16731873055625
  0
LINE
  8
_0-1_作画層１
  6
CONTINUOUS
 62
    7
 10
9.699194914976232
 20
185.65414200326131
 11
10.231665618101232
 21
185.12167130013631
  0
LINE
  8
_0-1_作画層１
  6
CONTINUOUS
 62
    7
 10
9.6577833244000431
 20
185.58242416878866
 11
10.164599425474279
 21
185.07558823128866
  0
LINE
  8
_0-1_作画層１
  6
CONTINUOUS
 62
    7
 10
9.6163717338238826
 20
185.51068649789022
 11
10.097968871275043
 21
185.02906952401327
  0
LINE
  8
_0-1_作画層１
  6
CONTINUOUS
 62
    7
 10
9.574960143247722
 20
185.43896866341757
 11
10.031754119077789
 21
184.98215485116171
  0
LINE
  8
_0-1_作画層１
  6
CONTINUOUS
 62
    7
 10
9.5335485526715331
 20
185.36725082894492
 11
9.9659750053082519
 21
184.93480453988241
  0
LINE
  8
_0-1_作画層１
  6
CONTINUOUS
 62
    7
 10
9.4921377250348087
 20
185.29551239510701
 11
9.9005910941754394
 21
184.88703918954062
  0
LINE
  8
_0-1_作画層１
  6
CONTINUOUS
 62
    7
 10
9.4507261344586482
 20
185.22377472420857
 11
9.8356626578961368
 21
184.83885727425741
  0
LINE
  8
_0-1_作画層１
  6
CONTINUOUS
 62
    7
 10
9.4093145438824877
 20
185.15205688973592
 11
9.7711111137066951
 21
184.79026031991171
  0
LINE
  8
_0-1_作画層１
  6
CONTINUOUS
 62
    7
 10
9.3679029533062987
 20
185.08033905526327
 11
9.7069944450055345
 21
184.74122772713827
  0
LINE
  8
_0-1_作画層１
  6
CONTINUOUS
 62
    7
 10
9.3264913627301382
 20
185.00860138436482
 11
9.6432935783062987
 21
184.69179916878866
  0
LINE
  8
_0-1_作画層１
  6
CONTINUOUS
 62
    7
 10
9.2850797721539493
 20
184.93688354989217
 11
9.5799886771832519
 21
184.64195480843711
  0
LINE
  8
_0-1_作画層１
  6
CONTINUOUS
 62
    7
 10
9.2436681815777888
 20
184.86516571541952
 11
9.5171186515484862
 21
184.59169464608357
  0
LINE
  8
_0-1_作画層１
  6
CONTINUOUS
 62
    7
 10
9.2022565910016283
 20
184.79342728158161
 11
9.4546453544293456
 21
184.54103928109333
  0
LINE
  8
_0-1_作画層１
  6
CONTINUOUS
 62
    7
 10
9.1608450004254394
 20
184.72170944710896
 11
9.392587096372722
 21
184.48994751473592
  0
LINE
  8
_0-1_作画層１
  6
CONTINUOUS
 62
    7
 10
9.1194334098492789
 20
184.64999161263631
 11
9.3309454032574877
 21
184.43846054574178
  0
LINE
  8
_0-1_作画層１
  6
CONTINUOUS
 62
    7
 10
9.0780218192730899
 20
184.57825394173787
 11
9.2696989127789493
 21
184.38657684823201
  0
LINE
  8
_0-1_作画層１
  6
CONTINUOUS
 62
    7
 10
9.0366102286969294
 20
184.50651627083943
 11
9.2088682243023925
 21
184.33425827523396
  0
LINE
  8
_0-1_作画層１
  6
CONTINUOUS
 62
    7
 10
8.9951986381207689
 20
184.43479843636678
 11
9.1484533378277888
 21
184.28156357308552
  0
LINE
  8
_0-1_作画層１
  6
CONTINUOUS
 62
    7
 10
8.9537878104840445
 20
184.36308060189413
 11
9.0884344169293456
 21
184.22843323250936
  0
LINE
  8
_0-1_作画層１
  6
CONTINUOUS
 62
    7
 10
8.9123762199078556
 20
184.29134293099568
 11
9.0288114616070914
 21
184.17490692635701
  0
LINE
  8
_0-1_作画層１
  6
CONTINUOUS
 62
    7
 10
8.8709646293316951
 20
184.21962433358357
 11
8.9696035453473257
 21
184.12098541756797
  0
LINE
  8
_0-1_作画層１
  6
CONTINUOUS
 62
    7
 10
8.8295530387555345
 20
184.14788666268515
 11
8.9107923576031851
 21
184.06664734383747
  0
LINE
  8
_0-1_作画層１
  6
CONTINUOUS
 62
    7
 10
8.7881414481793456
 20
184.07616882821247
 11
8.8523962089215331
 21
184.01191406747029
  0
LINE
  8
_0-1_作画層１
  6
CONTINUOUS
 62
    7
 10
8.7467298576031851
 20
184.00443115731406
 11
8.7944166251812987
 21
183.95676422616171
  0
LINE
  8
_0-1_作画層１
  6
CONTINUOUS
 62
    7
 10
8.7053182670269962
 20
183.93271332284138
 11
8.7368322440777888
 21
183.90121918221638
  0
LINE
  8
_0-1_作画層１
  6
CONTINUOUS
 62
    7
 10
8.6639066764508357
 20
183.86099548836873
 11
8.6796438285504394
 21
183.84525833626913
  0
LINE
  8
_0-1_作画層１
  6
CONTINUOUS
 62
    7
 10
8.6224950858746752
 20
183.78925781747029
 11
8.6228513785992789
 21
183.78890152474568
  0
ARC
  8
_0-1_作画層１
  6
CONTINUOUS
 62
    7
 10
16.541123778501628
 20
175.86797638436494
 40
11.199999999999912
 50
44.999999999999595
 51
135.00000000000045
  0
ARC
  8
_0-1_作画層１
  6
CONTINUOUS
 62
    7
 10
16.5411237785016
 20
175.86797638436485
 40
11.999998474121091
 50
44.999999999999808
 51
118.58175659179673
  0
ARC
  8
_0-1_作画層１
  6
CONTINUOUS
 62
    7
 10
16.5411237785016
 20
175.86797638436482
 40
11.199999999999998
 50
44.999999999999901
 51
135.6326751708983
  0
LINE
  8
_0-1_作画層１
  6
CONTINUOUS
 62
    7
 10
11.614379317442058
 20
173.45806427498985
 11
11.631211669126628
 21
173.44123192330528
  0
LINE
  8
_0-1_作画層１
  6
CONTINUOUS
 62
    7
 10
6.7463668891583666
 20
168.28705521126915
 11
6.7857593604718431
 21
168.3264228870504
  0
LINE
  8
_0-d_0_1
  6
CONTINUOUS
 62
    7
 10
25.522850575037424
 20
169.91301591706915
 11
25.5826360364632
 21
169.8532380850379
  0
LINE
  8
_0-1_作画層１
  6
CONTINUOUS
 62
    7
 10
24.460722167173486
 20
172.94837799569299
 11
25.026408965269198
 21
172.3826911975973
  0
LINE
  8
_0-1_作画層１
  6
CONTINUOUS
 62
    7
 10
8.6215253898297419
 20
172.94837799569299
 11
10.275828749815105
 21
170.08300476571253
  0
LINE
  8
_0-1_作画層１
  6
CONTINUOUS
 62
    7
 10
10.280539900938152
 20
170.0637245227926
 11
10.786821562925439
 21
170.30585937997034
  0
LINE
  8
_0-1_作画層１
  6
CONTINUOUS
 62
    7
 10
24.004423339048486
 20
171.47120209237269
 11
24.971140868345373
 21
172.43793945809534
  0
LINE
  8
_0-1_作画層１
  6
CONTINUOUS
 62
    7
 10
23.541572386900057
 20
171.12151947518518
 11
24.914586455503567
 21
172.49451370736293
  0
LINE
  8
_0-1_作画層１
  6
CONTINUOUS
 62
    7
 10
23.17595501629458
 20
170.86903229256799
 11
24.858011443296533
 21
172.55108871956995
  0
LINE
  8
_0-1_作画層１
  6
CONTINUOUS
 62
    7
 10
22.86053868023501
 20
170.66676483651332
 11
24.801457030454742
 21
172.60764313241174
  0
LINE
  8
_0-1_作画層１
  6
CONTINUOUS
 62
    7
 10
22.577289397398104
 20
170.49664536019495
 11
24.744882018247708
 21
172.66421814461879
  0
LINE
  8
_0-1_作画層１
  6
CONTINUOUS
 62
    7
 10
22.316943175474279
 20
170.34942856331995
 11
24.688307768980138
 21
172.72079239388637
  0
LINE
  8
_0-1_作画層１
  6
CONTINUOUS
 62
    7
 10
22.074036605039709
 20
170.21963120003869
 11
24.631732756773104
 21
172.77736740609339
  0
LINE
  8
_0-1_作画層１
  6
CONTINUOUS
 62
    7
 10
21.84496670452701
 20
170.10371094247034
 11
24.57515850750552
 21
172.83394165536097
  0
LINE
  8
_0-1_作画層１
  6
CONTINUOUS
 62
    7
 10
21.627259261289709
 20
169.99915237923793
 11
24.518603331724279
 21
172.89049683114223
  0
LINE
  8
_0-1_作画層１
  6
CONTINUOUS
 62
    7
 10
21.41913243023501
 20
169.9041755725973
 11
24.462029082456695
 21
172.94707108040978
  0
LINE
  8
_0-1_作画層１
  6
CONTINUOUS
 62
    7
 10
21.219240767637359
 20
169.81739349862269
 11
23.471576506773104
 21
172.06976852914028
  0
LINE
  8
_0-1_作画層１
  6
CONTINUOUS
 62
    7
 10
21.026435668150057
 20
169.73775711556604
 11
23.022740752378567
 21
171.73404236336879
  0
LINE
  8
_0-1_作画層１
  6
CONTINUOUS
 62
    7
 10
20.839965254942044
 20
169.66441574593713
 11
22.667872435728185
 21
171.49232330819299
  0
LINE
  8
_0-1_作画層１
  6
CONTINUOUS
 62
    7
 10
20.659076506773104
 20
169.59667664071253
 11
22.361561782041662
 21
171.29914169808558
  0
LINE
  8
_0-1_作画層１
  6
CONTINUOUS
 62
    7
 10
20.483255965391265
 20
169.53396606942346
 11
22.086349303403964
 21
171.13707886239223
  0
LINE
  8
_0-1_作画層１
  6
CONTINUOUS
 62
    7
 10
20.311987883726232
 20
169.47584686776332
 11
21.833326918760406
 21
170.99718628426723
  0
LINE
  8
_0-1_作画層１
  6
CONTINUOUS
 62
    7
 10
20.144896895567058
 20
169.42188568612269
 11
21.597150618711581
 21
170.87413940926723
  0
LINE
  8
_0-1_作画層１
  6
CONTINUOUS
 62
    7
 10
19.981625945249675
 20
169.37176361581018
 11
21.374415404478185
 21
170.76455307503869
  0
LINE
  8
_0-1_作画層１
  6
CONTINUOUS
 62
    7
 10
19.821898848692058
 20
169.32516632577114
 11
21.162685973325836
 21
170.66595306893518
  0
LINE
  8
_0-1_作画層１
  6
CONTINUOUS
 62
    7
 10
19.66543751446352
 20
169.28183441659144
 11
20.960240752378567
 21
170.57665710946253
  0
LINE
  8
_0-1_作画層１
  6
CONTINUOUS
 62
    7
 10
19.512005049863916
 20
169.24155121346644
 11
20.765752989927392
 21
170.49529877206018
  0
LINE
  8
_0-1_作画層１
  6
CONTINUOUS
 62
    7
 10
19.361423117796051
 20
169.20409851571253
 11
20.578173644224279
 21
170.42086945077114
  0
LINE
  8
_0-1_作画層１
  6
CONTINUOUS
 62
    7
 10
19.213513381162755
 20
169.16933823128869
 11
20.396711165586566
 21
170.35253601571253
  0
LINE
  8
_0-1_作画層１
  6
CONTINUOUS
 62
    7
 10
19.068098075071447
 20
169.13705215951137
 11
20.220692641416662
 21
170.28966675301723
  0
LINE
  8
_0-1_作画層１
  6
CONTINUOUS
 62
    7
 10
18.925057990232574
 20
169.10716171761683
 11
20.049582869688152
 21
170.23168640633753
  0
LINE
  8
_0-1_作画層１
  6
CONTINUOUS
 62
    7
 10
18.784254843870258
 20
169.07948837777309
 11
19.882907302061199
 21
170.17814026375942
  0
LINE
  8
_0-1_作画層１
  6
CONTINUOUS
 62
    7
 10
18.645569808164709
 20
169.05393219491174
 11
19.720290000120258
 21
170.1286529590719
  0
LINE
  8
_0-1_作画層１
  6
CONTINUOUS
 62
    7
 10
18.508903891721843
 20
169.03041611214809
 11
19.561374289671051
 21
170.0828865100973
  0
LINE
  8
_0-1_作画層１
  6
CONTINUOUS
 62
    7
 10
18.374157912412755
 20
169.00879974862269
 11
19.40590286938297
 21
170.04056396981409
  0
LINE
  8
_0-1_作画層１
  6
CONTINUOUS
 62
    7
 10
18.241233260313152
 20
168.98902435799769
 11
19.253618437925439
 21
170.00140915414028
  0
LINE
  8
_0-1_作画層１
  6
CONTINUOUS
 62
    7
 10
18.11005058971989
 20
168.97099075814418
 11
19.104283530393701
 21
169.96522369881799
  0
LINE
  8
_0-1_作画層１
  6
CONTINUOUS
 62
    7
 10
17.980550486723047
 20
168.95462036629846
 11
18.957739836851232
 21
169.93178940316369
  0
LINE
  8
_0-1_作画層１
  6
CONTINUOUS
 62
    7
 10
17.852673632780181
 20
168.93987274666955
 11
18.813769538084131
 21
169.90096817513637
  0
LINE
  8
_0-1_作画層１
  6
CONTINUOUS
 62
    7
 10
17.726301104704021
 20
168.92664948006799
 11
18.67227345196352
 21
169.87260208626918
  0
LINE
  8
_0-1_作画層１
  6
CONTINUOUS
 62
    7
 10
17.601433093229389
 20
168.91491089364223
 11
18.533053977171051
 21
169.84653168221644
  0
LINE
  8
_0-1_作画層１
  6
CONTINUOUS
 62
    7
 10
17.477990348020654
 20
168.90459747811488
 11
18.396031577268701
 21
169.82265854378869
  0
LINE
  8
_0-1_作画層１
  6
CONTINUOUS
 62
    7
 10
17.355933196226232
 20
168.89567032357385
 11
18.261087805906413
 21
169.80082474251918
  0
LINE
  8
_0-1_作画層１
  6
CONTINUOUS
 62
    7
 10
17.235182578245258
 20
168.88804855843713
 11
18.12808399883852
 21
169.78097000619104
  0
LINE
  8
_0-1_作画層１
  6
CONTINUOUS
 62
    7
 10
17.115718609968297
 20
168.88175430794885
 11
17.99698048321352
 21
169.76299591561488
  0
LINE
  8
_0-1_作画層１
  6
CONTINUOUS
 62
    7
 10
16.997481972852825
 20
168.87666626473597
 11
17.867638785520654
 21
169.74680328866174
  0
LINE
  8
_0-1_作画層１
  6
CONTINUOUS
 62
    7
 10
16.880472643056976
 20
168.87276688119104
 11
17.740038973966705
 21
169.73233337899379
  0
LINE
  8
_0-1_作画層１
  6
CONTINUOUS
 62
    7
 10
16.764611417928791
 20
168.87005463143518
 11
17.614062411466705
 21
169.7194862415426
  0
LINE
  8
_0-1_作画層１
  6
CONTINUOUS
 62
    7
 10
16.649898321310161
 20
168.86847153206995
 11
17.489629847684967
 21
169.70820312997034
  0
LINE
  8
_0-1_作画層１
  6
CONTINUOUS
 62
    7
 10
16.536254162842511
 20
168.86797638436488
 11
17.366741377988916
 21
169.69844360848597
  0
LINE
  8
_0-1_作画層１
  6
CONTINUOUS
 62
    7
 10
16.423698742071252
 20
168.86855087777309
 11
17.245278126875036
 21
169.69012985726528
  0
LINE
  8
_0-1_作画層１
  6
CONTINUOUS
 62
    7
 10
16.312172658125036
 20
168.87015381356409
 11
17.125240094343297
 21
169.68322144051723
  0
LINE
  8
_0-1_作画層１
  6
CONTINUOUS
 62
    7
 10
16.201656133810161
 20
168.87278671761683
 11
17.006528384367101
 21
169.67763901253869
  0
LINE
  8
_0-1_作画層１
  6
CONTINUOUS
 62
    7
 10
16.092109591642497
 20
168.87636948128869
 11
16.889123136678791
 21
169.67338333626918
  0
LINE
  8
_0-1_作画層１
  6
CONTINUOUS
 62
    7
 10
15.983552796522247
 20
168.88094254037074
 11
16.772984797636127
 21
169.67037430306604
  0
LINE
  8
_0-1_作画層１
  6
CONTINUOUS
 62
    7
 10
15.875906569639312
 20
168.88642578622034
 11
16.658053941408269
 21
169.66857300301723
  0
LINE
  8
_0-1_作画層１
  6
CONTINUOUS
 62
    7
 10
15.769170910993694
 20
168.89283905526332
 11
16.544310803467511
 21
169.66797943612269
  0
LINE
  8
_0-1_作画層１
  6
CONTINUOUS
 62
    7
 10
15.663326079526996
 20
168.90012360116174
 11
16.431695992628192
 21
169.66851349373988
  0
LINE
  8
_0-1_作画層１
  6
CONTINUOUS
 62
    7
 10
15.558352191129785
 20
168.90827942391564
 11
16.32020951000797
 21
169.6701568653219
  0
LINE
  8
_0-1_作画層１
  6
CONTINUOUS
 62
    7
 10
15.454229552427392
 20
168.91730576058558
 11
16.209791953245258
 21
169.67286835213832
  0
LINE
  8
_0-1_作画層１
  6
CONTINUOUS
 62
    7
 10
15.350938231626628
 20
168.92714462777309
 11
16.100443370023839
 21
169.67664948006799
  0
LINE
  8
_0-1_作画層１
  6
CONTINUOUS
 62
    7
 10
15.248458583036523
 20
168.93781357308558
 11
15.99208451000797
 21
169.68143997689418
  0
LINE
  8
_0-1_作画層１
  6
CONTINUOUS
 62
    7
 10
15.146770674863916
 20
168.94925537606409
 11
15.884754998365509
 21
169.68722000619104
  0
LINE
  8
_0-1_作画層１
  6
CONTINUOUS
 62
    7
 10
15.045874602476232
 20
168.96148911019495
 11
15.778355891386127
 21
169.6939704944723
  0
LINE
  8
_0-1_作画層１
  6
CONTINUOUS
 62
    7
 10
14.945750624815105
 20
168.97449417611293
 11
15.67290697781192
 21
169.70167084237269
  0
LINE
  8
_0-1_作画層１
  6
CONTINUOUS
 62
    7
 10
14.846358878294097
 20
168.98825226327114
 11
15.568408114591705
 21
169.71030121346644
  0
LINE
  8
_0-1_作画層１
  6
CONTINUOUS
 62
    7
 10
14.747719580808734
 20
169.00274200936488
 11
15.464780337492101
 21
169.71982269784144
  0
LINE
  8
_0-1_作画層１
  6
CONTINUOUS
 62
    7
 10
14.649792678037755
 20
169.01796494027309
 11
15.362043387571447
 21
169.7302154590719
  0
LINE
  8
_0-1_作画層１
  6
CONTINUOUS
 62
    7
 10
14.552578551450836
 20
169.03387985726528
 11
15.260177333036523
 21
169.7414588977926
  0
LINE
  8
_0-1_作画層１
  6
CONTINUOUS
 62
    7
 10
14.456057364622211
 20
169.05050812264614
 11
15.15912285534489
 21
169.75357361336879
  0
LINE
  8
_0-1_作画層１
  6
CONTINUOUS
 62
    7
 10
14.36024857250797
 20
169.06782837411097
 11
15.058899886289709
 21
169.7664802600973
  0
LINE
  8
_0-1_作画層１
  6
CONTINUOUS
 62
    7
 10
14.265093047300439
 20
169.08580246468713
 11
14.959488398710363
 21
169.78021774789028
  0
LINE
  8
_0-1_作画層１
  6
CONTINUOUS
 62
    7
 10
14.170610625425439
 20
169.10444946786097
 11
14.860868842283367
 21
169.79472733040978
  0
LINE
  8
_0-1_作画層１
  6
CONTINUOUS
 62
    7
 10
14.076761824766265
 20
169.12375031014614
 11
14.763040930906413
 21
169.81002960702114
  0
LINE
  8
_0-1_作画層１
  6
CONTINUOUS
 62
    7
 10
13.983565909544097
 20
169.14368362923793
 11
14.665945632139312
 21
169.82606354256799
  0
LINE
  8
_0-1_作画層１
  6
CONTINUOUS
 62
    7
 10
13.891003615537755
 20
169.16427078744104
 11
14.569602400938152
 21
169.84286957284144
  0
LINE
  8
_0-1_作画層１
  6
CONTINUOUS
 62
    7
 10
13.799074942747211
 20
169.18545151253869
 11
14.473991782346843
 21
169.86038818856409
  0
LINE
  8
_0-1_作画層１
  6
CONTINUOUS
 62
    7
 10
13.707739836851232
 20
169.2072662403219
 11
14.37909355846989
 21
169.87863922616174
  0
LINE
  8
_0-1_作画層１
  6
CONTINUOUS
 62
    7
 10
13.617018515745258
 20
169.22969360848597
 11
14.284908110776996
 21
169.8975837757223
  0
LINE
  8
_0-1_作画層１
  6
CONTINUOUS
 62
    7
 10
13.526910788694494
 20
169.25271606942346
 11
14.191435248533367
 21
169.91722031136683
  0
LINE
  8
_0-1_作画層１
  6
CONTINUOUS
 62
    7
 10
13.437357527891265
 20
169.27631149789028
 11
14.098615653196447
 21
169.93754959603478
  0
LINE
  8
_0-1_作画層１
  6
CONTINUOUS
 62
    7
 10
13.348417670408367
 20
169.30050125619104
 11
14.006468970457178
 21
169.95855255623988
  0
LINE
  8
_0-1_作画層１
  6
CONTINUOUS
 62
    7
 10
13.260032088438152
 20
169.32524490853478
 11
13.914995391050439
 21
169.98020859261683
  0
LINE
  8
_0-1_作画層１
  6
CONTINUOUS
 62
    7
 10
13.172220809141265
 20
169.35058289071253
 11
13.824175078550439
 21
170.00251770516564
  0
LINE
  8
_0-1_作画層１
  6
CONTINUOUS
 62
    7
 10
13.084963423887359
 20
169.3764556934469
 11
13.733968550840473
 21
170.02547989388637
  0
LINE
  8
_0-1_作画層１
  6
CONTINUOUS
 62
    7
 10
12.998260695615869
 20
169.40288162728478
 11
13.644434935728185
 21
170.04905624886683
  0
LINE
  8
_0-1_作画層１
  6
CONTINUOUS
 62
    7
 10
12.912111861387359
 20
169.42986298104455
 11
13.555495078245258
 21
170.07326584359339
  0
LINE
  8
_0-1_作画層１
  6
CONTINUOUS
 62
    7
 10
12.826478011289709
 20
169.4573982288473
 11
13.467169005552392
 21
170.09806900521448
  0
LINE
  8
_0-1_作画層１
  6
CONTINUOUS
 62
    7
 10
12.741398436704742
 20
169.48542786141564
 11
13.379456526914709
 21
170.12348633309534
  0
LINE
  8
_0-1_作画層１
  6
CONTINUOUS
 62
    7
 10
12.656852919736963
 20
169.51401215096644
 11
13.292337996641265
 21
170.1495170642965
  0
LINE
  8
_0-1_作画層１
  6
CONTINUOUS
 62
    7
 10
12.572822386900043
 20
169.54311142464809
 11
13.205832869688152
 21
170.17612152596644
  0
LINE
  8
_0-1_作画層１
  6
CONTINUOUS
 62
    7
 10
12.489287001768218
 20
169.57272491952114
 11
13.119882399717426
 21
170.20332031747034
  0
LINE
  8
_0-1_作画層１
  6
CONTINUOUS
 62
    7
 10
12.406265837827789
 20
169.60285263558558
 11
13.034505660215473
 21
170.23107300301723
  0
LINE
  8
_0-1_作画層１
  6
CONTINUOUS
 62
    7
 10
12.323759658018218
 20
169.63347626229455
 11
12.949703032651996
 21
170.25942001839809
  0
LINE
  8
_0-1_作画層１
  6
CONTINUOUS
 62
    7
 10
12.241767699400043
 20
169.66461411019495
 11
12.865454680601232
 21
170.28830109139614
  0
LINE
  8
_0-1_作画層１
  6
CONTINUOUS
 62
    7
 10
12.160251052061199
 20
169.69622650643518
 11
12.781760604063152
 21
170.31775589486293
  0
LINE
  8
_0-1_作画層１
  6
CONTINUOUS
 62
    7
 10
12.079209716001628
 20
169.72835464974574
 11
12.698620803037755
 21
170.34774551888637
  0
LINE
  8
_0-1_作画層１
  6
CONTINUOUS
 62
    7
 10
11.998682982603185
 20
169.76093750497034
 11
12.616015441099279
 21
170.37828979989223
  0
LINE
  8
_0-1_作画層１
  6
CONTINUOUS
 62
    7
 10
11.918631179014312
 20
169.79401474496058
 11
12.533964736143218
 21
170.40934830208948
  0
LINE
  8
_0-1_作画層１
  6
CONTINUOUS
 62
    7
 10
11.839034850278949
 20
169.82756805916955
 11
12.452428252378581
 21
170.44096146126918
  0
LINE
  8
_0-1_作画層１
  6
CONTINUOUS
 62
    7
 10
11.759933287778949
 20
169.86161575814418
 11
12.371426207700836
 21
170.47308884164028
  0
LINE
  8
_0-1_作画層１
  6
CONTINUOUS
 62
    7
 10
11.681286818662755
 20
169.8960990955465
 11
12.290939147153949
 21
170.50575104256799
  0
LINE
  8
_0-1_作画層１
  6
CONTINUOUS
 62
    7
 10
11.603115660825836
 20
169.93105698128869
 11
12.210966689268218
 21
170.53890762826137
  0
LINE
  8
_0-1_作画層１
  6
CONTINUOUS
 62
    7
 10
11.525399977842426
 20
169.96649017831018
 11
12.131508452573883
 21
170.57257919808558
  0
LINE
  8
_0-1_作画層１
  6
CONTINUOUS
 62
    7
 10
11.448139388242822
 20
170.00235901375942
 11
12.052525908628581
 21
170.60676575204064
  0
LINE
  8
_0-1_作画層１
  6
CONTINUOUS
 62
    7
 10
11.371333892026996
 20
170.03870316048793
 11
11.974077422300439
 21
170.64142685433558
  0
LINE
  8
_0-1_作画層１
  6
CONTINUOUS
 62
    7
 10
11.294983870664709
 20
170.07548294564418
 11
11.896104247251628
 21
170.67660294076137
  0
LINE
  8
_0-1_作画層１
  6
CONTINUOUS
 62
    7
 10
11.219069487730138
 20
170.11269760628869
 11
11.818665511289709
 21
170.71227417489223
  0
LINE
  8
_0-1_作画層１
  6
CONTINUOUS
 62
    7
 10
11.143610198179346
 20
170.15038757821253
 11
11.741662413755535
 21
170.74841995736293
  0
LINE
  8
_0-1_作画層１
  6
CONTINUOUS
 62
    7
 10
11.068586165586566
 20
170.18849335213832
 11
11.665173537412755
 21
170.78506088753869
  0
LINE
  8
_0-1_作画層１
  6
CONTINUOUS
 62
    7
 10
10.993998152891265
 20
170.22703476449183
 11
11.589159972349279
 21
170.82217712899379
  0
LINE
  8
_0-1_作画層１
  6
CONTINUOUS
 62
    7
 10
10.919845397153949
 20
170.26603088875942
 11
11.513601882139312
 21
170.85976791878869
  0
LINE
  8
_0-1_作画層１
  6
CONTINUOUS
 62
    7
 10
10.846127898374675
 20
170.30544357796839
 11
11.438538558164709
 21
170.89785385628869
  0
LINE
  8
_0-1_作画層１
  6
CONTINUOUS
 62
    7
 10
10.684440810361963
 20
170.25688553353478
 11
11.363930327573883
 21
170.93637543221644
  0
LINE
  8
_0-1_作画層１
  6
CONTINUOUS
 62
    7
 10
10.467604643980138
 20
170.1531791736715
 11
11.289797408262359
 21
170.97537231942346
  0
LINE
  8
_0-1_作画層１
  6
CONTINUOUS
 62
    7
 10
10.237524993101232
 20
170.14937820931604
 11
11.142897612730138
 21
171.05475082894495
  0
LINE
  8
_0-1_作画層１
  6
CONTINUOUS
 62
    7
 10
10.196113402525043
 20
170.22109604378869
 11
11.070130355039709
 21
171.09513245125942
  0
LINE
  8
_0-1_作画層１
  6
CONTINUOUS
 62
    7
 10
10.154702193418615
 20
170.29283371468713
 11
10.997838408628581
 21
171.13597031136683
  0
LINE
  8
_0-1_作画層１
  6
CONTINUOUS
 62
    7
 10
10.113290221372722
 20
170.36457138558558
 11
10.925981719175439
 21
171.17724304696253
  0
LINE
  8
_0-1_作画層１
  6
CONTINUOUS
 62
    7
 10
10.071878630796533
 20
170.4362701465719
 11
10.854580504575836
 21
171.21897125741174
  0
LINE
  8
_0-1_作画層１
  6
CONTINUOUS
 62
    7
 10
10.030467803159809
 20
170.50800781747034
 11
10.783614928403949
 21
171.26115494271448
  0
LINE
  8
_0-1_作画層１
  6
CONTINUOUS
 62
    7
 10
9.9890562125836482
 20
170.57974548836879
 11
10.713104445615869
 21
171.30377426644495
  0
LINE
  8
_0-1_作画層１
  6
CONTINUOUS
 62
    7
 10
9.9476446220074877
 20
170.65144348641564
 11
10.643009764829742
 21
171.34682846566369
  0
LINE
  8
_0-1_作画層１
  6
CONTINUOUS
 62
    7
 10
9.9062330314312987
 20
170.72318115731409
 11
10.573370177427392
 21
171.39031830331018
  0
LINE
  8
_0-1_作画層１
  6
CONTINUOUS
 62
    7
 10
9.8648412772809024
 20
170.79491882821253
 11
10.504166228452789
 21
171.43426361581018
  0
LINE
  8
_0-1_作画層１
  6
CONTINUOUS
 62
    7
 10
9.8234098502789493
 20
170.86663666268518
 11
10.435397917905902
 21
171.47860489388637
  0
LINE
  8
_0-1_作画層１
  6
CONTINUOUS
 62
    7
 10
9.7819982597027888
 20
170.9383552600973
 11
10.367045027891265
 21
171.52342148324183
  0
LINE
  8
_0-1_作画層１
  6
CONTINUOUS
 62
    7
 10
9.7406065055523925
 20
171.01009293099574
 11
10.299147612730138
 21
171.56863403817346
  0
LINE
  8
_0-1_作画層１
  6
CONTINUOUS
 62
    7
 10
9.699194914976232
 20
171.08181076546839
 11
10.231665618101232
 21
171.61428146859339
  0
LINE
  8
_0-1_作画層１
  6
CONTINUOUS
 62
    7
 10
9.6577833244000431
 20
171.15352859994104
 11
10.164599425474279
 21
171.66036453744104
  0
LINE
  8
_0-1_作画層１
  6
CONTINUOUS
 62
    7
 10
9.6163717338238826
 20
171.22526627083948
 11
10.097968871275043
 21
171.70688324471644
  0
LINE
  8
_0-1_作画層１
  6
CONTINUOUS
 62
    7
 10
9.574960143247722
 20
171.29698410531213
 11
10.031754119077789
 21
171.75379791756799
  0
LINE
  8
_0-1_作画層１
  6
CONTINUOUS
 62
    7
 10
9.5335485526715331
 20
171.36870193978478
 11
9.9659750053082519
 21
171.8011482288473
  0
LINE
  8
_0-1_作画層１
  6
CONTINUOUS
 62
    7
 10
9.4921377250348087
 20
171.44044037362269
 11
9.9005910941754394
 21
171.84891357918909
  0
LINE
  8
_0-1_作画層１
  6
CONTINUOUS
 62
    7
 10
9.4507261344586482
 20
171.51217804452114
 11
9.8356626578961368
 21
171.8970954944723
  0
LINE
  8
_0-1_作画層１
  6
CONTINUOUS
 62
    7
 10
9.4093145438824877
 20
171.58389587899379
 11
9.7711111137066951
 21
171.94569244881799
  0
LINE
  8
_0-1_作画層１
  6
CONTINUOUS
 62
    7
 10
9.3679029533062987
 20
171.65561371346644
 11
9.7069944450055345
 21
171.99472504159144
  0
LINE
  8
_0-1_作画層１
  6
CONTINUOUS
 62
    7
 10
9.3264913627301382
 20
171.72735138436488
 11
9.6432935783062987
 21
172.04415359994104
  0
LINE
  8
_0-1_作画層１
  6
CONTINUOUS
 62
    7
 10
9.2850797721539493
 20
171.79906921883753
 11
9.5799886771832519
 21
172.0939979602926
  0
LINE
  8
_0-1_作画層１
  6
CONTINUOUS
 62
    7
 10
9.2436681815777888
 20
171.87078705331018
 11
9.5171186515484862
 21
172.14425812264614
  0
LINE
  8
_0-1_作画層１
  6
CONTINUOUS
 62
    7
 10
9.2022565910016283
 20
171.94252548714809
 11
9.4546453544293456
 21
172.19491348763637
  0
LINE
  8
_0-1_作画層１
  6
CONTINUOUS
 62
    7
 10
9.1608450004254394
 20
172.01424332162074
 11
9.392587096372722
 21
172.24600525399379
  0
LINE
  8
_0-1_作画層１
  6
CONTINUOUS
 62
    7
 10
9.1194334098492789
 20
172.08596115609339
 11
9.3309454032574877
 21
172.29749222298793
  0
LINE
  8
_0-1_作画層１
  6
CONTINUOUS
 62
    7
 10
9.0780218192730899
 20
172.15769882699183
 11
9.2696989127789493
 21
172.34937592049769
  0
LINE
  8
_0-1_作画層１
  6
CONTINUOUS
 62
    7
 10
9.0366102286969294
 20
172.22943649789028
 11
9.2088682243023925
 21
172.40169449349574
  0
LINE
  8
_0-1_作画層１
  6
CONTINUOUS
 62
    7
 10
8.9951986381207689
 20
172.30115433236293
 11
9.1484533378277888
 21
172.45438919564418
  0
LINE
  8
_0-1_作画層１
  6
CONTINUOUS
 62
    7
 10
8.9537878104840445
 20
172.37287216683558
 11
9.0884344169293456
 21
172.50751953622034
  0
LINE
  8
_0-1_作画層１
  6
CONTINUOUS
 62
    7
 10
8.9123762199078556
 20
172.44460983773402
 11
9.0288114616070914
 21
172.56104584237269
  0
LINE
  8
_0-1_作画層１
  6
CONTINUOUS
 62
    7
 10
8.8709646293316951
 20
172.51632843514614
 11
8.9696035453473257
 21
172.61496735116174
  0
LINE
  8
_0-1_作画層１
  6
CONTINUOUS
 62
    7
 10
8.8295530387555345
 20
172.58806610604455
 11
8.9107923576031851
 21
172.66930542489223
  0
LINE
  8
_0-1_作画層１
  6
CONTINUOUS
 62
    7
 10
8.7881414481793456
 20
172.65978394051723
 11
8.8523962089215331
 21
172.72403870125942
  0
LINE
  8
_0-1_作画層１
  6
CONTINUOUS
 62
    7
 10
8.7467298576031851
 20
172.73152161141564
 11
8.7944166251812987
 21
172.77918854256799
  0
LINE
  8
_0-1_作画層１
  6
CONTINUOUS
 62
    7
 10
8.7053182670269962
 20
172.80323944588832
 11
8.7368322440777888
 21
172.83473358651332
  0
LINE
  8
_0-1_作画層１
  6
CONTINUOUS
 62
    7
 10
8.6639066764508357
 20
172.87495728036097
 11
8.6796438285504394
 21
172.89069443246058
  0
LINE
  8
_0-1_作画層１
  6
CONTINUOUS
 62
    7
 10
8.6224950858746752
 20
172.94669495125942
 11
8.6228513785992789
 21
172.94705124398402
  0
ARC
  8
_0-1_作画層１
  6
CONTINUOUS
 62
    7
 10
16.541123778501628
 20
180.86797638436477
 40
11.199999999999912
 50
224.99999999999952
 51
315.0000000000004
  0
ARC
  8
_0-1_作画層１
  6
CONTINUOUS
 62
    7
 10
16.5411237785016
 20
180.86797638436485
 40
11.999998474121091
 50
241.41824340820324
 51
315.00000000000017
  0
ARC
  8
_0-1_作画層１
  6
CONTINUOUS
 62
    7
 10
16.5411237785016
 20
180.86797638436488
 40
11.199999999999998
 50
224.36732482910168
 51
315.00000000000011
  0
TEXT
  8
_0-7_注記層１
 62
    7
 10
244.75
 20
219.5
 40
3.5
 41
1
 50
0
  1
ST-702P
  0
LINE
  8
_0-1_作画層１
  6
CONTINUOUS
 62
    7
 10
79.041123778501628
 20
142.36798019906212
 11
79.041141276031908
 21
214.36800690194298
  0
LINE
  8
_0-1_作画層１
  6
CONTINUOUS
 62
    7
 10
99.041148574033855
 20
214.36800690194298
 11
79.041141276031908
 21
214.36800690194298
  0
LINE
  8
_0-1_作画層１
  6
CENTER
 62
    7
 10
75.041093260919638
 20
178.36797638436485
 11
157.54109326091964
 21
178.36797638436485
  0
LINE
  8
_0-1_作画層１
  6
CONTINUOUS
 62
    7
 10
99.04113140789616
 20
142.36798019906212
 11
79.041123778501628
 21
142.36798019906212
  0
LINE
  8
_0-1_作画層１
  6
CONTINUOUS
 62
    7
 10
124.0411378451945
 20
169.36797642707825
 11
124.04114213672733
 21
187.36797642707825
  0
LINE
  8
_0-1_作画層１
  6
CONTINUOUS
 62
    7
 10
117.0411378451945
 20
169.36797638436485
 11
124.0411378451945
 21
169.36797638436485
  0
LINE
  8
_0-1_作画層１
  6
CONTINUOUS
 62
    7
 10
117.04114213672733
 20
187.36797638436485
 11
124.04114213672733
 21
187.36797638436485
  0
LINE
  8
_0-1_作画層１
  6
CONTINUOUS
 62
    7
 10
138.04112377850163
 20
168.36797638436485
 11
138.04112377850163
 21
188.36797638436485
  0
LINE
  8
_0-1_作画層１
  6
CONTINUOUS
 62
    7
 10
137.54112377850163
 20
168.3363308147446
 11
137.54112377850163
 21
188.36797638436485
  0
LINE
  8
_0-1_作画層１
  6
CONTINUOUS
 62
    7
 10
137.04112377850163
 20
168.30468524512432
 11
137.04112377850163
 21
188.43126752360538
  0
LINE
  8
_0-1_作画層１
  6
CONTINUOUS
 62
    7
 10
136.54112377850163
 20
168.27303967550407
 11
136.54112377850163
 21
188.46291309322564
  0
LINE
  8
_0-1_作画層１
  6
CONTINUOUS
 62
    7
 10
136.04112377850163
 20
168.24139410588381
 11
136.04112377850163
 21
188.49455866284589
  0
LINE
  8
_0-1_作画層１
  6
CONTINUOUS
 62
    7
 10
135.54112377850163
 20
168.20974853626356
 11
135.54112377850163
 21
188.52620423246614
  0
LINE
  8
_0-1_作画層１
  6
CONTINUOUS
 62
    7
 10
135.04112377850163
 20
168.17810296664331
 11
135.04112377850163
 21
188.55784980208639
  0
LINE
  8
_0-1_作画層１
  6
CONTINUOUS
 62
    7
 10
134.54112377850163
 20
168.14645739702306
 11
134.54112377850163
 21
188.58949537170665
  0
LINE
  8
_0-1_作画層１
  6
CONTINUOUS
 62
    7
 10
134.04112377850163
 20
168.1148118274028
 11
134.04112377850163
 21
188.6211409413269
  0
LINE
  8
_0-1_作画層１
  6
CONTINUOUS
 62
    7
 10
133.54112377850163
 20
168.08316625778255
 11
133.54112377850163
 21
188.65278651094715
  0
LINE
  8
_0-1_作画層１
  6
CONTINUOUS
 62
    7
 10
133.04112377850163
 20
168.0515206881623
 11
133.04112377850163
 21
188.6844320805674
  0
LINE
  8
_0-1_作画層１
  6
CONTINUOUS
 62
    7
 10
132.54112377850163
 20
168.01987511854205
 11
132.54112377850163
 21
188.71607765018766
  0
LINE
  8
_0-1_作画層１
  6
CONTINUOUS
 62
    7
 10
132.04112377850163
 20
167.98822954892179
 11
132.04112377850163
 21
188.74772321980791
  0
LINE
  8
_0-1_作画層１
  6
CONTINUOUS
 62
    7
 10
131.54112377850163
 20
167.95658397930154
 11
131.54112377850163
 21
188.77936878942816
  0
LINE
  8
_0-1_作画層１
  6
CONTINUOUS
 62
    7
 10
131.04112377850163
 20
167.92493840968129
 11
131.04112377850163
 21
188.81101435904841
  0
LINE
  8
_0-1_作画層１
  6
CONTINUOUS
 62
    7
 10
130.54112377850163
 20
167.89329284006104
 11
130.54112377850163
 21
188.84265992866867
  0
LINE
  8
_0-1_作画層１
  6
CONTINUOUS
 62
    7
 10
130.04112377850163
 20
167.86164727044078
 11
130.04112377850163
 21
188.87430549828892
  0
LINE
  8
_0-1_作画層１
  6
CONTINUOUS
 62
    7
 10
129.54112377850163
 20
167.83000170082053
 11
129.54112377850163
 21
188.90595106790917
  0
LINE
  8
_0-1_作画層１
  6
CONTINUOUS
 62
    7
 10
129.04112377850163
 20
167.79835613120028
 11
129.04112377850163
 21
188.93759663752942
  0
LINE
  8
_0-1_作画層１
  6
CONTINUOUS
 62
    7
 10
128.54112377850163
 20
167.76671056158003
 11
128.54112377850163
 21
188.96924220714968
  0
LINE
  8
_0-1_作画層１
  6
CONTINUOUS
 62
    7
 10
128.04112377850163
 20
167.73506499195977
 11
128.04112377850163
 21
189.00088777676993
  0
LINE
  8
_0-1_作画層１
  6
CONTINUOUS
 62
    7
 10
127.54112377850163
 20
167.70341942233952
 11
127.54112377850163
 21
189.03253334639018
  0
LINE
  8
_0-1_作画層１
  6
CONTINUOUS
 62
    7
 10
127.04112377850163
 20
167.67177385271927
 11
127.04112377850163
 21
189.06417891601043
  0
LINE
  8
_0-1_作画層１
  6
CONTINUOUS
 62
    7
 10
126.54112377850163
 20
167.64012828309902
 11
126.54112377850163
 21
189.09582448563069
  0
LINE
  8
_0-1_作画層１
  6
CONTINUOUS
 62
    7
 10
126.04112377850163
 20
167.60848271347876
 11
126.04112377850163
 21
189.12747005525094
  0
LINE
  8
_0-1_作画層１
  6
CONTINUOUS
 62
    7
 10
125.54112377850163
 20
167.57683714385851
 11
125.54112377850163
 21
189.15911562487119
  0
LINE
  8
_0-1_作画層１
  6
CONTINUOUS
 62
    7
 10
125.04112377850163
 20
167.54519157423826
 11
125.04112377850163
 21
189.19076119449144
  0
LINE
  8
_0-1_作画層１
  6
CONTINUOUS
 62
    7
 10
124.54112377850163
 20
167.51354600461801
 11
124.54112377850163
 21
189.2224067641117
  0
LINE
  8
_0-1_作画層１
  6
CONTINUOUS
 62
    7
 10
124.04112377850163
 20
167.48190043499775
 11
124.04112377850163
 21
189.25405233373195
  0
LINE
  8
_0-1_作画層１
  6
CONTINUOUS
 62
    7
 10
150.041137606776
 20
168.36797638436485
 11
138.04112377850163
 21
168.36797638436485
  0
LINE
  8
_0-1_作画層１
  6
CONTINUOUS
 62
    7
 10
150.04114237514582
 20
188.36797638436485
 11
138.04112377850163
 21
188.36797638436485
  0
LINE
  8
_0-1_作画層１
  6
CONTINUOUS
 62
    7
 10
122.54112377850163
 20
187.36797638436485
 11
122.54112377850163
 21
189.34898904259271
  0
LINE
  8
_0-1_作画層１
  6
CONTINUOUS
 62
    7
 10
123.04112377850163
 20
187.36797638436485
 11
123.04112377850163
 21
189.31734347297245
  0
LINE
  8
_0-1_作画層１
  6
CONTINUOUS
 62
    7
 10
123.54112377850163
 20
187.36797638436485
 11
123.54112377850163
 21
189.2856979033522
  0
LINE
  8
_0-1_作画層１
  6
CONTINUOUS
 62
    7
 10
122.54112377850163
 20
169.36797638436485
 11
122.54112377850163
 21
167.386963726137
  0
LINE
  8
_0-1_作画層１
  6
CONTINUOUS
 62
    7
 10
123.04112377850163
 20
169.36797638436485
 11
123.04112377850163
 21
167.41860929575725
  0
LINE
  8
_0-1_作画層１
  6
CONTINUOUS
 62
    7
 10
123.54112377850163
 20
169.36797638436485
 11
123.54112377850163
 21
167.4502548653775
  0
LINE
  8
_0-1_作画層１
  6
CONTINUOUS
 62
    7
 10
117.04113194433776
 20
160.11798019906212
 11
152.04113194433779
 21
160.11798019906212
  0
LINE
  8
_0-1_作画層１
  6
CONTINUOUS
 62
    7
 10
150.04113563982438
 20
160.11798024177551
 11
150.04114803758679
 21
212.11798405647278
  0
LINE
  8
_0-1_作画層１
  6
CONTINUOUS
 62
    7
 10
127.04113194433779
 20
144.61798024177551
 11
127.04114803758679
 21
212.11798405647278
  0
LINE
  8
_0-1_作画層１
  6
CONTINUOUS
 62
    7
 10
130.04113194433776
 20
144.61798024177551
 11
130.04113325563947
 21
150.11798024177551
  0
LINE
  8
_0-1_作画層１
  6
CONTINUOUS
 62
    7
 10
130.04113325563947
 20
150.11798019906212
 11
152.04113194433779
 21
150.11798019906212
  0
INSERT
  2
-002-_D2
  8
_0-9_寸法線層１
 10
-55.25
 20
-38.75
 41
1
 42
1
 50
0
  0
INSERT
  2
-003-_D3
  8
_0-9_寸法線層１
 10
-55.25
 20
-38.75
 41
1
 42
1
 50
0
  0
INSERT
  2
-004-_D4
  8
_0-9_寸法線層１
 10
-55.25
 20
-38.75
 41
1
 42
1
 50
0
  0
INSERT
  2
-005-_D5
  8
_0-9_寸法線層１
 10
-55.25
 20
-38.75
 41
1
 42
1
 50
0
  0
INSERT
  2
-006-_D6
  8
_0-9_寸法線層１
 10
-55.25
 20
-38.75
 41
1
 42
1
 50
0
  0
INSERT
  2
-007-_D7
  8
_0-9_寸法線層１
 10
-55.25
 20
-38.75
 41
1
 42
1
 50
0
  0
LINE
  8
_0-1_作画層１
  6
CONTINUOUS
 62
    7
 10
88.041139901551162
 20
209.99297638436485
 11
86.416139543923435
 21
209.99297638436485
  0
ARC
  8
_0-1_作画層１
  6
CONTINUOUS
 62
    7
 10
86.416139543923492
 20
208.49297638436485
 40
1.5
 50
90.000000000002174
 51
179.9999863396271
  0
LINE
  8
_0-1_作画層１
  6
CONTINUOUS
 62
    7
 10
84.916139543923492
 20
208.49297674199258
 11
84.916139484318876
 21
208.24297678470597
  0
LINE
  8
_0-1_作画層１
  6
CONTINUOUS
 62
    7
 10
88.041139126691064
 20
206.74297638436485
 11
86.416139484318848
 21
206.74297638436485
  0
ARC
  8
_0-1_作画層１
  6
CONTINUOUS
 62
    7
 10
86.416139557235169
 20
208.2429764572812
 40
1.5000000729163292
 50
179.99998749329561
 51
269.99999721480179
  0
LINE
  8
_0-1_作画層１
  6
CONTINUOUS
 62
    7
 10
88.041137129943479
 20
198.36800694465637
 11
88.041140944639324
 21
214.36800690194298
  0
ARC
  8
_0-1_作画層１
  6
CONTINUOUS
 62
    7
 10
88.416139543923492
 20
148.24297638436485
 40
1.5
 50
180.00001366037287
 51
269.99999999999784
  0
LINE
  8
_0-1_作画層１
  6
CONTINUOUS
 62
    7
 10
86.916139543923492
 20
148.24297602673713
 11
86.916139484318876
 21
148.49297598402373
  0
ARC
  8
_0-1_作画層１
  6
CONTINUOUS
 62
    7
 10
88.416139557235169
 20
148.4929763114485
 40
1.5000000729163292
 50
90.000002785198191
 51
180.00001250670445
  0
LINE
  8
_0-1_作画層１
  6
CONTINUOUS
 62
    7
 10
89.416136086855317
 20
193.99297642707825
 11
89.416128487265922
 21
162.11797642707825
  0
LINE
  8
_0-1_作画層１
  6
CONTINUOUS
 62
    7
 10
90.541128487265894
 20
162.11797638436485
 11
89.416128487265922
 21
162.11797638436485
  0
LINE
  8
_0-1_作画層１
  6
CONTINUOUS
 62
    7
 10
90.541136086855289
 20
193.99297638436485
 11
89.416136086855317
 21
193.99297638436485
  0
LINE
  8
_0-1_作画層１
  6
CONTINUOUS
 62
    7
 10
88.041137129943479
 20
198.36800690194298
 11
88.541136653106463
 21
198.36800690194298
  0
LINE
  8
_0-1_作画層１
  6
CONTINUOUS
 62
    7
 10
90.541123778501628
 20
142.36798024177551
 11
90.541136653106378
 21
196.36800642510599
  0
ARC
  8
_0-1_作画層１
  6
CONTINUOUS
 62
    7
 10
88.541136653106491
 20
196.36800690194306
 40
1.9999999999999147
 50
359.99998633962417
 51
90.000000000000838
  0
ARC
  8
_0-1_作画層１
  6
CONTINUOUS
 62
    7
 10
151.21531264280119
 20
148.49063367399299
 40
0.9074999999999704
 50
90
 51
180
  0
LINE
  8
_0-1_作画層１
  6
CONTINUOUS
 62
    7
 10
150.3078126428012
 20
148.49063367399299
 11
150.3078126428012
 21
146.52438367399299
  0
ARC
  8
_0-1_作画層１
  6
CONTINUOUS
 62
    7
 10
151.21531264280122
 20
146.52438367399299
 40
0.9075000000000269
 50
180
 51
269.99999999999829
  0
LINE
  8
_0-1_作画層１
  6
CONTINUOUS
 62
    7
 10
151.21531264280119
 20
149.39813367399296
 11
151.5178126428012
 21
149.39813367399296
  0
ARC
  8
_0-1_作画層１
  6
CONTINUOUS
 62
    7
 10
151.51781264280132
 20
149.09563367399306
 40
0.3024999999998954
 50
359.99999999997846
 51
90.000000000021558
  0
LINE
  8
_0-1_作画層１
  6
CONTINUOUS
 62
    7
 10
151.82031264280121
 20
149.09563367399295
 11
151.82031264280121
 21
145.91938367399297
  0
LINE
  8
_0-1_作画層１
  6
CONTINUOUS
 62
    7
 10
151.21531264280119
 20
145.61688367399296
 11
151.5178126428012
 21
145.61688367399296
  0
ARC
  8
_0-1_作画層１
  6
CONTINUOUS
 62
    7
 10
151.51781264280115
 20
145.91938367399302
 40
0.3025000000000658
 50
270.0000000000108
 51
359.9999999999892
  0
ARC
  8
_0-1_作画層１
  6
CONTINUOUS
 62
    7
 10
152.14677064280247
 20
148.75947430310617
 40
0.3025000000012553
 50
153.41295146822679
 51
179.99999999995694
  0
LINE
  8
_0-1_作画層１
  6
CONTINUOUS
 62
    7
 10
151.84427064280121
 20
148.7594743031064
 11
151.84427064280121
 21
146.44460554487961
  0
ARC
  8
_0-1_作画層１
  6
CONTINUOUS
 62
    7
 10
152.14677064280221
 20
146.44460554487978
 40
0.302500000001001
 50
180.00000000003229
 51
206.58704853178523
  0
LINE
  8
_0-1_作画層１
  6
CONTINUOUS
 62
    7
 10
88.041133255635714
 20
182.11797638436485
 11
93.041133255635714
 21
182.11797638436485
  0
LINE
  8
_0-1_作画層１
  6
CONTINUOUS
 62
    7
 10
88.041131467497053
 20
174.61797638436485
 11
93.041133255635714
 21
174.61797638436485
  0
LINE
  8
_0-1_作画層１
  6
CONTINUOUS
 62
    7
 10
88.041133255635714
 20
183.11797638436485
 11
93.041133255635714
 21
183.11797638436485
  0
LINE
  8
_0-1_作画層１
  6
CONTINUOUS
 62
    7
 10
88.041131467497053
 20
173.61797638436485
 11
93.041133255635714
 21
173.61797638436485
  0
LINE
  8
_0-1_作画層１
  6
CONTINUOUS
 62
    7
 10
88.041131467497053
 20
174.61797642707825
 11
88.041131229078559
 21
173.61797642707825
  0
LINE
  8
_0-1_作画層１
  6
CONTINUOUS
 62
    7
 10
88.041133255635742
 20
182.11797642707825
 11
88.041133494054236
 21
183.11797642707825
  0
LINE
  8
_0-1_作画層１
  6
CONTINUOUS
 62
    7
 10
93.041131229078559
 20
173.61797642707825
 11
93.041123778501628
 21
142.36798019906212
  0
LINE
  8
_0-1_作画層１
  6
CONTINUOUS
 62
    7
 10
93.041133255635714
 20
182.11797642707825
 11
93.041131467497053
 21
174.61797642707825
  0
LINE
  8
_0-1_作画層１
  6
CONTINUOUS
 62
    7
 10
93.041133494054208
 20
183.11797642707825
 11
93.041140944639324
 21
214.36800690194298
  0
LINE
  8
_0-1_作画層１
  6
CONTINUOUS
 62
    7
 10
85.416136086855317
 20
193.99297642707825
 11
85.416128487265922
 21
162.11797642707825
  0
LINE
  8
_0-1_作画層１
  6
CONTINUOUS
 62
    7
 10
85.416136086855317
 20
193.99297638436485
 11
84.791136086855289
 21
193.99297638436485
  0
LINE
  8
_0-1_作画層１
  6
CONTINUOUS
 62
    7
 10
84.791136086855317
 20
193.99297642707825
 11
84.791128487265922
 21
162.11797642707825
  0
LINE
  8
_0-1_作画層１
  6
CONTINUOUS
 62
    7
 10
85.416128487265922
 20
162.11797638436485
 11
84.791128487265894
 21
162.11797638436485
  0
LINE
  8
_0-1_作画層１
  6
CONTINUOUS
 62
    7
 10
85.416128785289033
 20
163.36797638436485
 11
89.416128785289033
 21
163.36797638436485
  0
LINE
  8
_0-1_作画層１
  6
CONTINUOUS
 62
    7
 10
85.416130871450832
 20
172.11797638436485
 11
89.416135788832207
 21
172.11797638436485
  0
LINE
  8
_0-1_作画層１
  6
CONTINUOUS
 62
    7
 10
85.416129232323698
 20
165.24297638436485
 11
89.416135788832207
 21
165.24297638436485
  0
LINE
  8
_0-1_作画層１
  6
CONTINUOUS
 62
    7
 10
85.416135788832207
 20
192.74297638436485
 11
89.416135788832207
 21
192.74297638436485
  0
LINE
  8
_0-1_作画層１
  6
CONTINUOUS
 62
    7
 10
85.416134149705073
 20
185.86797638436485
 11
89.416135788832207
 21
185.86797638436485
  0
LINE
  8
_0-1_作画層１
  6
CONTINUOUS
 62
    7
 10
85.416132510577967
 20
178.99297638436485
 11
89.416135788832207
 21
178.99297638436485
  0
LINE
  8
_0-1_作画層１
  6
CONTINUOUS
 62
    7
 10
90.541124821581604
 20
146.74297638436485
 11
88.416139543923435
 21
146.74297638436485
  0
LINE
  8
_0-1_作画層１
  6
CONTINUOUS
 62
    7
 10
90.541125596441702
 20
149.99297638436485
 11
88.416139484318848
 21
149.99297638436485
  0
LINE
  8
_0-1_作画層１
  6
CONTINUOUS
 62
    7
 10
88.041126401104123
 20
198.36797638436485
 11
82.541123778501628
 21
198.36797638436485
  0
ARC
  8
_0-1_作画層１
  6
CONTINUOUS
 62
    7
 10
82.541123778501657
 20
199.36797638436488
 40
1.0000000000000284
 50
180.00000000000162
 51
269.99999999999835
  0
LINE
  8
_0-1_作画層１
  6
CONTINUOUS
 62
    7
 10
88.041125209011653
 20
203.36797638436488
 11
85.041123778501628
 21
203.36797638436488
  0
ARC
  8
_0-1_作画層１
  6
CONTINUOUS
 62
    7
 10
85.041123778501657
 20
204.36797638436494
 40
1.0000000000000284
 50
180.0000000000033
 51
269.99999999999835
  0
LINE
  8
_0-1_作画層１
  6
CONTINUOUS
 62
    7
 10
81.541123778501628
 20
199.36797638436485
 11
81.541123778501628
 21
204.86797638436488
  0
ARC
  8
_0-1_作画層１
  6
CONTINUOUS
 62
    7
 10
82.541123778501657
 20
204.86797638436482
 40
1.0000000000000284
 50
90.000000000001634
 51
179.99999999999676
  0
LINE
  8
_0-1_作画層１
  6
CONTINUOUS
 62
    7
 10
84.041123778501628
 20
204.36797638436488
 11
84.041123778501628
 21
204.86797638436488
  0
LINE
  8
_0-1_作画層１
  6
CONTINUOUS
 62
    7
 10
82.541123778501628
 20
205.86797638436488
 11
83.041123778501628
 21
205.86797638436488
  0
ARC
  8
_0-1_作画層１
  6
CONTINUOUS
 62
    7
 10
83.0411237785016
 20
204.86797638436482
 40
1.0000000000000284
 50
0.0000000000032569
 51
89.99999999999838
  0
LINE
  8
_0-1_作画層１
  6
CONTINUOUS
 62
    7
 10
152.04113194433776
 20
144.61798024177551
 11
152.04113563982438
 21
160.11798024177551
  0
LINE
  8
_0-1_作画層１
  6
CONTINUOUS
 62
    7
 10
99.041131407896188
 20
142.36798024177551
 11
99.041149050870843
 21
216.36800694465637
  0
LINE
  8
_0-1_作画層１
  6
CONTINUOUS
 62
    7
 10
99.041148037586822
 20
212.11798401375938
 11
150.04114803758679
 21
212.11798401375938
  0
LINE
  8
_0-1_作画層１
  6
CONTINUOUS
 62
    7
 10
99.041131944337792
 20
144.61798019906212
 11
152.04113194433779
 21
144.61798019906212
  0
LINE
  8
_0-1_作画層１
  6
CONTINUOUS
 62
    7
 10
117.04113194433776
 20
144.61798024177551
 11
117.04114803758679
 21
212.11798405647278
  0
LINE
  8
_0-1_作画層１
  6
CONTINUOUS
 62
    7
 10
-19.458872406801106
 20
123.36797638436485
 11
52.541154296079739
 21
123.36795888683457
  0
LINE
  8
_0-1_作画層１
  6
CONTINUOUS
 62
    7
 10
-17.208872406801106
 20
48.367961125575761
 11
50.291131407896145
 21
48.367945866786698
  0
LINE
  8
_0-1_作画層１
  6
CONTINUOUS
 62
    7
 10
-19.458872406801106
 20
109.36797638436485
 11
52.541154296079739
 21
109.36795921822716
  0
LINE
  8
_0-1_作画層１
  6
CONTINUOUS
 62
    7
 10
-19.458872406801106
 20
103.36796875497032
 11
-19.458872406801106
 21
123.36797638436485
  0
LINE
  8
_0-1_作画層１
  6
CONTINUOUS
 62
    7
 10
52.541154296079739
 20
103.36795158883263
 11
52.541154296079739
 21
123.36795888683457
  0
LINE
  8
_0-1_作画層１
  6
CENTER
 62
    7
 10
16.541123778501628
 20
44.867997365188273
 11
16.541123778501628
 21
126.86798973580625
  0
LINE
  8
_0-1_作画層１
  6
CONTINUOUS
 62
    7
 10
50.29113140789616
 20
75.367952125279686
 11
-17.208872406801106
 21
75.367968218528716
  0
LINE
  8
_0-1_作画層１
  6
CONTINUOUS
 62
    7
 10
24.341123778501611
 20
60.367951732944775
 11
24.341123778501611
 21
48.367951732944775
  0
LINE
  8
_0-1_作画層１
  6
CONTINUOUS
 62
    7
 10
24.341123778501611
 20
48.367951732944775
 11
24.341123778501611
 21
56.367951732944775
  0
LINE
  8
_0-1_作画層１
  6
CONTINUOUS
 62
    7
 10
34.341123778501611
 20
48.367951732944775
 11
31.341123778501611
 21
48.367951732944775
  0
LINE
  8
_0-1_作画層１
  6
CONTINUOUS
 62
    7
 10
41.341123778501611
 20
48.367951732944775
 11
42.691123778501606
 21
48.367951732944775
  0
LINE
  8
_0-1_作画層１
  6
CONTINUOUS
 62
    7
 10
32.841123778501611
 20
60.367951732944775
 11
32.841123778501611
 21
48.367951732944775
  0
LINE
  8
_0-1_作画層１
  6
CONTINUOUS
 62
    7
 10
32.841123778501611
 20
48.367951732944775
 11
32.841123778501611
 21
56.367951732944775
  0
LINE
  8
_0-1_作画層１
  6
CONTINUOUS
 62
    7
 10
35.491123778501617
 20
60.367951732944775
 11
35.491123778501617
 21
48.367951732944775
  0
LINE
  8
_0-1_作画層１
  6
CONTINUOUS
 62
    7
 10
35.491123778501617
 20
48.367951732944775
 11
35.491123778501617
 21
56.367951732944775
  0
ARC
  8
_0-1_作画層１
  6
CONTINUOUS
 62
    7
 10
38.216123778501625
 20
54.38994921241904
 40
1.5000000000000142
 50
180.00000000000105
 51
269.99999999999943
  0
LINE
  8
_0-1_作画層１
  6
CONTINUOUS
 62
    7
 10
38.216123778501611
 20
52.889949212419012
 11
41.466123778501611
 21
52.889949212419012
  0
ARC
  8
_0-1_作画層１
  6
CONTINUOUS
 62
    7
 10
41.466123778501597
 20
54.38994921241904
 40
1.5000000000000284
 50
270.00000000000051
 51
359.99999999999892
  0
LINE
  8
_0-1_作画層１
  6
CONTINUOUS
 62
    7
 10
36.716123778501611
 20
54.389949212419012
 11
36.716123778501611
 21
54.889949212419012
  0
ARC
  8
_0-1_作画層１
  6
CONTINUOUS
 62
    7
 10
37.216123778501597
 20
54.889949212419026
 40
0.4999999999999856
 50
89.99999999999838
 51
180.00000000000162
  0
LINE
  8
_0-1_作画層１
  6
CONTINUOUS
 62
    7
 10
37.216123778501611
 20
55.389949212419012
 11
42.466123778501611
 21
55.389949212419012
  0
LINE
  8
_0-1_作画層１
  6
CONTINUOUS
 62
    7
 10
42.966123778501611
 20
54.389949212419012
 11
42.966123778501611
 21
54.889949212419012
  0
ARC
  8
_0-1_作画層１
  6
CONTINUOUS
 62
    7
 10
42.466123778501625
 20
54.889949212419026
 40
0.4999999999999856
 50
359.99999999999835
 51
90.000000000001663
  0
ARC
  8
_0-1_作画層１
  6
CONTINUOUS
 62
    7
 10
36.910488454722085
 20
55.242349212418887
 40
0.5000000000001421
 50
63.412951468164792
 51
89.999999999995111
  0
ARC
  8
_0-1_作画層１
  6
CONTINUOUS
 62
    7
 10
37.259911057735152
 20
55.867949212420228
 40
0.499999999998792
 50
71.5485515769697
 51
90.00000000001792
  0
LINE
  8
_0-1_作画層１
  6
CONTINUOUS
 62
    7
 10
37.418161531463284
 20
56.342245309350844
 11
38.201586025539967
 21
56.080853115487187
  0
ARC
  8
_0-1_作画層１
  6
CONTINUOUS
 62
    7
 10
38.359836499268312
 20
56.555149212419408
 40
0.5000000000003842
 50
251.54855157700476
 51
269.99999999999511
  0
LINE
  8
_0-1_作画層１
  6
CONTINUOUS
 62
    7
 10
37.134266933034539
 20
55.689476926438388
 11
37.547980623968684
 21
55.48242149839966
  0
ARC
  8
_0-1_作画層１
  6
CONTINUOUS
 62
    7
 10
37.771759102281138
 20
55.929549212419161
 40
0.5000000000001423
 50
243.41295146816481
 51
269.99999999999511
  0
LINE
  8
_0-1_作画層１
  6
CONTINUOUS
 62
    7
 10
38.359836499268269
 20
56.055149212419025
 11
41.322411057734996
 21
56.055149212419025
  0
ARC
  8
_0-1_作画層１
  6
CONTINUOUS
 62
    7
 10
41.322411057734939
 20
56.555149212419423
 40
0.5000000000003979
 50
270.00000000000648
 51
288.4514484229947
  0
LINE
  8
_0-1_作画層１
  6
CONTINUOUS
 62
    7
 10
41.480661531463284
 20
56.080853115487187
 11
42.264086025539967
 21
56.342245309350858
  0
ARC
  8
_0-1_作画層１
  6
CONTINUOUS
 62
    7
 10
42.422336499268141
 20
55.867949212419688
 40
0.4999999999993328
 50
89.999999999986969
 51
108.45144842301484
  0
ARC
  8
_0-1_作画層１
  6
CONTINUOUS
 62
    7
 10
42.459259102281138
 20
55.242349212418887
 40
0.5000000000001421
 50
90.000000000004903
 51
116.58704853183521
  0
LINE
  8
_0-1_作画層１
  6
CONTINUOUS
 62
    7
 10
42.235480623968684
 20
55.689476926438388
 11
41.821766933034525
 21
55.48242149839966
  0
LINE
  8
_0-1_作画層１
  6
CONTINUOUS
 62
    7
 10
37.771759102281095
 20
55.429549212419019
 11
41.597988454722113
 21
55.429549212419019
  0
ARC
  8
_0-1_作画層１
  6
CONTINUOUS
 62
    7
 10
41.597988454722099
 20
55.929549212419047
 40
0.5000000000000276
 50
270.00000000000159
 51
296.58704853183809
  0
LINE
  8
_0-1_作画層１
  6
CONTINUOUS
 62
    7
 10
43.991123778501617
 20
60.36794921241902
 11
43.991123778501617
 21
48.36794921241902
  0
LINE
  8
_0-1_作画層１
  6
CONTINUOUS
 62
    7
 10
43.991123778501617
 20
56.36794921241902
 11
36.716123778501611
 21
56.36794921241902
  0
LINE
  8
_0-1_作画層１
  6
CONTINUOUS
 62
    7
 10
43.991123778501617
 20
56.36794921241902
 11
42.422336499268255
 21
56.36794921241902
  0
LINE
  8
_0-1_作画層１
  6
CONTINUOUS
 62
    7
 10
43.991123778501617
 20
55.742349212419029
 11
42.459259102281095
 21
55.742349212419029
  0
LINE
  8
_0-1_作画層１
  6
CONTINUOUS
 62
    7
 10
35.491123778501617
 20
55.742349212419029
 11
36.910488454722127
 21
55.742349212419029
  0
LINE
  8
_0-1_作画層１
  6
CONTINUOUS
 62
    7
 10
35.491123778501617
 20
56.36794921241902
 11
37.259911057734996
 21
56.36794921241902
  0
ARC
  8
_0-1_作画層１
  6
CONTINUOUS
 62
    7
 10
27.06612377850162
 20
54.389951732944795
 40
1.5000000000000142
 50
180.00000000000105
 51
269.99999999999943
  0
LINE
  8
_0-1_作画層１
  6
CONTINUOUS
 62
    7
 10
27.066123778501606
 20
52.889951732944766
 11
30.316123778501606
 21
52.889951732944766
  0
ARC
  8
_0-1_作画層１
  6
CONTINUOUS
 62
    7
 10
30.316123778501591
 20
54.389951732944795
 40
1.5000000000000284
 50
270.00000000000051
 51
359.99999999999892
  0
LINE
  8
_0-1_作画層１
  6
CONTINUOUS
 62
    7
 10
25.566123778501606
 20
54.389951732944766
 11
25.566123778501606
 21
54.889951732944766
  0
ARC
  8
_0-1_作画層１
  6
CONTINUOUS
 62
    7
 10
26.066123778501591
 20
54.88995173294478
 40
0.4999999999999856
 50
89.99999999999838
 51
180.00000000000162
  0
LINE
  8
_0-1_作画層１
  6
CONTINUOUS
 62
    7
 10
26.066123778501606
 20
55.389951732944766
 11
31.316123778501606
 21
55.389951732944766
  0
LINE
  8
_0-1_作画層１
  6
CONTINUOUS
 62
    7
 10
31.816123778501606
 20
54.389951732944766
 11
31.816123778501606
 21
54.889951732944766
  0
ARC
  8
_0-1_作画層１
  6
CONTINUOUS
 62
    7
 10
31.31612377850162
 20
54.88995173294478
 40
0.4999999999999856
 50
359.99999999999835
 51
90.000000000001663
  0
ARC
  8
_0-1_作画層１
  6
CONTINUOUS
 62
    7
 10
25.760488454722079
 20
55.242351732944641
 40
0.5000000000001421
 50
63.412951468164792
 51
89.999999999995111
  0
ARC
  8
_0-1_作画層１
  6
CONTINUOUS
 62
    7
 10
26.109911057735147
 20
55.867951732945983
 40
0.499999999998792
 50
71.5485515769697
 51
90.00000000001792
  0
LINE
  8
_0-1_作画層１
  6
CONTINUOUS
 62
    7
 10
26.268161531463278
 20
56.342247829876598
 11
27.051586025539962
 21
56.080855636012942
  0
ARC
  8
_0-1_作画層１
  6
CONTINUOUS
 62
    7
 10
27.209836499268306
 20
56.555151732945163
 40
0.5000000000003842
 50
251.54855157700476
 51
269.99999999999511
  0
LINE
  8
_0-1_作画層１
  6
CONTINUOUS
 62
    7
 10
25.984266933034533
 20
55.689479446964143
 11
26.397980623968678
 21
55.482424018925414
  0
ARC
  8
_0-1_作画層１
  6
CONTINUOUS
 62
    7
 10
26.621759102281132
 20
55.929551732944915
 40
0.5000000000001423
 50
243.41295146816481
 51
269.99999999999511
  0
LINE
  8
_0-1_作画層１
  6
CONTINUOUS
 62
    7
 10
27.209836499268263
 20
56.055151732944779
 11
30.17241105773499
 21
56.055151732944779
  0
ARC
  8
_0-1_作画層１
  6
CONTINUOUS
 62
    7
 10
30.172411057734934
 20
56.555151732945177
 40
0.5000000000003979
 50
270.00000000000648
 51
288.4514484229947
  0
LINE
  8
_0-1_作画層１
  6
CONTINUOUS
 62
    7
 10
30.330661531463278
 20
56.080855636012942
 11
31.114086025539962
 21
56.342247829876612
  0
ARC
  8
_0-1_作画層１
  6
CONTINUOUS
 62
    7
 10
31.272336499268135
 20
55.867951732945443
 40
0.4999999999993328
 50
89.999999999986969
 51
108.45144842301484
  0
ARC
  8
_0-1_作画層１
  6
CONTINUOUS
 62
    7
 10
31.309259102281132
 20
55.242351732944641
 40
0.5000000000001421
 50
90.000000000004903
 51
116.58704853183521
  0
LINE
  8
_0-1_作画層１
  6
CONTINUOUS
 62
    7
 10
31.085480623968678
 20
55.689479446964143
 11
30.671766933034519
 21
55.482424018925414
  0
LINE
  8
_0-1_作画層１
  6
CONTINUOUS
 62
    7
 10
26.621759102281089
 20
55.429551732944773
 11
30.447988454722108
 21
55.429551732944773
  0
ARC
  8
_0-1_作画層１
  6
CONTINUOUS
 62
    7
 10
30.447988454722093
 20
55.929551732944802
 40
0.5000000000000276
 50
270.00000000000159
 51
296.58704853183809
  0
LINE
  8
_0-1_作画層１
  6
CONTINUOUS
 62
    7
 10
32.841123778501611
 20
56.367951732944775
 11
25.566123778501606
 21
56.367951732944775
  0
LINE
  8
_0-1_作画層１
  6
CONTINUOUS
 62
    7
 10
32.841123778501611
 20
56.367951732944775
 11
31.272336499268249
 21
56.367951732944775
  0
LINE
  8
_0-1_作画層１
  6
CONTINUOUS
 62
    7
 10
32.841123778501611
 20
55.742351732944783
 11
31.309259102281089
 21
55.742351732944783
  0
LINE
  8
_0-1_作画層１
  6
CONTINUOUS
 62
    7
 10
24.341123778501611
 20
55.742351732944783
 11
25.760488454722122
 21
55.742351732944783
  0
LINE
  8
_0-1_作画層１
  6
CONTINUOUS
 62
    7
 10
24.341123778501611
 20
56.367951732944775
 11
26.10991105773499
 21
56.367951732944775
  0
LINE
  8
_0-1_作画層１
  6
CONTINUOUS
 62
    7
 10
8.7411237785016169
 20
60.367951732944775
 11
8.7411237785016169
 21
48.367951732944775
  0
LINE
  8
_0-1_作画層１
  6
CONTINUOUS
 62
    7
 10
8.7411237785016169
 20
48.367951732944775
 11
8.7411237785016169
 21
56.367951732944775
  0
LINE
  8
_0-1_作画層１
  6
CONTINUOUS
 62
    7
 10
0.2411237785016169
 20
60.367951732944775
 11
0.2411237785016169
 21
48.367951732944775
  0
LINE
  8
_0-1_作画層１
  6
CONTINUOUS
 62
    7
 10
0.2411237785016169
 20
48.367951732944775
 11
0.2411237785016169
 21
56.367951732944775
  0
LINE
  8
_0-1_作画層１
  6
CONTINUOUS
 62
    7
 10
-2.4088762214984172
 20
60.367951732944775
 11
-2.4088762214984172
 21
48.367951732944775
  0
LINE
  8
_0-1_作画層１
  6
CONTINUOUS
 62
    7
 10
-2.4088762214984172
 20
48.367951732944775
 11
-2.4088762214984172
 21
56.367951732944775
  0
ARC
  8
_0-1_作画層１
  6
CONTINUOUS
 62
    7
 10
-5.1338762214984115
 20
54.38994921241904
 40
1.5000000000000213
 50
270.0000000000008
 51
359.99999999999892
  0
LINE
  8
_0-1_作画層１
  6
CONTINUOUS
 62
    7
 10
-5.1338762214983831
 20
52.889949212419012
 11
-8.3838762214983831
 21
52.889949212419012
  0
ARC
  8
_0-1_作画層１
  6
CONTINUOUS
 62
    7
 10
-8.3838762214983831
 20
54.38994921241904
 40
1.5000000000000284
 50
180.00000000000105
 51
269.9999999999992
  0
LINE
  8
_0-1_作画層１
  6
CONTINUOUS
 62
    7
 10
-3.6338762214983831
 20
54.389949212419012
 11
-3.6338762214983831
 21
54.889949212419012
  0
ARC
  8
_0-1_作画層１
  6
CONTINUOUS
 62
    7
 10
-4.1338762214983831
 20
54.889949212419026
 40
0.4999999999999926
 50
359.99999999999835
 51
90.00000000000081
  0
LINE
  8
_0-1_作画層１
  6
CONTINUOUS
 62
    7
 10
-4.1338762214983831
 20
55.389949212419012
 11
-9.3838762214983831
 21
55.389949212419012
  0
LINE
  8
_0-1_作画層１
  6
CONTINUOUS
 62
    7
 10
-9.8838762214983831
 20
54.389949212419012
 11
-9.8838762214983831
 21
54.889949212419012
  0
ARC
  8
_0-1_作画層１
  6
CONTINUOUS
 62
    7
 10
-9.3838762214984115
 20
54.889949212419026
 40
0.4999999999999856
 50
89.99999999999919
 51
180.00000000000162
  0
ARC
  8
_0-1_作画層１
  6
CONTINUOUS
 62
    7
 10
-3.8282408977188709
 20
55.242349212418887
 40
0.5000000000001421
 50
90.000000000004903
 51
116.58704853183521
  0
ARC
  8
_0-1_作画層１
  6
CONTINUOUS
 62
    7
 10
-4.1776635007319385
 20
55.867949212420228
 40
0.499999999998792
 50
89.99999999998127
 51
108.45144842302953
  0
LINE
  8
_0-1_作画層１
  6
CONTINUOUS
 62
    7
 10
-4.3359139744600839
 20
56.342245309350844
 11
-5.1193384685367391
 21
56.080853115487187
  0
ARC
  8
_0-1_作画層１
  6
CONTINUOUS
 62
    7
 10
-5.2775889422650835
 20
56.555149212419408
 40
0.5000000000003842
 50
270.00000000000489
 51
288.45144842299521
  0
LINE
  8
_0-1_作画層１
  6
CONTINUOUS
 62
    7
 10
-4.0520193760313248
 20
55.689476926438388
 11
-4.4657330669654698
 21
55.48242149839966
  0
ARC
  8
_0-1_作画層１
  6
CONTINUOUS
 62
    7
 10
-4.6895115452779237
 20
55.929549212419161
 40
0.5000000000001423
 50
270.00000000000489
 51
296.58704853183519
  0
LINE
  8
_0-1_作画層１
  6
CONTINUOUS
 62
    7
 10
-5.277588942265055
 20
56.055149212419025
 11
-8.2401635007317964
 21
56.055149212419025
  0
ARC
  8
_0-1_作画層１
  6
CONTINUOUS
 62
    7
 10
-8.2401635007317395
 20
56.555149212419423
 40
0.5000000000003979
 50
251.5485515770053
 51
269.99999999999346
  0
LINE
  8
_0-1_作画層１
  6
CONTINUOUS
 62
    7
 10
-8.3984139744600839
 20
56.080853115487187
 11
-9.1818384685367391
 21
56.342245309350858
  0
ARC
  8
_0-1_作画層１
  6
CONTINUOUS
 62
    7
 10
-9.3400889422649129
 20
55.867949212419688
 40
0.4999999999993304
 50
71.548551576985943
 51
90.000000000013841
  0
ARC
  8
_0-1_作画層１
  6
CONTINUOUS
 62
    7
 10
-9.3770115452779237
 20
55.242349212418887
 40
0.5000000000001421
 50
63.412951468164792
 51
89.999999999995111
  0
LINE
  8
_0-1_作画層１
  6
CONTINUOUS
 62
    7
 10
-9.1532330669654698
 20
55.689476926438388
 11
-8.7395193760312964
 21
55.48242149839966
  0
LINE
  8
_0-1_作画層１
  6
CONTINUOUS
 62
    7
 10
-4.6895115452778668
 20
55.429549212419019
 11
-8.5157408977188993
 21
55.429549212419019
  0
ARC
  8
_0-1_作画層１
  6
CONTINUOUS
 62
    7
 10
-8.5157408977188993
 20
55.929549212419047
 40
0.5000000000000276
 50
243.41295146816185
 51
269.99999999999835
  0
LINE
  8
_0-1_作画層１
  6
CONTINUOUS
 62
    7
 10
-10.908876221498417
 20
56.36794921241902
 11
-3.6338762214983831
 21
56.36794921241902
  0
LINE
  8
_0-1_作画層１
  6
CONTINUOUS
 62
    7
 10
-10.908876221498417
 20
56.36794921241902
 11
-9.3400889422650266
 21
56.36794921241902
  0
LINE
  8
_0-1_作画層１
  6
CONTINUOUS
 62
    7
 10
-10.908876221498417
 20
55.742349212419029
 11
-9.3770115452778668
 21
55.742349212419029
  0
LINE
  8
_0-1_作画層１
  6
CONTINUOUS
 62
    7
 10
-2.4088762214984172
 20
55.742349212419029
 11
-3.8282408977188993
 21
55.742349212419029
  0
LINE
  8
_0-1_作画層１
  6
CONTINUOUS
 62
    7
 10
-2.4088762214984172
 20
56.36794921241902
 11
-4.1776635007317964
 21
56.36794921241902
  0
ARC
  8
_0-1_作画層１
  6
CONTINUOUS
 62
    7
 10
6.0161237785015942
 20
54.389951732944795
 40
1.5000000000000213
 50
270.0000000000008
 51
359.99999999999892
  0
LINE
  8
_0-1_作画層１
  6
CONTINUOUS
 62
    7
 10
6.0161237785015942
 20
52.889951732944766
 11
2.7661237785015942
 21
52.889951732944766
  0
ARC
  8
_0-1_作画層１
  6
CONTINUOUS
 62
    7
 10
2.7661237785016226
 20
54.389951732944795
 40
1.5000000000000284
 50
180.00000000000105
 51
269.9999999999992
  0
LINE
  8
_0-1_作画層１
  6
CONTINUOUS
 62
    7
 10
7.5161237785015942
 20
54.389951732944766
 11
7.5161237785015942
 21
54.889951732944766
  0
ARC
  8
_0-1_作画層１
  6
CONTINUOUS
 62
    7
 10
7.0161237785016226
 20
54.88995173294478
 40
0.4999999999999926
 50
359.99999999999835
 51
90.00000000000081
  0
LINE
  8
_0-1_作画層１
  6
CONTINUOUS
 62
    7
 10
7.0161237785015942
 20
55.389951732944766
 11
1.7661237785015942
 21
55.389951732944766
  0
LINE
  8
_0-1_作画層１
  6
CONTINUOUS
 62
    7
 10
1.2661237785015942
 20
54.389951732944766
 11
1.2661237785015942
 21
54.889951732944766
  0
ARC
  8
_0-1_作画層１
  6
CONTINUOUS
 62
    7
 10
1.7661237785015942
 20
54.88995173294478
 40
0.4999999999999856
 50
89.99999999999919
 51
180.00000000000162
  0
ARC
  8
_0-1_作画層１
  6
CONTINUOUS
 62
    7
 10
7.3217591022811348
 20
55.242351732944641
 40
0.5000000000001421
 50
90.000000000004903
 51
116.58704853183521
  0
ARC
  8
_0-1_作画層１
  6
CONTINUOUS
 62
    7
 10
6.9723364992680672
 20
55.867951732945983
 40
0.499999999998792
 50
89.99999999998127
 51
108.45144842302953
  0
LINE
  8
_0-1_作画層１
  6
CONTINUOUS
 62
    7
 10
6.8140860255399502
 20
56.342247829876598
 11
6.0306615314632381
 21
56.080855636012942
  0
ARC
  8
_0-1_作画層１
  6
CONTINUOUS
 62
    7
 10
5.8724110577348938
 20
56.555151732945163
 40
0.5000000000003842
 50
270.00000000000489
 51
288.45144842299521
  0
LINE
  8
_0-1_作画層１
  6
CONTINUOUS
 62
    7
 10
7.0979806239686809
 20
55.689479446964143
 11
6.6842669330345359
 21
55.482424018925414
  0
ARC
  8
_0-1_作画層１
  6
CONTINUOUS
 62
    7
 10
6.460488454722082
 20
55.929551732944915
 40
0.5000000000001423
 50
270.00000000000489
 51
296.58704853183519
  0
LINE
  8
_0-1_作画層１
  6
CONTINUOUS
 62
    7
 10
5.8724110577349506
 20
56.055151732944779
 11
2.9098364992682377
 21
56.055151732944779
  0
ARC
  8
_0-1_作画層１
  6
CONTINUOUS
 62
    7
 10
2.9098364992682946
 20
56.555151732945177
 40
0.5000000000003979
 50
251.5485515770053
 51
269.99999999999346
  0
LINE
  8
_0-1_作画層１
  6
CONTINUOUS
 62
    7
 10
2.7515860255399502
 20
56.080855636012942
 11
1.9681615314632381
 21
56.342247829876612
  0
ARC
  8
_0-1_作画層１
  6
CONTINUOUS
 62
    7
 10
1.8099110577350928
 20
55.867951732945443
 40
0.4999999999993304
 50
71.548551576985943
 51
90.000000000013841
  0
ARC
  8
_0-1_作画層１
  6
CONTINUOUS
 62
    7
 10
1.772988454722082
 20
55.242351732944641
 40
0.5000000000001421
 50
63.412951468164792
 51
89.999999999995111
  0
LINE
  8
_0-1_作画層１
  6
CONTINUOUS
 62
    7
 10
1.9967669330345359
 20
55.689479446964143
 11
2.4104806239686809
 21
55.482424018925414
  0
LINE
  8
_0-1_作画層１
  6
CONTINUOUS
 62
    7
 10
6.4604884547221104
 20
55.429551732944773
 11
2.6342591022811064
 21
55.429551732944773
  0
ARC
  8
_0-1_作画層１
  6
CONTINUOUS
 62
    7
 10
2.6342591022811348
 20
55.929551732944802
 40
0.5000000000000276
 50
243.41295146816185
 51
269.99999999999835
  0
LINE
  8
_0-1_作画層１
  6
CONTINUOUS
 62
    7
 10
0.2411237785016169
 20
56.367951732944775
 11
7.5161237785015942
 21
56.367951732944775
  0
LINE
  8
_0-1_作画層１
  6
CONTINUOUS
 62
    7
 10
0.2411237785016169
 20
56.367951732944775
 11
1.8099110577349506
 21
56.367951732944775
  0
LINE
  8
_0-1_作画層１
  6
CONTINUOUS
 62
    7
 10
0.2411237785016169
 20
55.742351732944783
 11
1.7729884547221104
 21
55.742351732944783
  0
LINE
  8
_0-1_作画層１
  6
CONTINUOUS
 62
    7
 10
8.7411237785016169
 20
55.742351732944783
 11
7.321759102281078
 21
55.742351732944783
  0
LINE
  8
_0-1_作画層１
  6
CONTINUOUS
 62
    7
 10
8.7411237785016169
 20
56.367951732944775
 11
6.9723364992682377
 21
56.367951732944775
  0
LINE
  8
_0-1_作画層１
  6
CONTINUOUS
 62
    7
 10
43.991123778501617
 20
60.367947290941984
 11
24.341123778501611
 21
60.367951732944775
  0
LINE
  8
_0-1_作画層１
  6
CONTINUOUS
 62
    7
 10
-10.908876221498389
 20
60.367947290941984
 11
8.7411237785016169
 21
60.367951732944775
  0
LINE
  8
_0-1_作画層１
  6
CONTINUOUS
 62
    7
 10
11.541123778501628
 20
109.36796899339257
 11
11.541123778501628
 21
123.3679688507097
  0
LINE
  8
_0-1_作画層１
  6
CONTINUOUS
 62
    7
 10
21.541123778501614
 20
109.36796660920766
 11
21.541123778501614
 21
123.36796642049805
  0
LINE
  8
_0-1_作画層１
  6
CONTINUOUS
 62
    7
 10
32.16612382121501
 20
110.49296407601116
 11
0.2911238212149669
 21
110.49297167560059
  0
LINE
  8
_0-1_作画層１
  6
CONTINUOUS
 62
    7
 10
0.2911237785015714
 20
109.36797167560061
 11
0.2911237785015714
 21
110.49297167560059
  0
LINE
  8
_0-1_作画層１
  6
CONTINUOUS
 62
    7
 10
32.166123778501614
 20
109.36796407601119
 11
32.166123778501614
 21
110.49296407601116
  0
LINE
  8
_0-1_作画層１
  6
CONTINUOUS
 62
    7
 10
32.16612382121501
 20
114.49296407601116
 11
0.2911238212149669
 21
114.49297167560059
  0
LINE
  8
_0-1_作画層１
  6
CONTINUOUS
 62
    7
 10
32.166123778501614
 20
114.49296407601116
 11
32.166123778501614
 21
115.11796407601119
  0
LINE
  8
_0-1_作画層１
  6
CONTINUOUS
 62
    7
 10
32.16612382121501
 20
115.11796407601116
 11
0.2911238212149669
 21
115.11797167560059
  0
LINE
  8
_0-1_作画層１
  6
CONTINUOUS
 62
    7
 10
0.2911237785015714
 20
114.49297167560059
 11
0.2911237785015714
 21
115.11797167560059
  0
LINE
  8
_0-1_作画層１
  6
CONTINUOUS
 62
    7
 10
1.5411237785015715
 20
114.49297137757745
 11
1.5411237785015715
 21
110.49297137757748
  0
LINE
  8
_0-1_作画層１
  6
CONTINUOUS
 62
    7
 10
10.291123778501571
 20
114.49296929141568
 11
10.291123778501571
 21
110.4929643740343
  0
LINE
  8
_0-1_作画層１
  6
CONTINUOUS
 62
    7
 10
3.4161237785015715
 20
114.49297093054278
 11
3.4161237785015715
 21
110.4929643740343
  0
LINE
  8
_0-1_作画層１
  6
CONTINUOUS
 62
    7
 10
30.916123778501614
 20
114.49296437403427
 11
30.916123778501614
 21
110.49296437403427
  0
LINE
  8
_0-1_作画層１
  6
CONTINUOUS
 62
    7
 10
24.041123778501614
 20
114.49296601316141
 11
24.041123778501614
 21
110.4929643740343
  0
LINE
  8
_0-1_作画層１
  6
CONTINUOUS
 62
    7
 10
17.166123778501571
 20
114.49296765228851
 11
17.166123778501571
 21
110.4929643740343
  0
ARC
  8
_0-1_作画層１
  6
CONTINUOUS
 62
    7
 10
43.9161237785016
 20
111.49296061894304
 40
1.5000000000000142
 50
90.000013660373455
 51
179.99999999999892
  0
LINE
  8
_0-1_作画層１
  6
CONTINUOUS
 62
    7
 10
43.916123420873859
 20
112.99296061894302
 11
44.166123378160464
 21
112.99296067854763
  0
ARC
  8
_0-1_作画層１
  6
CONTINUOUS
 62
    7
 10
44.16612370558525
 20
111.49296060563134
 40
1.5000000729163292
 50
0.0000027851981984
 51
90.00001250670492
  0
LINE
  8
_0-1_作画層１
  6
CONTINUOUS
 62
    7
 10
42.416123778501586
 20
109.3679753412849
 11
42.416123778501586
 21
111.49296061894307
  0
LINE
  8
_0-1_作画層１
  6
CONTINUOUS
 62
    7
 10
45.666123778501586
 20
109.36797456642481
 11
45.666123778501586
 21
111.49296067854766
  0
LINE
  8
_0-1_作画層１
  6
CONTINUOUS
 62
    7
 10
-8.4588762214983717
 20
109.36797376176236
 11
-8.4588762214983717
 21
114.86797638436485
  0
ARC
  8
_0-1_作画層１
  6
CONTINUOUS
 62
    7
 10
-9.4588762214983717
 20
114.86797638436485
 40
1
 50
0
 51
90.00000000000081
  0
LINE
  8
_0-1_作画層１
  6
CONTINUOUS
 62
    7
 10
-13.458876221498372
 20
109.36797495385483
 11
-13.458876221498372
 21
112.36797638436485
  0
ARC
  8
_0-1_作画層１
  6
CONTINUOUS
 62
    7
 10
-14.458876221498372
 20
112.36797638436485
 40
1
 50
0
 51
90.00000000000081
  0
LINE
  8
_0-1_作画層１
  6
CONTINUOUS
 62
    7
 10
-9.4588762214983717
 20
115.86797638436485
 11
-14.958876221498372
 21
115.86797638436485
  0
ARC
  8
_0-1_作画層１
  6
CONTINUOUS
 62
    7
 10
-14.9588762214984
 20
114.86797638436485
 40
1
 50
89.99999999999919
 51
180
  0
LINE
  8
_0-1_作画層１
  6
CONTINUOUS
 62
    7
 10
-14.458876221498372
 20
113.36797638436485
 11
-14.958876221498372
 21
113.36797638436485
  0
LINE
  8
_0-1_作画層１
  6
CONTINUOUS
 62
    7
 10
-15.958876221498372
 20
114.86797638436485
 11
-15.958876221498372
 21
114.36797638436485
  0
ARC
  8
_0-1_作画層１
  6
CONTINUOUS
 62
    7
 10
-14.9588762214984
 20
114.36797638436485
 40
1
 50
180
 51
270.0000000000008
  0
LINE
  8
_0-1_作画層１
  6
CONTINUOUS
 62
    7
 10
-5.9588762214983717
 20
109.36797376176236
 11
-5.9588762214983717
 21
114.86797638436485
  0
ARC
  8
_0-1_作画層１
  6
CONTINUOUS
 62
    7
 10
-6.9588762214983717
 20
114.86797638436485
 40
1
 50
0
 51
90.00000000000081
  0
LINE
  8
_0-1_作画層１
  6
CONTINUOUS
 62
    7
 10
-6.9588762214983717
 20
115.86797638436485
 11
-12.458876221498372
 21
115.86797638436485
  0
LINE
  8
_0-1_作画層１
  6
CONTINUOUS
 62
    7
 10
-19.458872406801106
 20
103.36796875497032
 11
52.541119963804334
 21
103.36795158884081
  0
LINE
  8
_0-1_作画層１
  6
CONTINUOUS
 62
    7
 10
-17.208872406801106
 20
103.36796821852872
 11
-17.208872406801106
 21
48.367961125575761
  0
LINE
  8
_0-1_作画層１
  6
CONTINUOUS
 62
    7
 10
45.291131407896145
 20
72.367953317372141
 11
45.291131407896145
 21
48.367945866786698
  0
LINE
  8
_0-1_作画層１
  6
CONTINUOUS
 62
    7
 10
45.291131407896145
 20
72.367953317372141
 11
50.29113140789616
 21
72.367952125279686
  0
ARC
  8
_0-1_作画層１
  6
CONTINUOUS
 62
    7
 10
47.190431596091187
 20
72.107791420218334
 40
0.7500000000000142
 50
180.00000000000105
 51
269.99999999999886
  0
LINE
  8
_0-1_作画層１
  6
CONTINUOUS
 62
    7
 10
47.190431596091173
 20
71.357791420218319
 11
48.815431596091173
 21
71.357791420218319
  0
ARC
  8
_0-1_作画層１
  6
CONTINUOUS
 62
    7
 10
48.815431596091187
 20
72.107791420218305
 40
0.7499999999999853
 50
269.99999999999886
 51
0.0000000000010941
  0
LINE
  8
_0-1_作画層１
  6
CONTINUOUS
 62
    7
 10
46.440431596091173
 20
72.107791420218319
 11
46.440431596091173
 21
72.357791420218319
  0
LINE
  8
_0-1_作画層１
  6
CONTINUOUS
 62
    7
 10
49.565431596091173
 20
72.107791420218319
 11
49.565431596091173
 21
72.357791420218319
  0
LINE
  8
_0-1_作画層１
  6
CONTINUOUS
 62
    7
 10
-10.908876221498417
 20
75.367966716493143
 11
-10.908876221498417
 21
48.36794921241902
  0
LINE
  8
_0-1_作画層１
  6
CONTINUOUS
 62
    7
 10
50.29113140789616
 20
85.867952125279714
 11
-17.208872406801106
 21
85.867968218528745
  0
LINE
  8
_0-1_作画層１
  6
CONTINUOUS
 62
    7
 10
50.291131407896145
 20
103.36795212527969
 11
50.291131407896145
 21
48.367945866786698
  0
LINE
  8
_0-1_作画層１
  6
CONTINUOUS
 62
    7
 10
190.54112759319889
 20
21.117984013759383
 11
190.54112759319889
 21
93.117976384364852
  0
LINE
  8
_0-1_作画層１
  6
CONTINUOUS
 62
    7
 10
190.54112759319889
 20
93.117976384364852
 11
262.54111996380436
 21
93.117976384364852
  0
LINE
  8
_0-1_作画層１
  6
CONTINUOUS
 62
    7
 10
262.54111996380436
 20
93.117976384364852
 11
262.54111996380436
 21
21.117984013759383
  0
LINE
  8
_0-1_作画層１
  6
CONTINUOUS
 62
    7
 10
262.54111996380436
 20
21.117984013759383
 11
260.04110851971257
 21
21.117984013759383
  0
LINE
  8
_0-1_作画層１
  6
CONTINUOUS
 62
    7
 10
193.04113903729069
 20
21.117984013759383
 11
190.54112759319889
 21
21.117984013759383
  0
LINE
  8
_0-1_作画層１
  6
CONTINUOUS
 62
    7
 10
256.04109707562077
 20
87.617957310878523
 11
256.04109707562077
 21
87.867945866786727
  0
LINE
  8
_0-1_作画層１
  6
CONTINUOUS
 62
    7
 10
256.04109707562077
 20
87.617957310878523
 11
256.04109707562077
 21
87.36796875497032
  0
LINE
  8
_0-1_作画層１
  6
CONTINUOUS
 62
    7
 10
258.04110279766667
 20
87.617957310878523
 11
258.04110279766667
 21
87.36796875497032
  0
LINE
  8
_0-1_作画層１
  6
CONTINUOUS
 62
    7
 10
258.04110279766667
 20
87.617957310878523
 11
258.04110279766667
 21
87.867945866786727
  0
LINE
  8
_0-1_作画層１
  6
CONTINUOUS
 62
    7
 10
257.04110089031803
 20
88.617961125575789
 11
257.29108944622624
 21
88.617961125575789
  0
LINE
  8
_0-1_作画層１
  6
CONTINUOUS
 62
    7
 10
257.04110089031803
 20
88.617961125575789
 11
256.79111233440983
 21
88.617961125575789
  0
LINE
  8
_0-1_作画層１
  6
CONTINUOUS
 62
    7
 10
257.04110089031803
 20
86.617953496181258
 11
256.79111233440983
 21
86.617953496181258
  0
LINE
  8
_0-1_作画層１
  6
CONTINUOUS
 62
    7
 10
257.04110089031803
 20
86.617953496181258
 11
257.29108944622624
 21
86.617953496181258
  0
LINE
  8
_0-1_作画層１
  6
CONTINUOUS
 62
    7
 10
256.5410989829694
 20
87.867945866786727
 11
256.04109707562077
 21
87.867945866786727
  0
LINE
  8
_0-1_作画層１
  6
CONTINUOUS
 62
    7
 10
256.79111233440983
 20
88.117957310878523
 11
256.79111233440983
 21
88.617961125575789
  0
LINE
  8
_0-1_作画層１
  6
CONTINUOUS
 62
    7
 10
257.29108944622624
 20
88.117957310878523
 11
257.29108944622624
 21
88.617961125575789
  0
LINE
  8
_0-1_作画層１
  6
CONTINUOUS
 62
    7
 10
257.54110279766667
 20
87.867945866786727
 11
258.04110279766667
 21
87.867945866786727
  0
LINE
  8
_0-1_作画層１
  6
CONTINUOUS
 62
    7
 10
257.54110279766667
 20
87.36796875497032
 11
258.04110279766667
 21
87.36796875497032
  0
LINE
  8
_0-1_作画層１
  6
CONTINUOUS
 62
    7
 10
257.29108944622624
 20
87.117955403529891
 11
257.29108944622624
 21
86.617953496181258
  0
LINE
  8
_0-1_作画層１
  6
CONTINUOUS
 62
    7
 10
256.79111233440983
 20
87.117955403529891
 11
256.79111233440983
 21
86.617953496181258
  0
LINE
  8
_0-1_作画層１
  6
CONTINUOUS
 62
    7
 10
256.5410989829694
 20
87.36796875497032
 11
256.04109707562077
 21
87.36796875497032
  0
LINE
  8
_0-1_作画層１
  6
CONTINUOUS
 62
    7
 10
195.04111996380436
 20
26.617978291713484
 11
195.04111996380436
 21
26.867980199062117
  0
LINE
  8
_0-1_作画層１
  6
CONTINUOUS
 62
    7
 10
195.04111996380436
 20
26.617978291713484
 11
195.04111996380436
 21
26.367978291713484
  0
LINE
  8
_0-1_作画層１
  6
CONTINUOUS
 62
    7
 10
197.04112568585026
 20
26.617978291713484
 11
197.04112568585026
 21
26.367978291713484
  0
LINE
  8
_0-1_作画層１
  6
CONTINUOUS
 62
    7
 10
197.04112568585026
 20
26.617978291713484
 11
197.04112568585026
 21
26.867980199062117
  0
LINE
  8
_0-1_作画層１
  6
CONTINUOUS
 62
    7
 10
196.041121871153
 20
27.61798210641075
 11
196.2911104270612
 21
27.61798210641075
  0
LINE
  8
_0-1_作画層１
  6
CONTINUOUS
 62
    7
 10
196.041121871153
 20
27.61798210641075
 11
195.79113331524479
 21
27.61798210641075
  0
LINE
  8
_0-1_作画層１
  6
CONTINUOUS
 62
    7
 10
196.041121871153
 20
25.617976384364852
 11
195.79113331524479
 21
25.617976384364852
  0
LINE
  8
_0-1_作画層１
  6
CONTINUOUS
 62
    7
 10
196.041121871153
 20
25.617976384364852
 11
196.2911104270612
 21
25.617976384364852
  0
LINE
  8
_0-1_作画層１
  6
CONTINUOUS
 62
    7
 10
195.54111996380436
 20
26.867980199062117
 11
195.04111996380436
 21
26.867980199062117
  0
LINE
  8
_0-1_作画層１
  6
CONTINUOUS
 62
    7
 10
195.79113331524479
 20
27.117980199062117
 11
195.79113331524479
 21
27.61798210641075
  0
LINE
  8
_0-1_作画層１
  6
CONTINUOUS
 62
    7
 10
196.2911104270612
 20
27.117980199062117
 11
196.2911104270612
 21
27.61798210641075
  0
LINE
  8
_0-1_作画層１
  6
CONTINUOUS
 62
    7
 10
196.54112377850163
 20
26.867980199062117
 11
197.04112568585026
 21
26.867980199062117
  0
LINE
  8
_0-1_作画層１
  6
CONTINUOUS
 62
    7
 10
196.54112377850163
 20
26.367978291713484
 11
197.04112568585026
 21
26.367978291713484
  0
LINE
  8
_0-1_作画層１
  6
CONTINUOUS
 62
    7
 10
196.2911104270612
 20
26.117978291713484
 11
196.2911104270612
 21
25.617976384364852
  0
LINE
  8
_0-1_作画層１
  6
CONTINUOUS
 62
    7
 10
195.79113331524479
 20
26.117978291713484
 11
195.79113331524479
 21
25.617976384364852
  0
LINE
  8
_0-1_作画層１
  6
CONTINUOUS
 62
    7
 10
195.54111996380436
 20
26.367978291713484
 11
195.04111996380436
 21
26.367978291713484
  0
LINE
  8
_0-1_作画層１
  6
CONTINUOUS
 62
    7
 10
193.04113903729069
 20
21.117984013759383
 11
260.04110851971257
 21
21.117984013759383
  0
LINE
  8
_0-1_作画層１
  6
CONTINUOUS
 62
    7
 10
193.04113903729069
 20
39.117984013759383
 11
260.04110851971257
 21
39.117984013759383
  0
LINE
  8
_0-1_作画層１
  6
CONTINUOUS
 62
    7
 10
232.58694449154484
 20
24.117984013759383
 11
241.08694782940495
 21
24.117984013759383
  0
LINE
  8
_0-1_作画層１
  6
CONTINUOUS
 62
    7
 10
209.08694210735905
 20
24.117984013759383
 11
217.586944968382
 21
24.117984013759383
  0
LINE
  8
_0-1_作画層１
  6
CONTINUOUS
 62
    7
 10
243.58695545879948
 20
24.117984013759383
 11
252.08695927349675
 21
24.117984013759383
  0
LINE
  8
_0-1_作画層１
  6
CONTINUOUS
 62
    7
 10
198.08693066326725
 20
24.117984013759383
 11
206.58693257061589
 21
24.117984013759383
  0
CIRCLE
  8
_0-1_作画層１
  6
CONTINUOUS
 62
    7
 10
257.04110089031803
 20
87.617957310878523
 40
1.5
  0
ARC
  8
_0-1_作画層１
  6
CONTINUOUS
 62
    7
 10
256.5410989829694
 20
88.11795731087858
 40
0.2500000000000425
 50
270
 51
359.99999999999022
  0
ARC
  8
_0-1_作画層１
  6
CONTINUOUS
 62
    7
 10
257.54110279766661
 20
88.117957310878467
 40
0.2499999999999432
 50
179.99999999998701
 51
270.00000000001302
  0
ARC
  8
_0-1_作画層１
  6
CONTINUOUS
 62
    7
 10
257.54110279766661
 20
87.117955403529947
 40
0.2499999999999432
 50
89.999999999986969
 51
180.00000000001305
  0
ARC
  8
_0-1_作画層１
  6
CONTINUOUS
 62
    7
 10
256.5410989829694
 20
87.117955403529834
 40
0.25
 50
0.0000000000097707
 51
90
  0
CIRCLE
  8
_0-1_作画層１
  6
CONTINUOUS
 62
    7
 10
196.041121871153
 20
26.617978291713484
 40
1.5
  0
ARC
  8
_0-1_作画層１
  6
CONTINUOUS
 62
    7
 10
195.54111996380431
 20
27.11798019906216
 40
0.2500000000000425
 50
270.00000000001302
 51
359.99999999999022
  0
ARC
  8
_0-1_作画層１
  6
CONTINUOUS
 62
    7
 10
196.54112377850157
 20
27.11798019906206
 40
0.2499999999999432
 50
179.99999999998701
 51
270.00000000001302
  0
ARC
  8
_0-1_作画層１
  6
CONTINUOUS
 62
    7
 10
196.54112377850157
 20
26.117978291713541
 40
0.2499999999999432
 50
89.999999999986969
 51
180.00000000001305
  0
ARC
  8
_0-1_作画層１
  6
CONTINUOUS
 62
    7
 10
195.54111996380431
 20
26.117978291713442
 40
0.2500000000000566
 50
0.0000000000097707
 51
89.99999999998694
  0
LINE
  8
_0-1_作画層１
  6
CONTINUOUS
 62
    7
 10
281.54112377850163
 20
23.367976384364852
 11
349.54112377850163
 21
23.367976384364852
  0
LINE
  8
_0-1_作画層１
  6
CONTINUOUS
 62
    7
 10
349.54112377850163
 20
23.367976384364852
 11
349.54112377850163
 21
91.367976384364852
  0
LINE
  8
_0-1_作画層１
  6
CONTINUOUS
 62
    7
 10
349.54112377850163
 20
91.367976384364852
 11
281.54112377850163
 21
91.367976384364852
  0
LINE
  8
_0-1_作画層１
  6
CONTINUOUS
 62
    7
 10
281.54112377850163
 20
91.367976384364852
 11
281.54112377850163
 21
23.367976384364852
  0
LINE
  8
_0-1_作画層１
  6
CONTINUOUS
 62
    7
 10
349.54112377850163
 20
86.581179819961221
 11
344.754327214098
 21
91.367976384364852
  0
LINE
  8
_0-1_作画層１
  6
CONTINUOUS
 62
    7
 10
349.54112377850163
 20
79.510112008095689
 11
337.68325940223247
 21
91.367976384364852
  0
LINE
  8
_0-1_作画層１
  6
CONTINUOUS
 62
    7
 10
349.54112377850163
 20
72.439044196230213
 11
330.61219159036699
 21
91.367976384364852
  0
LINE
  8
_0-1_作画層１
  6
CONTINUOUS
 62
    7
 10
349.54112377850163
 20
65.367976384364738
 11
323.54112377850151
 21
91.367976384364852
  0
LINE
  8
_0-1_作画層１
  6
CONTINUOUS
 62
    7
 10
349.54112377850163
 20
58.296908572499262
 11
316.47005596663604
 21
91.367976384364852
  0
LINE
  8
_0-1_作画層１
  6
CONTINUOUS
 62
    7
 10
349.54112377850163
 20
51.225840760633673
 11
309.39898815477045
 21
91.367976384364852
  0
LINE
  8
_0-1_作画層１
  6
CONTINUOUS
 62
    7
 10
349.54112377850163
 20
44.154772948768255
 11
302.32792034290503
 21
91.367976384364852
  0
LINE
  8
_0-1_作画層１
  6
CONTINUOUS
 62
    7
 10
349.54112377850163
 20
37.083705136902722
 11
295.2568525310395
 21
91.367976384364852
  0
LINE
  8
_0-1_作画層１
  6
CONTINUOUS
 62
    7
 10
349.54112377850163
 20
30.01263732503719
 11
288.18578471917397
 21
91.367976384364852
  0
LINE
  8
_0-1_作画層１
  6
CONTINUOUS
 62
    7
 10
349.11471690730849
 20
23.367976384364852
 11
281.54112377850163
 21
90.941569513171714
  0
LINE
  8
_0-1_作画層１
  6
CONTINUOUS
 62
    7
 10
342.04364909544296
 20
23.367976384364852
 11
281.54112377850163
 21
83.870501701306239
  0
LINE
  8
_0-1_作画層１
  6
CONTINUOUS
 62
    7
 10
334.97258128357754
 20
23.367976384364852
 11
281.54112377850163
 21
76.799433889440763
  0
LINE
  8
_0-1_作画層１
  6
CONTINUOUS
 62
    7
 10
327.90151347171201
 20
23.367976384364852
 11
281.54112377850163
 21
69.728366077575231
  0
LINE
  8
_0-1_作画層１
  6
CONTINUOUS
 62
    7
 10
320.83044565984648
 20
23.367976384364852
 11
281.54112377850163
 21
62.657298265709699
  0
LINE
  8
_0-1_作画層１
  6
CONTINUOUS
 62
    7
 10
313.759377847981
 20
23.367976384364852
 11
281.54112377850163
 21
55.586230453844223
  0
LINE
  8
_0-1_作画層１
  6
CONTINUOUS
 62
    7
 10
306.68831003611541
 20
23.367976384364852
 11
281.54112377850163
 21
48.515162641978634
  0
LINE
  8
_0-1_作画層１
  6
CONTINUOUS
 62
    7
 10
299.61724222424999
 20
23.367976384364852
 11
281.54112377850163
 21
41.444094830113215
  0
LINE
  8
_0-1_作画層１
  6
CONTINUOUS
 62
    7
 10
281.54112377850163
 20
34.373027018247683
 11
292.54617441238446
 21
23.367976384364852
  0
LINE
  8
_0-1_作画層１
  6
CONTINUOUS
 62
    7
 10
285.47510660051898
 20
23.367976384364852
 11
281.54112377850163
 21
27.301959206382207
  0
INSERT
  2
-008-_D8
  8
_0-9_寸法線層１
 10
-55.25
 20
-38.75
 41
1
 42
1
 50
0
  0
INSERT
  2
-009-_D9
  8
_0-9_寸法線層１
 10
-55.25
 20
-38.75
 41
1
 42
1
 50
0
  0
LINE
  8
_0-1_作画層１
  6
CONTINUOUS
 62
    7
 10
254.74110851971255
 20
90.61796875497032
 11
254.74110851971255
 21
87.317968754970309
  0
LINE
  8
_0-1_作画層１
  6
CONTINUOUS
 62
    7
 10
260.04110851971257
 20
85.317968754970309
 11
256.74110851971255
 21
85.317968754970309
  0
ARC
  8
_0-1_作画層１
  6
CONTINUOUS
 62
    7
 10
256.74110851971255
 20
87.317968754970309
 40
2
 50
179.9999999999996
 51
270
  0
ARC
  8
_0-1_作画層１
  6
CONTINUOUS
 62
    7
 10
259.04110851971257
 20
89.617968754970349
 40
0.9999999999999712
 50
359.99999999999835
 51
90.000000000000014
  0
LINE
  8
_0-1_作画層１
  6
CONTINUOUS
 62
    7
 10
260.04110851971257
 20
89.61796875497032
 11
260.04110851971257
 21
25.117984013759383
  0
ARC
  8
_0-1_作画層１
  6
CONTINUOUS
 62
    7
 10
259.04110851971257
 20
25.117984013759369
 40
1
 50
270
 51
0.0000000000008014
  0
LINE
  8
_0-1_作画層１
  6
CONTINUOUS
 62
    7
 10
259.04110851971257
 20
24.117984013759383
 11
194.04113903729069
 21
24.117984013759383
  0
ARC
  8
_0-1_作画層１
  6
CONTINUOUS
 62
    7
 10
194.04113903729069
 20
25.117984013759369
 40
0.9999999999999853
 50
179.99999999999918
 51
270
  0
LINE
  8
_0-1_作画層１
  6
CONTINUOUS
 62
    7
 10
193.04113903729069
 20
25.117984013759383
 11
193.04113903729069
 21
89.61796875497032
  0
LINE
  8
_0-1_作画層１
  6
CONTINUOUS
 62
    7
 10
259.04110851971257
 20
90.61796875497032
 11
194.04113903729069
 21
90.61796875497032
  0
ARC
  8
_0-1_作画層１
  6
CONTINUOUS
 62
    7
 10
194.04113903729066
 20
89.617968754970349
 40
0.9999999999999712
 50
89.99999999999838
 51
180.00000000000162
  0
LINE
  8
_0-1_作画層１
  6
CONTINUOUS
 62
    7
 10
193.04113522259343
 20
28.917995457851191
 11
196.34113522259344
 21
28.917995457851191
  0
LINE
  8
_0-1_作画層１
  6
CONTINUOUS
 62
    7
 10
234.58694449154484
 20
36.617987828456648
 11
243.08694782940495
 21
36.617987828456648
  0
LINE
  8
_0-1_作画層１
  6
CONTINUOUS
 62
    7
 10
211.08694210735905
 20
36.617987828456648
 11
219.586944968382
 21
36.617987828456648
  0
LINE
  8
_0-1_作画層１
  6
CONTINUOUS
 62
    7
 10
243.08694782940495
 20
24.117984013759383
 11
243.08694782940495
 21
36.617987828456648
  0
LINE
  8
_0-1_作画層１
  6
CONTINUOUS
 62
    7
 10
234.58694449154484
 20
24.117984013759383
 11
234.58694449154484
 21
36.617987828456648
  0
LINE
  8
_0-1_作画層１
  6
CONTINUOUS
 62
    7
 10
219.586944968382
 20
24.117984013759383
 11
219.586944968382
 21
36.617987828456648
  0
LINE
  8
_0-1_作画層１
  6
CONTINUOUS
 62
    7
 10
211.08694210735905
 20
24.117984013759383
 11
211.08694210735905
 21
36.617987828456648
  0
LINE
  8
_0-1_作画層１
  6
CONTINUOUS
 62
    7
 10
245.58695545879948
 20
36.617987828456648
 11
254.08695927349675
 21
36.617987828456648
  0
LINE
  8
_0-1_作画層１
  6
CONTINUOUS
 62
    7
 10
254.08695927349675
 20
24.117984013759383
 11
254.08695927349675
 21
36.617987828456648
  0
LINE
  8
_0-1_作画層１
  6
CONTINUOUS
 62
    7
 10
245.58695545879948
 20
24.117984013759383
 11
245.58695545879948
 21
36.617987828456648
  0
LINE
  8
_0-1_作画層１
  6
CONTINUOUS
 62
    7
 10
200.08693066326725
 20
36.617987828456648
 11
208.58693257061589
 21
36.617987828456648
  0
LINE
  8
_0-1_作画層１
  6
CONTINUOUS
 62
    7
 10
200.08693066326725
 20
24.117984013759383
 11
200.08693066326725
 21
36.617987828456648
  0
LINE
  8
_0-1_作画層１
  6
CONTINUOUS
 62
    7
 10
208.58693257061589
 20
24.117984013759383
 11
208.58693257061589
 21
36.617987828456648
  0
LINE
  8
_0-1_作画層１
  6
CONTINUOUS
 62
    7
 10
202.33692494122135
 20
32.117984013759383
 11
202.33692494122135
 21
32.617985921108016
  0
LINE
  8
_0-1_作画層１
  6
CONTINUOUS
 62
    7
 10
202.33692494122135
 20
32.117984013759383
 11
202.33692494122135
 21
31.617984013759383
  0
LINE
  8
_0-1_作画層１
  6
CONTINUOUS
 62
    7
 10
206.33693829266178
 20
32.117984013759383
 11
206.33693829266178
 21
31.617984013759383
  0
LINE
  8
_0-1_作画層１
  6
CONTINUOUS
 62
    7
 10
206.33693829266178
 20
32.117984013759383
 11
206.33693829266178
 21
32.617985921108016
  0
LINE
  8
_0-1_作画層１
  6
CONTINUOUS
 62
    7
 10
204.33693257061589
 20
34.117991643153914
 11
204.83693257061589
 21
34.117991643153914
  0
LINE
  8
_0-1_作画層１
  6
CONTINUOUS
 62
    7
 10
204.33693257061589
 20
34.117991643153914
 11
203.83693066326725
 21
34.117991643153914
  0
LINE
  8
_0-1_作画層１
  6
CONTINUOUS
 62
    7
 10
204.33693257061589
 20
30.117978291713484
 11
203.83693066326725
 21
30.117978291713484
  0
LINE
  8
_0-1_作画層１
  6
CONTINUOUS
 62
    7
 10
204.33693257061589
 20
30.117978291713484
 11
204.83693257061589
 21
30.117978291713484
  0
LINE
  8
_0-1_作画層１
  6
CONTINUOUS
 62
    7
 10
203.33692875591862
 20
32.617985921108016
 11
202.33692494122135
 21
32.617985921108016
  0
LINE
  8
_0-1_作画層１
  6
CONTINUOUS
 62
    7
 10
203.83693066326725
 20
33.117987828456648
 11
203.83693066326725
 21
34.117991643153914
  0
LINE
  8
_0-1_作画層１
  6
CONTINUOUS
 62
    7
 10
204.83693257061589
 20
33.117987828456648
 11
204.83693257061589
 21
34.117991643153914
  0
LINE
  8
_0-1_作画層１
  6
CONTINUOUS
 62
    7
 10
205.33693447796452
 20
32.617985921108016
 11
206.33693829266178
 21
32.617985921108016
  0
LINE
  8
_0-1_作画層１
  6
CONTINUOUS
 62
    7
 10
205.33693447796452
 20
31.617984013759383
 11
206.33693829266178
 21
31.617984013759383
  0
LINE
  8
_0-1_作画層１
  6
CONTINUOUS
 62
    7
 10
204.83693257061589
 20
31.11798210641075
 11
204.83693257061589
 21
30.117978291713484
  0
LINE
  8
_0-1_作画層１
  6
CONTINUOUS
 62
    7
 10
203.83693066326725
 20
31.11798210641075
 11
203.83693066326725
 21
30.117978291713484
  0
LINE
  8
_0-1_作画層１
  6
CONTINUOUS
 62
    7
 10
203.33692875591862
 20
31.617984013759383
 11
202.33692494122135
 21
31.617984013759383
  0
LINE
  8
_0-1_作画層１
  6
CONTINUOUS
 62
    7
 10
213.33693638531315
 20
32.117984013759383
 11
213.33693638531315
 21
32.617985921108016
  0
LINE
  8
_0-1_作画層１
  6
CONTINUOUS
 62
    7
 10
213.33693638531315
 20
32.117984013759383
 11
213.33693638531315
 21
31.617984013759383
  0
LINE
  8
_0-1_作画層１
  6
CONTINUOUS
 62
    7
 10
217.33694973675358
 20
32.117984013759383
 11
217.33694973675358
 21
31.617984013759383
  0
LINE
  8
_0-1_作画層１
  6
CONTINUOUS
 62
    7
 10
217.33694973675358
 20
32.117984013759383
 11
217.33694973675358
 21
32.617985921108016
  0
LINE
  8
_0-1_作画層１
  6
CONTINUOUS
 62
    7
 10
215.33694306103337
 20
34.117991643153914
 11
215.836944968382
 21
34.117991643153914
  0
LINE
  8
_0-1_作画層１
  6
CONTINUOUS
 62
    7
 10
215.33694306103337
 20
34.117991643153914
 11
214.83694115368473
 21
34.117991643153914
  0
LINE
  8
_0-1_作画層１
  6
CONTINUOUS
 62
    7
 10
215.33694306103337
 20
30.117978291713484
 11
214.83694115368473
 21
30.117978291713484
  0
LINE
  8
_0-1_作画層１
  6
CONTINUOUS
 62
    7
 10
215.33694306103337
 20
30.117978291713484
 11
215.836944968382
 21
30.117978291713484
  0
LINE
  8
_0-1_作画層１
  6
CONTINUOUS
 62
    7
 10
214.33694020001042
 20
32.617985921108016
 11
213.33693638531315
 21
32.617985921108016
  0
LINE
  8
_0-1_作画層１
  6
CONTINUOUS
 62
    7
 10
214.83694115368473
 20
33.117987828456648
 11
214.83694115368473
 21
34.117991643153914
  0
LINE
  8
_0-1_作画層１
  6
CONTINUOUS
 62
    7
 10
215.836944968382
 20
33.117987828456648
 11
215.836944968382
 21
34.117991643153914
  0
LINE
  8
_0-1_作画層１
  6
CONTINUOUS
 62
    7
 10
216.33694687573063
 20
32.617985921108016
 11
217.33694973675358
 21
32.617985921108016
  0
LINE
  8
_0-1_作画層１
  6
CONTINUOUS
 62
    7
 10
216.33694687573063
 20
31.617984013759383
 11
217.33694973675358
 21
31.617984013759383
  0
LINE
  8
_0-1_作画層１
  6
CONTINUOUS
 62
    7
 10
215.836944968382
 20
31.11798210641075
 11
215.836944968382
 21
30.117978291713484
  0
LINE
  8
_0-1_作画層１
  6
CONTINUOUS
 62
    7
 10
214.83694115368473
 20
31.11798210641075
 11
214.83694115368473
 21
30.117978291713484
  0
LINE
  8
_0-1_作画層１
  6
CONTINUOUS
 62
    7
 10
214.33694020001042
 20
31.617984013759383
 11
213.33693638531315
 21
31.617984013759383
  0
LINE
  8
_0-1_作画層１
  6
CONTINUOUS
 62
    7
 10
236.8369392463361
 20
32.117984013759383
 11
236.8369392463361
 21
32.617985921108016
  0
LINE
  8
_0-1_作画層１
  6
CONTINUOUS
 62
    7
 10
236.8369392463361
 20
32.117984013759383
 11
236.8369392463361
 21
31.617984013759383
  0
LINE
  8
_0-1_作画層１
  6
CONTINUOUS
 62
    7
 10
240.83695259777653
 20
32.117984013759383
 11
240.83695259777653
 21
31.617984013759383
  0
LINE
  8
_0-1_作画層１
  6
CONTINUOUS
 62
    7
 10
240.83695259777653
 20
32.117984013759383
 11
240.83695259777653
 21
32.617985921108016
  0
LINE
  8
_0-1_作画層１
  6
CONTINUOUS
 62
    7
 10
238.83694592205632
 20
34.117991643153914
 11
239.33694782940495
 21
34.117991643153914
  0
LINE
  8
_0-1_作画層１
  6
CONTINUOUS
 62
    7
 10
238.83694592205632
 20
34.117991643153914
 11
238.336944968382
 21
34.117991643153914
  0
LINE
  8
_0-1_作画層１
  6
CONTINUOUS
 62
    7
 10
238.83694592205632
 20
30.117978291713484
 11
238.336944968382
 21
30.117978291713484
  0
LINE
  8
_0-1_作画層１
  6
CONTINUOUS
 62
    7
 10
238.83694592205632
 20
30.117978291713484
 11
239.33694782940495
 21
30.117978291713484
  0
LINE
  8
_0-1_作画層１
  6
CONTINUOUS
 62
    7
 10
237.83694306103337
 20
32.617985921108016
 11
236.8369392463361
 21
32.617985921108016
  0
LINE
  8
_0-1_作画層１
  6
CONTINUOUS
 62
    7
 10
238.336944968382
 20
33.117987828456648
 11
238.336944968382
 21
34.117991643153914
  0
LINE
  8
_0-1_作画層１
  6
CONTINUOUS
 62
    7
 10
239.33694782940495
 20
33.117987828456648
 11
239.33694782940495
 21
34.117991643153914
  0
LINE
  8
_0-1_作画層１
  6
CONTINUOUS
 62
    7
 10
239.83694973675358
 20
32.617985921108016
 11
240.83695259777653
 21
32.617985921108016
  0
LINE
  8
_0-1_作画層１
  6
CONTINUOUS
 62
    7
 10
239.83694973675358
 20
31.617984013759383
 11
240.83695259777653
 21
31.617984013759383
  0
LINE
  8
_0-1_作画層１
  6
CONTINUOUS
 62
    7
 10
239.33694782940495
 20
31.11798210641075
 11
239.33694782940495
 21
30.117978291713484
  0
LINE
  8
_0-1_作画層１
  6
CONTINUOUS
 62
    7
 10
238.336944968382
 20
31.11798210641075
 11
238.336944968382
 21
30.117978291713484
  0
LINE
  8
_0-1_作画層１
  6
CONTINUOUS
 62
    7
 10
237.83694306103337
 20
31.617984013759383
 11
236.8369392463361
 21
31.617984013759383
  0
LINE
  8
_0-1_作画層１
  6
CONTINUOUS
 62
    7
 10
247.83695164410221
 20
32.117984013759383
 11
247.83695164410221
 21
32.617985921108016
  0
LINE
  8
_0-1_作画層１
  6
CONTINUOUS
 62
    7
 10
247.83695164410221
 20
32.117984013759383
 11
247.83695164410221
 21
31.617984013759383
  0
LINE
  8
_0-1_作画層１
  6
CONTINUOUS
 62
    7
 10
251.83696499554264
 20
32.117984013759383
 11
251.83696499554264
 21
31.617984013759383
  0
LINE
  8
_0-1_作画層１
  6
CONTINUOUS
 62
    7
 10
251.83696499554264
 20
32.117984013759383
 11
251.83696499554264
 21
32.617985921108016
  0
LINE
  8
_0-1_作画層１
  6
CONTINUOUS
 62
    7
 10
249.83695736614811
 20
34.117991643153914
 11
250.33695927349675
 21
34.117991643153914
  0
LINE
  8
_0-1_作画層１
  6
CONTINUOUS
 62
    7
 10
249.83695736614811
 20
34.117991643153914
 11
249.33695545879948
 21
34.117991643153914
  0
LINE
  8
_0-1_作画層１
  6
CONTINUOUS
 62
    7
 10
249.83695736614811
 20
30.117978291713484
 11
249.33695545879948
 21
30.117978291713484
  0
LINE
  8
_0-1_作画層１
  6
CONTINUOUS
 62
    7
 10
249.83695736614811
 20
30.117978291713484
 11
250.33695927349675
 21
30.117978291713484
  0
LINE
  8
_0-1_作画層１
  6
CONTINUOUS
 62
    7
 10
248.83695355145085
 20
32.617985921108016
 11
247.83695164410221
 21
32.617985921108016
  0
LINE
  8
_0-1_作画層１
  6
CONTINUOUS
 62
    7
 10
249.33695545879948
 20
33.117987828456648
 11
249.33695545879948
 21
34.117991643153914
  0
LINE
  8
_0-1_作画層１
  6
CONTINUOUS
 62
    7
 10
250.33695927349675
 20
33.117987828456648
 11
250.33695927349675
 21
34.117991643153914
  0
LINE
  8
_0-1_作画層１
  6
CONTINUOUS
 62
    7
 10
250.83696118084538
 20
32.617985921108016
 11
251.83696499554264
 21
32.617985921108016
  0
LINE
  8
_0-1_作画層１
  6
CONTINUOUS
 62
    7
 10
250.83696118084538
 20
31.617984013759383
 11
251.83696499554264
 21
31.617984013759383
  0
LINE
  8
_0-1_作画層１
  6
CONTINUOUS
 62
    7
 10
250.33695927349675
 20
31.11798210641075
 11
250.33695927349675
 21
30.117978291713484
  0
LINE
  8
_0-1_作画層１
  6
CONTINUOUS
 62
    7
 10
249.33695545879948
 20
31.11798210641075
 11
249.33695545879948
 21
30.117978291713484
  0
LINE
  8
_0-1_作画層１
  6
CONTINUOUS
 62
    7
 10
248.83695355145085
 20
31.617984013759383
 11
247.83695164410221
 21
31.617984013759383
  0
CIRCLE
  8
_0-1_作画層１
  6
CONTINUOUS
 62
    7
 10
204.33693257061589
 20
32.117984013759383
 40
3
  0
ARC
  8
_0-1_作画層１
  6
CONTINUOUS
 62
    7
 10
203.33692875591868
 20
33.117987828456634
 40
0.4999999999999856
 50
269.99999999999341
 51
0.0000000000015775
  0
ARC
  8
_0-1_作画層１
  6
CONTINUOUS
 62
    7
 10
205.33693447796446
 20
33.117987828456634
 40
0.4999999999999432
 50
179.99999999999838
 51
270.00000000000648
  0
ARC
  8
_0-1_作画層１
  6
CONTINUOUS
 62
    7
 10
205.33693447796446
 20
31.117982106410764
 40
0.4999999999999856
 50
89.999999999993506
 51
180.00000000000162
  0
ARC
  8
_0-1_作画層１
  6
CONTINUOUS
 62
    7
 10
203.33692875591868
 20
31.117982106410764
 40
0.4999999999999432
 50
359.99999999999835
 51
90.000000000006565
  0
CIRCLE
  8
_0-1_作画層１
  6
CONTINUOUS
 62
    7
 10
215.33694306103337
 20
32.117984013759383
 40
3
  0
ARC
  8
_0-1_作画層１
  6
CONTINUOUS
 62
    7
 10
214.33694020001047
 20
33.117987828456634
 40
0.4999999999999856
 50
269.99999999999341
 51
0.0000000000015775
  0
ARC
  8
_0-1_作画層１
  6
CONTINUOUS
 62
    7
 10
216.33694687573058
 20
33.117987828456634
 40
0.4999999999999432
 50
179.99999999999838
 51
270.00000000000648
  0
ARC
  8
_0-1_作画層１
  6
CONTINUOUS
 62
    7
 10
216.33694687573058
 20
31.117982106410764
 40
0.4999999999999856
 50
89.999999999993506
 51
180.00000000000162
  0
ARC
  8
_0-1_作画層１
  6
CONTINUOUS
 62
    7
 10
214.33694020001047
 20
31.117982106410764
 40
0.4999999999999432
 50
359.99999999999835
 51
90.000000000006565
  0
CIRCLE
  8
_0-1_作画層１
  6
CONTINUOUS
 62
    7
 10
238.83694592205632
 20
32.117984013759383
 40
3
  0
ARC
  8
_0-1_作画層１
  6
CONTINUOUS
 62
    7
 10
237.83694306103342
 20
33.117987828456634
 40
0.4999999999999856
 50
269.99999999999341
 51
0.0000000000015775
  0
ARC
  8
_0-1_作画層１
  6
CONTINUOUS
 62
    7
 10
239.83694973675352
 20
33.117987828456634
 40
0.4999999999999432
 50
179.99999999999838
 51
270.00000000000648
  0
ARC
  8
_0-1_作画層１
  6
CONTINUOUS
 62
    7
 10
239.83694973675352
 20
31.117982106410764
 40
0.4999999999999856
 50
89.999999999993506
 51
180.00000000000162
  0
ARC
  8
_0-1_作画層１
  6
CONTINUOUS
 62
    7
 10
237.83694306103342
 20
31.117982106410764
 40
0.4999999999999432
 50
359.99999999999835
 51
90.000000000006565
  0
CIRCLE
  8
_0-1_作画層１
  6
CONTINUOUS
 62
    7
 10
249.83695736614811
 20
32.117984013759383
 40
3
  0
ARC
  8
_0-1_作画層１
  6
CONTINUOUS
 62
    7
 10
248.8369535514509
 20
33.117987828456634
 40
0.4999999999999856
 50
269.99999999999341
 51
0.0000000000015775
  0
ARC
  8
_0-1_作画層１
  6
CONTINUOUS
 62
    7
 10
250.83696118084532
 20
33.117987828456634
 40
0.4999999999999432
 50
179.99999999999838
 51
270.00000000000648
  0
ARC
  8
_0-1_作画層１
  6
CONTINUOUS
 62
    7
 10
250.83696118084532
 20
31.117982106410764
 40
0.4999999999999856
 50
89.999999999993506
 51
180.00000000000162
  0
ARC
  8
_0-1_作画層１
  6
CONTINUOUS
 62
    7
 10
248.8369535514509
 20
31.117982106410764
 40
0.4999999999999432
 50
359.99999999999835
 51
90.000000000006565
  0
LINE
  8
_0-1_作画層１
  6
CONTINUOUS
 62
    7
 10
208.58693257061589
 20
26.617978291713484
 11
200.08693066326725
 21
26.617978291713484
  0
LINE
  8
_0-1_作画層１
  6
CONTINUOUS
 62
    7
 10
219.586944968382
 20
26.617978291713484
 11
211.08694210735905
 21
26.617978291713484
  0
LINE
  8
_0-1_作画層１
  6
CONTINUOUS
 62
    7
 10
243.08694782940495
 20
26.617978291713484
 11
234.58694449154484
 21
26.617978291713484
  0
LINE
  8
_0-1_作画層１
  6
CONTINUOUS
 62
    7
 10
254.08695927349675
 20
26.617978291713484
 11
245.58695545879948
 21
26.617978291713484
  0
ARC
  8
_0-1_作画層１
  6
CONTINUOUS
 62
    7
 10
196.34113522259344
 20
26.917995457851177
 40
2.0000000000000142
 50
0.0000000000004071
 51
90
  0
LINE
  8
_0-1_作画層１
  6
CONTINUOUS
 62
    7
 10
198.34113522259344
 20
24.117984013759383
 11
198.34113522259344
 21
26.917995457851191
  0
LINE
  8
_0-1_作画層１
  6
CONTINUOUS
 62
    7
 10
197.26805303895185
 20
39.117984013759383
 11
255.76805303895179
 21
39.117984013759383
  0
LINE
  8
_0-1_作画層１
  6
CONTINUOUS
 62
    7
 10
255.76805303895179
 20
39.117984013759383
 11
255.76805303895179
 21
84.617984013759383
  0
LINE
  8
_0-1_作画層１
  6
CONTINUOUS
 62
    7
 10
255.76805303895179
 20
84.617984013759383
 11
197.26805303895185
 21
84.617984013759383
  0
LINE
  8
_0-1_作画層１
  6
CONTINUOUS
 62
    7
 10
197.26805303895185
 20
84.617984013759383
 11
197.26805303895185
 21
39.117984013759383
  0
LINE
  8
_0-1_作画層１
  6
CONTINUOUS
 62
    7
 10
198.89305303895185
 20
73.242984013759397
 11
254.14305303895179
 21
73.242984013759397
  0
LINE
  8
_0-1_作画層１
  6
CONTINUOUS
 62
    7
 10
254.14305303895179
 20
73.242984013759397
 11
254.14305303895179
 21
61.867984013759397
  0
LINE
  8
_0-1_作画層１
  6
CONTINUOUS
 62
    7
 10
254.14305303895179
 20
61.867984013759397
 11
198.89305303895185
 21
61.867984013759397
  0
LINE
  8
_0-1_作画層１
  6
CONTINUOUS
 62
    7
 10
198.89305303895185
 20
61.867984013759397
 11
198.89305303895185
 21
73.242984013759397
  0
LINE
  8
_0-1_作画層１
  6
CONTINUOUS
 62
    7
 10
204.38340748066742
 20
67.555484013759397
 11
207.83055303895179
 21
71.002629572043801
  0
LINE
  8
_0-1_作画層１
  6
CONTINUOUS
 62
    7
 10
207.83055303895179
 20
71.002629572043801
 11
211.27769859723622
 21
67.555484013759397
  0
LINE
  8
_0-1_作画層１
  6
CONTINUOUS
 62
    7
 10
211.27769859723622
 20
67.555484013759397
 11
207.83055303895179
 21
64.108338455474993
  0
LINE
  8
_0-1_作画層１
  6
CONTINUOUS
 62
    7
 10
207.83055303895179
 20
64.108338455474993
 11
204.38340748066742
 21
67.555484013759397
  0
TEXT
  8
_0-7_注記層１
 62
    7
 10
206.8805530389518
 20
67.417984013759394
 40
1.8999999999999999
 41
1
 50
0
  1
PS
  0
TEXT
  8
_0-7_注記層１
 62
    7
 10
207.35555303895177
 20
65.517984013759389
 40
1.8999999999999999
 41
1
 50
0
  1
E
  0
TEXT
  8
_0-7_注記層１
 62
    7
 10
210.39305303895179
 20
63.305484013759397
 40
2
 41
1
 50
0
  1
JET
  0
TEXT
  8
_0-7_注記層１
 62
    7
 10
199.70555303895185
 20
57.467984013759391
 40
2.2999999999999998
 41
1
 50
0
  1
製造年月
  0
CIRCLE
  8
_0-1_作画層１
  6
CONTINUOUS
 62
    7
 10
205.26805303895179
 20
41.555484013759383
 40
1.1490485194281399
  0
CIRCLE
  8
_0-1_作画層１
  6
CONTINUOUS
 62
    7
 10
216.64305303895179
 20
41.555484013759383
 40
1.1490485194281399
  0
CIRCLE
  8
_0-1_作画層１
  6
CONTINUOUS
 62
    7
 10
239.64305303895179
 20
41.555484013759383
 40
1.1490485194281399
  0
CIRCLE
  8
_0-1_作画層１
  6
CONTINUOUS
 62
    7
 10
251.01805303895179
 20
41.555484013759383
 40
1.1490485194281399
  0
CIRCLE
  8
_0-1_作画層１
  6
CONTINUOUS
 62
    7
 10
210.95555303895179
 20
52.242984013759397
 40
3.2500000000000004
  0
ARC
  8
_0-1_作画層１
  6
CONTINUOUS
 62
    7
 10
209.93992803895179
 20
52.139000610320608
 40
1.0209342235500356
 50
5.8457823547345411
 51
174.15421764526545
  0
ARC
  8
_0-1_作画層１
  6
CONTINUOUS
 62
    7
 10
211.97117803895179
 20
52.346967417198186
 40
1.0209342235500356
 50
185.84578235473455
 51
354.15421764526542
  0
LINE
  8
_0-1_作画層１
  6
CONTINUOUS
 62
    7
 10
207.70555303895179
 20
52.242984013759397
 11
205.26805303895179
 21
52.242984013759397
  0
LINE
  8
_0-1_作画層１
  6
CONTINUOUS
 62
    7
 10
216.64305303895179
 20
52.242984013759397
 11
214.20555303895179
 21
52.242984013759397
  0
TEXT
  8
_0-7_注記層１
 62
    7
 10
208.65555303895178
 20
45.280484013759391
 40
2.2999999999999998
 41
1
 50
0
  1
電源
  0
LINE
  8
_0-1_作画層１
  6
CONTINUOUS
 62
    7
 10
205.26805303895179
 20
52.242984013759397
 11
205.26805303895179
 21
42.704532533187532
  0
LINE
  8
_0-1_作画層１
  6
CONTINUOUS
 62
    7
 10
216.64305303895179
 20
52.242984013759397
 11
216.64305303895179
 21
42.704532533187532
  0
CIRCLE
  8
_0-1_作画層１
  6
CONTINUOUS
 62
    7
 10
242.08055303895179
 20
52.242984013759397
 40
0.8125000000000001
  0
CIRCLE
  8
_0-1_作画層１
  6
CONTINUOUS
 62
    7
 10
248.58055303895179
 20
52.242984013759397
 40
0.8125000000000001
  0
LINE
  8
_0-1_作画層１
  6
CONTINUOUS
 62
    7
 10
241.26805303895179
 20
52.242984013759397
 11
239.64305303895179
 21
52.242984013759397
  0
LINE
  8
_0-1_作画層１
  6
CONTINUOUS
 62
    7
 10
249.39305303895179
 20
52.242984013759397
 11
251.01805303895179
 21
52.242984013759397
  0
LINE
  8
_0-1_作画層１
  6
CONTINUOUS
 62
    7
 10
242.85594382934937
 20
52.000238525301569
 11
249.39305303895179
 21
53.867984013759397
  0
LINE
  8
_0-1_作画層１
  6
CONTINUOUS
 62
    7
 10
239.64305303895179
 20
42.704532533187518
 11
239.64305303895179
 21
52.242984013759397
  0
LINE
  8
_0-1_作画層１
  6
CONTINUOUS
 62
    7
 10
251.01805303895179
 20
42.704532533187518
 11
251.01805303895179
 21
52.242984013759397
  0
TEXT
  8
_0-7_注記層１
 62
    7
 10
243.33055303895179
 20
46.930484013759397
 40
2
 41
1
 50
0
  1
負荷
  0
TEXT
  8
_0-7_注記層１
 62
    7
 10
219.20555303895179
 20
68.305484013759397
 40
2.5
 41
1
 50
0
  1
スナオ電気株式会社
  0
TEXT
  8
_0-7_注記層１
 62
    7
 10
219.20555303895179
 20
63.305484013759397
 40
2.5
 41
1
 50
0
  1
AC250V  7A
  0
TEXT
  8
_0-7_注記層１
 62
    7
 10
201.39305303895185
 20
80.217984013759391
 40
2.2999999999999998
 41
1
 50
0
  1
２４時間タイムスイッチ　　　ST-702P
  0
TEXT
  8
_0-7_注記層１
 62
    7
 10
201.39305303895185
 20
77.917984013759394
 40
2.2999999999999998
 41
1
 50
0
  1
操作電圧　　AC100～200V  50/60Hz共用
  0
TEXT
  8
_0-7_注記層１
 62
    7
 10
244.70555303895185
 20
57.467984013759391
 40
2.2999999999999998
 41
1
 50
0
  1
盤内用
  0
TEXT
  8
_0-d_0_1
 62
    7
 10
-16.365114351347415
 20
207.50327013865052
 40
5
 41
1
 50
0
  1
OFF
  0
TEXT
  8
_0-d_0_1
 62
    7
 10
4.8848856486525847
 20
207.50327013865052
 40
5
 41
1
 50
0
  1
ON
  0
TEXT
  8
_0-d_0_1
 62
    7
 10
42.384885648652585
 20
200.00327013865052
 40
5
 41
1
 50
0
  1
PL
  0
TEXT
  8
_0-d_0_1
 62
    7
 10
-8.8651143513474153
 20
145.00327013865052
 40
5
 41
1
 50
0
  1
SPARE
  0
TEXT
  8
_0-d_0_1
 62
    7
 10
41.134885648652585
 20
145.00327013865052
 40
5
 41
1
 50
0
  1
OUT
  0
LINE
  8
_0-1_作画層１
  6
CONTINUOUS
 62
    7
 10
289.75
 20
8.75
 11
334.75
 21
8.75
  0
TEXT
  8
_0-7_注記層１
 62
    7
 10
292.25
 20
8.75
 40
5
 41
1
 50
0
  1
パネルカット寸法
  0
TEXT
  8
_0-7_注記層１
 62
    7
 10
302.25
 20
-15.5
 40
3.5
 41
1
 50
0
  1
２４時間タイムスイッチ
  0
TEXT
  8
_0-7_注記層１
 62
    7
 10
284.04112377850163
 20
-14.132023615635148
 40
4
 41
1
 50
0
  1
平野
  0
TEXT
  8
_0-7_注記層１
 62
    7
 10
244.75
 20
199.5
 40
3.5
 41
1
 50
0
  1
200時間（リチウム電池使用）
  0
TEXT
  8
_0-7_注記層１
 62
    7
 10
244.75
 20
214.5
 40
3.5
 41
1
 50
0
  1
AC100V 又は AC200V
  0
TEXT
  8
_0-7_注記層１
 62
    7
 10
244.75
 20
204.5
 40
3.5
 41
1
 50
0
  1
50Hz/60Hz共用
  0
TEXT
  8
_0-7_注記層１
 62
    7
 10
244.75
 20
189.5
 40
3.5
 41
1
 50
0
  1
-10℃～50℃
  0
TEXT
  8
_0-7_注記層１
 62
    7
 10
244.75
 20
184.5
 40
3.5
 41
1
 50
0
  1
35%RH～85％RH
  0
TEXT
  8
_0-7_注記層１
 62
    7
 10
244.75
 20
144.5
 40
3.5
 41
1
 50
0
  1
H72×W72×D73mm
  0
TEXT
  8
_0-7_注記層１
 62
    7
 10
244.75
 20
169.5
 40
3.5
 41
1
 50
0
  1
1日24回　ON-OFF動作
  0
TEXT
  8
_0-7_注記層１
 62
    7
 10
244.75
 20
139.5
 40
3.5
 41
1
 50
0
  1
前面カバー、取付け具、
  0
TEXT
  8
_0-7_注記層１
 62
    7
 10
211
 20
-15.5
 40
3.5
 41
1
 50
0
  1
2020.04.21
  0
TEXT
  8
_0-0_
 62
    7
 10
211.00591425619837
 20
-8.4043388429752071
 40
3.5
 41
1
 50
0
  1
2020.04.21：取付け具変更
  0
TEXT
  8
_0-7_注記層１
 62
    7
 10
302.25
 20
-26.25
 40
5
 41
1
 50
0
  1
ST-702P-001-03
  0
CIRCLE
  8
_0-0_
  6
CONTINUOUS
 62
    7
 10
269.89371322151038
 20
129.22462386098749
 40
2.2223565553895699
  0
TEXT
  8
_0-0_
 62
    7
 10
207.87694793551435
 20
127.6348802712439
 40
3.5
 41
1
 50
0
  1
※取付け具：（図番）ATTACH-001-02　A  参照
  0
TEXT
  8
_0-7_注記層１
 62
    7
 10
244.75
 20
136
 40
3.5
 41
1
 50
0
  1
ゴムパッキン（赤）（白）色設定子各３個
  0
ENDSEC
  0
EOF
